Menu:

 

Search:

 

slipknot - the nameless:

 



Title: The Nameless
Artist: 
Album: Volume 3: The Subliminal Verses
Author: Slipknot


Track 1: Distortion 1

C#|--------------------------------------------|---------------------------------|
G#|--------------------------------------------|---------------------------------|
 E|----------------------------------7---------|---------------------------------|
 B|-9--9-------1010101010109--9------5--7------|---------1010101010109--9--------|
F#|-7--7-------8-8-8-8-8-8-7--7---------5------|---------8-8-8-8-8-8-7--7--------|
 B|--------------------------------------------|---------------------------------|


C#|--------------------------------------------|---------------------------------|
G#|--------------------------------------------|---------------------------------|
 E|----------------------------------7---------|---------------------------------|
 B|-9--9-------1010101010109--9------5--7------|---------1010101010109--9--------|
F#|-7--7-------8-8-8-8-8-8-7--7---------5------|---------8-8-8-8-8-8-7--7--------|
 B|--------------------------------------------|---------------------------------|


C#|----------------------------------------------|-------------------------------------------------|
G#|----------------------------------------------|-------------------------------------------------|
 E|----------------------------------7-----------|-------------------------------------------------|
 B|-9--9-------1010101010109--9------5--0--------|----------------------------------------------4--|
F#|-7--7-------8-8-8-8-8-8-7--7------------1--1--|-1--1--1--1--1--1--1--1--1--1--1--1--1--1--1--2--|
 B|----------------------------------------1--1--|-1--1--1--1--1--1--1--1--1--1--1--1--1--1--1-----|


C#|-------------------------------------------------|-------------------------------------------------|
G#|-------------------------------------------------|-------------------------------------------------|
 E|-------------------------------------------------|-------------------------------------------------|
 B|-4--3-----------------------------------------4--|-4--3-----------------------------------------4--|
F#|-2--1--0-----------------------6--5--6--5-----2--|-2--1--0-----0--------------------------0--1--2--|
 B|----------2--0--0--0--0--0--0--6--5--6--5--0-----|----------2--0--0--0--0--0--0--0--2--3-----------|


C#|----------------------------------------------------------------|-------------------------------------------------|
G#|----------------------------------------------------------------|-------------------------------------------------|
 E|----------------------------------------------------------------|-------------------------------------------------|
 B|-4--3--------1--4--1--2--5--2--3--6--3--2--5--2--3--6--3--4--4--|-4--3-----------4--3--------------------------4--|
F#|-2--1--0-----------------------------------------------------2--|-2--1--0--2--0--2--1--0-----------------0--1--2--|
 B|----------2-----------------------------------------------------|----------2--0-----------2--0--2--3--5-----------|


C#|-------------------------------------------------|-------------------------------------------------|
G#|-------------------------------------------------|-------------------------------------------------|
 E|-------------------------------------------------|-------------------------------------------------|
 B|-4--3-----------------------------------------4--|-4--3-----------------------------------------4--|
F#|-2--1--0-----------------------6--5--6--5-----2--|-2--1--0-----0--------------------------0--1--2--|
 B|----------2--0--0--0--0--0--0--6--5--6--5--0-----|----------2--0--0--0--0--0--0--0--2--3-----------|


C#|----------------------------------------------------------------|-------------------------------------------------|
G#|----------------------------------------------------------------|-------------------------------------------------|
 E|----------------------------------------------------------------|-------------------------------------------------|
 B|-4--3--------1--4--1--2--5--2--3--6--3--2--5--2--3--6--3--4--4--|-4--3-----------4--3-----------------------------|
F#|-2--1--0-----------------------------------------------------2--|-2--1--0--2--0--2--1--0-----------------0--------|
 B|----------2-----------------------------------------------------|----------2--0-----------2--0--2--3--5-----2--0--|


C#|--------------------------------------------|---------------------------------|
G#|--------------------------------------------|---------------------------------|
 E|--------------------------------------------|---------------------------------|
 B|--------------------------------------------|---------------------------------|
F#|-2--2---------------------------------------|---------------------2--2--------|
 B|-2--2-------3-3-3-3-3-3-2--2------5--0------|---------3-3-3-3-3-3-2--2--------|


C#|--------------------------------------------|-------------------------------|--------------------------------------------|
G#|--------------------------------------------|-------------------------------|--------------------------------------------|
 E|--------------------------------------------|-------------------------------|--------------------------------------------|
 B|--------------------------------------------|-------------------------------|--------------------------------------------|
F#|-2--2---------------------------------------|---------------------2---------|-2--2---------------------------------------|
 B|-2--2-------3-3-3-3-3-3-2--2------5--1------|---------3-3-3-3-3-3-2---------|-2--2-------3-3-3-3-3-3-2--2------5--1------|


C#|---------------------------------|----------------------------------------------|
G#|---------------------------------|----------------------------------------------|
 E|---------------------------------|----------------------------------------------|
 B|---------------------------------|----------------------------------------------|
F#|---------------------2--2--------|-2--2-----------------------------------1--1--|
 B|---------3-3-3-3-3-3-2--2--------|-2--2-------3-3-3-3-3-3-2--2------5--1--1--1--|


C#|-------------------------------------------------|-------------------------------------------------|
G#|-------------------------------------------------|-------------------------------------------------|
 E|-------------------------------------------------|-------------------------------------------------|
 B|----------------------------------------------4--|-4--3--0--------------------------------------4--|
F#|-1--1--1--1--1--1--1--1--1--1--1--1--1--1--1--2--|-2--1--0-----------------------6--5--6--5-----2--|
 B|-1--1--1--1--1--1--1--1--1--1--1--1--1--1--1-----|----------0--0--0--0--0--0--0--6--5--6--5--0-----|


C#|-------------------------------------------------|----------------------------------------------------------------|
G#|-------------------------------------------------|----------------------------------------------------------------|
 E|-------------------------------------------------|----------------------------------------------------------------|
 B|-4--3--0-----------------------------------3--4--|-4--3--0-----1--4--1--2--5--2--3--6--3--2--5--2--3--6--3--4--4--|
F#|-2--1--0-----------------------5--6--3--5--1--2--|-2--1--0-----------------------------------------------------2--|
 B|----------0--0--0--0--0--0--0--5--6--3--5--------|----------0-----------------------------------------------------|


C#|---------------------------------------------|--------|--------|--------|--------|
G#|---------------------------------------------|--------|--------|--------|--------|
 E|---------------------------------------------|--------|--------|--------|--------|
 B|-4--3--0--------4--3-------------------------|--------|--------|--------|--------|
F#|-2--1--0--2--0--2--1--0--2--0--2--3--5-------|--------|--------|--------|--------|
 B|----------2--0-----------2--0--2--3--5-------|--------|--------|--------|--------|


C#|--------|--------|--------|--------|--------|--------------------------------------------|
G#|--------|--------|--------|--------|--------|--------------------------------------------|
 E|--------|--------|--------|--------|--------|----------------------------------7---------|
 B|--------|--------|--------|--------|--------|-9--9-------1010101010109--9------5--7------|
F#|--------|--------|--------|--------|--------|-7--7-------8-8-8-8-8-8-7--7---------5------|
 B|--------|--------|--------|--------|--------|--------------------------------------------|


C#|---------------------------------|--------------------------------------------|
G#|---------------------------------|--------------------------------------------|
 E|---------------------------------|----------------------------------7---------|
 B|---------1010101010109--9--------|-9--9-------1010101010109--9------5--7------|
F#|---------8-8-8-8-8-8-7--7--------|-7--7-------8-8-8-8-8-8-7--7---------5------|
 B|---------------------------------|--------------------------------------------|


C#|---------------------------------|--------------------------------------------|
G#|---------------------------------|--------------------------------------------|
 E|---------------------------------|--------------------------------------------|
 B|---------1010101010109--9--------|--------------------------------------------|
F#|---------8-8-8-8-8-8-7--7--------|--------------------------------------------|
 B|---------------------------------|-0--0-------1-1-1-1-1-1-0--0------0--0------|


C#|---------------------------------|--------------------------------------------|
G#|---------------------------------|--------------------------------------------|
 E|---------------------------------|--------------------------------------------|
 B|---------------------------------|--------------------------------------------|
F#|---------------------------------|--------------------------------------------|
 B|---------1-1-1-1-1-1-0--0--------|-0--0-------1-1-1-1-1-1-0--0------0--0------|


C#|---------------------------------|--------------------------------------------|
G#|---------------------------------|--------------------------------------------|
 E|---------------------------------|--------------------------------------------|
 B|---------------------------------|--------------------------------------------|
F#|---------------------------------|--------------------------------------------|
 B|---------1-1-1-1-1-1-0--0--------|-0--0-------1-1-1-1-1-1-0--0------0--0------|


C#|---------------------------------|----------------------------------------------|
G#|---------------------------------|----------------------------------------------|
 E|---------------------------------|----------------------------------------------|
 B|---------------------------------|----------------------------------------------|
F#|---------------------------------|----------------------------------------------|
 B|---------1-1-1-1-1-1-0--0--------|-0--0-------1-1-1-1-1-1-0--0------0--0--1--1--|


C#|-------------------------------------------------|-------------------------------------------------|
G#|-------------------------------------------------|-------------------------------------------------|
 E|-------------------------------------------------|-------------------------------------------------|
 B|----------------------------------------------4--|-4--3--0--------------------------------------4--|
F#|-1--1--1--1--1--1--1--1--1--1--1--1--1--1--1--2--|-2--1--0-----------------------6--5--6--5-----2--|
 B|-1--1--1--1--1--1--1--1--1--1--1--1--1--1--1-----|----------0--0--0--0--0--0--0--6--5--6--5--0-----|


C#|-------------------------------------------------|----------------------------------------------------------------|
G#|-------------------------------------------------|----------------------------------------------------------------|
 E|-------------------------------------------------|----------------------------------------------------------------|
 B|-4--3--0-----------------------------------3--4--|-4--3--0-----1--4--1--2--5--2--3--6--3--2--5--2--3--6--3--4--4--|
F#|-2--1--0-----------------------5--6--3--5--1--2--|-2--1--0-----------------------------------------------------2--|
 B|----------0--0--0--0--0--0--0--5--6--3--5--------|----------0-----------------------------------------------------|


C#|---------------------------------------------|--------|--------|--------|--------|
G#|---------------------------------------------|--------|--------|--------|--------|
 E|---------------------------------------------|--------|--------|--------|--------|
 B|-4--3--0--------4--3-------------------------|--------|--------|--------|--------|
F#|-2--1--0--2--0--2--1--0--2--0--2--3--5-------|--------|--------|--------|--------|
 B|----------2--0-----------2--0--2--3--5-------|--------|--------|--------|--------|


C#|--------|--------|--------|--------|--------|--------|--------|--------|--------|
G#|--------|--------|--------|--------|--------|--------|--------|--------|--------|
 E|--------|--------|--------|--------|--------|--------|--------|--------|--------|
 B|--------|--------|--------|--------|--------|--------|--------|--------|--------|
F#|--------|--------|--------|--------|--------|--------|--------|--------|--------|
 B|--------|--------|--------|--------|--------|--------|--------|--------|--------|


C#|--------|--------|--------|--------|--------|--------|--------|--------|--------------------|
G#|--------|--------|--------|--------|--------|--------|--------|--------|--------------------|
 E|--------|--------|--------|--------|--------|--------|--------|--------|--------------------|
 B|--------|--------|--------|--------|--------|--------|--------|--------|---------------10---|
F#|--------|--------|--------|--------|--------|--------|--------|--------|-3--6----6-----6----|
 B|--------|--------|--------|--------|--------|--------|--------|--------|--------------------|


C#|-------------|--------|-------------|-----------------------------------|-----------------------------------|
G#|-------------|--------|-------------|-----------------------------------|-----------------------------------|
 E|-------------|--------|-------------|-----------------------------------|-----------------------------------|
 B|-10----------|--------|------10-----|-----------------------------------|-----------------------------------|
F#|-6----6------|-6------|-6----6------|-----------------------------------|-------------------3---4-----------|
 B|-------------|--------|-------------|-8---1---0---2---1--1--0---8---1---|-0---2---1--1--0-----------6---5---|


C#|-----------------------------------|-----------------------------------|-----------------------------------|
G#|-----------------------------------|-----------------------------------|-----------------------------------|
 E|-----------------------------------|-----------------------------------|-----------------------------------|
 B|-----------------------------------|-----------------------------------|-----------------------------------|
F#|-----------------------------------|-------------------2---1-----------|-8---1---0---2---1--1--0---8---1---|
 B|-8---1---0---2---1--1--0---8---1---|-0---2---1--1--0-----------1---2---|-8---1---0---2---1--1--0---8---1---|


C#|-----------------------------------|-----------------------------------|-----------------------------------|
G#|-----------------------------------|-----------------------------------|-----------------------------------|
 E|-----------------------------------|-----------------------------------|-----------------------------------|
 B|-------------------5---6-----------|-----------------------------------|-------------------4---3-----------|
F#|-0---2---1--1--0---3---4---6---5---|-8---1---0---2---1--1--0---8---1---|-0---2---1--1--0---2---1---1---2---|
 B|-0---2---1--1--0-----------6---5---|-8---1---0---2---1--1--0---8---1---|-0---2---1--1--0-----------1---2---|


C#|-----------------------------------|-----------------------------------|-----------------------------------|
G#|-----------------------------------|-----------------------------------|-----------------------------------|
 E|-----------------------------------|-----------------------------------|-----------------------------------|
 B|-----------------------------------|-------------------5---6-----------|-----------------------------------|
F#|-8---1---0---2---1--1--0---8---1---|-0---2---1--1--0---3---4---6---5---|-8---1---0---2---1--1--0---8---1---|
 B|-8---1---0---2---1--1--0---8---1---|-0---2---1--1--0-----------6---5---|-8---1---0---2---1--1--0---8---1---|


C#|-----------------------------------|-----------------------------------|-----------------------------------|
G#|-----------------------------------|-----------------------------------|-----------------------------------|
 E|-----------------------------------|-----------------------------------|-----------------------------------|
 B|-------------------4---3-----------|-----------------------------------|-------------------5---6-----------|
F#|-0---2---1--1--0---2---1---1---2---|-8---1---0---2---1--1--0---8---1---|-0---2---1--1--0---3---4---6---5---|
 B|-0---2---1--1--0-----------1---2---|-8---1---0---2---1--1--0---8---1---|-0---2---1--1--0-----------6---5---|


C#|-----------------------------------|-----------------------------------|-----------------------------------|
G#|-----------------------------------|-----------------------------------|-----------------------------------|
 E|-----------------------------------|-----------------------------------|-----------------------------------|
 B|-----------------------------------|-------------------4---3-----------|-----------------------------------|
F#|-8---1---0---2---1--1--0---8---1---|-0---2---1--1--0---2---1---1---2---|-8---1---0---2---1--1--0---8---1---|
 B|-8---1---0---2---1--1--0---8---1---|-0---2---1--1--0-----------1---2---|-8---1---0---2---1--1--0---8---1---|


C#|-----------------------------------|-----------------------------------|-----------------------------------|
G#|-----------------------------------|-----------------------------------|-----------------------------------|
 E|-----------------------------------|-----------------------------------|-----------------------------------|
 B|-------------------5---6-----------|-----------------------------------|-------------------4---3-----------|
F#|-0---2---1--1--0---3---4---6---5---|-8---1---0---2---1--1--0---8---1---|-0---2---1--1--0---2---1---1---2---|
 B|-0---2---1--1--0-----------6---5---|-8---1---0---2---1--1--0---8---1---|-0---2---1--1--0-----------1---2---|


C#|--------------------------------|-----------------|---------------------------|
G#|--------------------------------|-----------------|---------------------------|
 E|--------------------------------|-----------------|----------12--12--10--10---|
 B|-6---5--------------------------|-----------------|----------10------8---8----|
F#|-4---3---3---4------------------|-------0-----3---|-----0----10--10--8---8----|
 B|---------3---4---0----0----0----|-------0-----3---|-----0---------------------|


C#|------------------------|---------------------------|------------------------|---------------------------|
G#|------------------------|---------------------------|------------------------|---------------------------|
 E|------10--10------------|---------------------------|------------------------|----------12--12--10--10---|
 B|------8---8---------7---|-7-------------------------|------------------------|----------10------8---8----|
F#|------8---8---7-----5---|-5---3----6---6------------|--------------0-----3---|-----0----10--10--8---8----|
 B|--------------7---------|-----3----6---6---0---0----|-0----0---0---0-----3---|-----0---------------------|


C#|------------------------|---------------------------|------------------------|------------------------------|
G#|------------------------|---------------------------|------------------------|------------------------------|
 E|------10--10------------|---------------------------|------------------------|------------------------------|
 B|------8---8---------7---|-7-------------------------|------------------------|------------------------------|
F#|------8---8---7-----5---|-5---3----6---6------------|--------------0-----3---|-----0----8---8---11--11--11--|
 B|--------------7---------|-----3----6---6---0---0----|-0----0---0---0-----3---|-----0----8---8---8---8---8---|


C#|---------------------------|------------------------------|---------------------------|
G#|---------------------------|------------------------------|---------------------------|
 E|-----------------------2---|-----5----8---8---------------|---------------------------|
 B|---------------------------|-----3----6---6---------------|---------------------------|
F#|-11--11--11------7---------|-----3----6---6---------------|-----------------0-----3---|
 B|-8---8---8---8---7---------|------------------0---0---0---|-0---0---0---0---0-----3---|


C#|------------------------------|---------------------------|--------------------|
G#|------------------------------|---------------------------|--------------------|
 E|------------------------------|---------------------------|--------------------|
 B|------------------------------|-----------------------7---|-7------------------|
F#|-----0----8---8---11--11--11--|-11--11--11------7-----5---|-5---3----6---6-----|
 B|-----0----8---8---8---8---8---|-8---8---8---7---7---------|-----3----6---6-----|


C#|---------------------------|-------------------------------------|---------------------------------|
G#|---------------------------|-------------------------------------|---------------------------------|
 E|---------------------------|-------------------------------------|---------------------------------|
 B|---------------------------|-------------------------------------|---------------------------------|
F#|---------------------------|-------------------------------------|-3---4---------------------------|
 B|------19---8---1---0---2---|-1--1--0---8---1---0---2---1--1--0---|---------6---5---8---1---0---2---|


C#|-------------------------------------|---------------------------------|-------------------------------------|
G#|-------------------------------------|---------------------------------|-------------------------------------|
 E|-------------------------------------|---------------------------------|-------------------------------------|
 B|-------------------------------------|---------------------------------|-------------------------------------|
F#|-------------------------------------|-2---1-----------8---1---0---2---|-1--1--0---8---1---0---2---1--1--0---|
 B|-1--1--0---8---1---0---2---1--1--0---|---------1---2---8---1---0---2---|-1--1--0---8---1---0---2---1--1--0---|


C#|---------------------------------|-------------------------------------|---------------------------------|
G#|---------------------------------|-------------------------------------|---------------------------------|
 E|---------------------------------|-------------------------------------|---------------------------------|
 B|-5---6---------------------------|-------------------------------------|-4---3---------------------------|
F#|-3---4---6---5---8---1---0---2---|-1--1--0---8---1---0---2---1--1--0---|-2---1---1---2---8---1---0---2---|
 B|---------6---5---8---1---0---2---|-1--1--0---8---1---0---2---1--1--0---|---------1---2---8---1---0---2---|


C#|-------------------------------------|---------------------------------|-------------------------------------|
G#|-------------------------------------|---------------------------------|-------------------------------------|
 E|-------------------------------------|---------------------------------|-------------------------------------|
 B|-------------------------------------|-5---6---------------------------|-------------------------------------|
F#|-1--1--0---8---1---0---2---1--1--0---|-3---4---6---5---8---1---0---2---|-1--1--0---8---1---0---2---1--1--0---|
 B|-1--1--0---8---1---0---2---1--1--0---|---------6---5---8---1---0---2---|-1--1--0---8---1---0---2---1--1--0---|


C#|-------------|
G#|-------------|
 E|-------------|
 B|-------------|
F#|-------------|
 B|-------------|





Track 2: Distortion 2

C#|--------|--------|--------|--------|--------|--------|--------|--------|----------------------------------------------------------------|
G#|--------|--------|--------|--------|--------|--------|--------|--------|----------------------------------------------------------------|
 E|--------|--------|--------|--------|--------|--------|--------|--------|----------------------------------------------------------------|
 B|--------|--------|--------|--------|--------|--------|--------|--------|-4--3--------------------------------------------------------4--|
F#|--------|--------|--------|--------|--------|--------|--------|--------|-2--1--0-----2--5--2--3--6--3--4--7--4--3--6--3--4--7--4--5--2--|
 B|--------|--------|--------|--------|--------|--------|--------|--------|----------2-----------------------------------------------------|


C#|-------------------------------------------------|--------|--------|----------------------------------------------------------------|
G#|-------------------------------------------------|--------|--------|----------------------------------------------------------------|
 E|-------------------------------------------------|--------|--------|----------------------------------------------------------------|
 B|-4--3-----------4--3--------------------------4--|--------|--------|-4--3--------------------------------------------------------4--|
F#|-2--1--0--2--0--2--1--0-----------------0--1--2--|--------|--------|-2--1--0-----2--5--2--3--6--3--4--7--4--3--6--3--4--7--4--5--2--|
 B|----------2--0-----------2--0--2--3--5-----------|--------|--------|----------2-----------------------------------------------------|


C#|--------|--------|--------|--------|--------|--------|--------|--------|--------|
G#|--------|--------|--------|--------|--------|--------|--------|--------|--------|
 E|--------|--------|--------|--------|--------|--------|--------|--------|--------|
 B|--------|--------|--------|--------|--------|--------|--------|--------|--------|
F#|--------|--------|--------|--------|--------|--------|--------|--------|--------|
 B|--------|--------|--------|--------|--------|--------|--------|--------|--------|


C#|--------|--------|----------------------------------------------------------------|
G#|--------|--------|----------------------------------------------------------------|
 E|--------|--------|----------------------------------------------------------------|
 B|--------|--------|-4--3--0-----------------------------------------------------4--|
F#|--------|--------|-2--1--0-----2--5--2--3--6--3--4--7--4--3--6--3--4--7--4--5--2--|
 B|--------|--------|----------0-----------------------------------------------------|


C#|---------------------------------------------|--------|--------|--------|--------|
G#|---------------------------------------------|--------|--------|--------|--------|
 E|---------------------------------------------|--------|--------|--------|--------|
 B|-4--3--0--------4--3-------------------------|--------|--------|--------|--------|
F#|-2--1--0--2--0--2--1--0--2--0--2--3--5-------|--------|--------|--------|--------|
 B|----------2--0-----------2--0--2--3--5-------|--------|--------|--------|--------|


C#|--------|--------|--------|--------|--------|--------|--------|--------|--------|
G#|--------|--------|--------|--------|--------|--------|--------|--------|--------|
 E|--------|--------|--------|--------|--------|--------|--------|--------|--------|
 B|--------|--------|--------|--------|--------|--------|--------|--------|--------|
F#|--------|--------|--------|--------|--------|--------|--------|--------|--------|
 B|--------|--------|--------|--------|--------|--------|--------|--------|--------|


C#|--------|--------|--------|--------|--------|--------|--------|--------|--------|
G#|--------|--------|--------|--------|--------|--------|--------|--------|--------|
 E|--------|--------|--------|--------|--------|--------|--------|--------|--------|
 B|--------|--------|--------|--------|--------|--------|--------|--------|--------|
F#|--------|--------|--------|--------|--------|--------|--------|--------|--------|
 B|--------|--------|--------|--------|--------|--------|--------|--------|--------|


C#|--------|----------------------------------------------------------------|---------------------------------------------|
G#|--------|----------------------------------------------------------------|---------------------------------------------|
 E|--------|----------------------------------------------------------------|---------------------------------------------|
 B|--------|-4--3--0-----------------------------------------------------4--|-4--3--0--------4--3-------------------------|
F#|--------|-2--1--0-----2--5--2--3--6--3--4--7--4--3--6--3--4--7--4--5--2--|-2--1--0--2--0--2--1--0--2--0--2--3--5-------|
 B|--------|----------0-----------------------------------------------------|----------2--0-----------2--0--2--3--5-------|


C#|--------|--------|--------|--------|--------|--------|--------|--------|--------|
G#|--------|--------|--------|--------|--------|--------|--------|--------|--------|
 E|--------|--------|--------|--------|--------|--------|--------|--------|--------|
 B|--------|--------|--------|--------|--------|--------|--------|--------|--------|
F#|--------|--------|--------|--------|--------|--------|--------|--------|--------|
 B|--------|--------|--------|--------|--------|--------|--------|--------|--------|


C#|--------|--------|--------|--------|--------|--------|--------|--------|--------|
G#|--------|--------|--------|--------|--------|--------|--------|--------|--------|
 E|--------|--------|--------|--------|--------|--------|--------|--------|--------|
 B|--------|--------|--------|--------|--------|--------|--------|--------|--------|
F#|--------|--------|--------|--------|--------|--------|--------|--------|--------|
 B|--------|--------|--------|--------|--------|--------|--------|--------|--------|


C#|--------|--------|--------|--------|--------|--------|-----------------|-----------------------------------|
G#|--------|--------|--------|--------|--------|--------|-----------------|-----------------------------------|
 E|--------|--------|--------|--------|--------|--------|-----------------|-----------------------------------|
 B|--------|--------|--------|-10-----|-10-----|-10-----|-10--------------|-----------------------------------|
F#|--------|--------|--------|-6------|-6------|-6------|-6---------------|-----------------------------------|
 B|--------|--------|--------|--------|--------|--------|-------20--20----|-8---1---0---2---1--1--0---8---1---|


C#|-----------------------------------|-----------------------------------|-----------------------------------|
G#|-----------------------------------|-----------------------------------|-----------------------------------|
 E|-----------------------------------|-----------------------------------|-----------------------------------|
 B|---------------------------6---5---|-----------------------------------|-----------------------------------|
F#|-------------------3---4-----------|-----------------------------------|-------------------2---1-----------|
 B|-0---2---1--1--0-------------------|-8---1---0---2---1--1--0---8---1---|-0---2---1--1--0-----------1---2---|


C#|--------|--------|--------|--------|--------|--------|--------|--------|--------|
G#|--------|--------|--------|--------|--------|--------|--------|--------|--------|
 E|--------|--------|--------|--------|--------|--------|--------|--------|--------|
 B|--------|--------|--------|--------|--------|--------|--------|--------|--------|
F#|--------|--------|--------|--------|--------|--------|--------|--------|--------|
 B|--------|--------|--------|--------|--------|--------|--------|--------|--------|


C#|--------|--------|--------|--------|--------|--------|--------|--------|-----------------|
G#|--------|--------|--------|--------|--------|--------|--------|--------|-----------------|
 E|--------|--------|--------|--------|--------|--------|--------|--------|-----------------|
 B|--------|--------|--------|--------|--------|--------|--------|--------|-----------------|
F#|--------|--------|--------|--------|--------|--------|--------|--------|-------0-----3---|
 B|--------|--------|--------|--------|--------|--------|--------|--------|-------0-----3---|


C#|--------------------|-----------------|---------------------------|------------------------|
G#|--------------------|-----------------|---------------------------|------------------------|
 E|--------------------|-----------------|---------------------------|------------------------|
 B|--------------------|-------------7---|-7-------------------------|------------------------|
F#|-----0----8---8-----|-------7-----5---|-5---3----6---6------------|--------------0-----3---|
 B|-----0----8---8-----|-------7---------|-----3----6---6---0---0----|-0----0---0---0-----3---|


C#|--------------------|-----------------|---------------------------|------------------------|
G#|--------------------|-----------------|---------------------------|------------------------|
 E|--------------------|-----------------|---------------------------|------------------------|
 B|--------------------|-------------7---|-7-------------------------|------------------------|
F#|-----0----8---8-----|-------7-----5---|-5---3----6---6------------|--------------0-----3---|
 B|-----0----8---8-----|-------7---------|-----3----6---6---0---0----|-0----0---0---0-----3---|


C#|------------------------------|------------------------|------------------------------|
G#|------------------------------|------------------------|------------------------------|
 E|------------------------------|------------------------|------------------------------|
 B|------------------------------|--------------------7---|-7----------------------------|
F#|-----0----8---8---11--11--11--|-11--11--11---7-----5---|-5---3----6---6---------------|
 B|-----0----8---8---8---8---8---|-8---8---8----7---------|-----3----6---6---0---0---0---|


C#|-----------------------|--------|--------|--------|-----------------------|-------------------------------------|
G#|-----------------------|--------|--------|--------|-----------------------|-------------------------------------|
 E|-----------------------|--------|--------|--------|-----------------------|-------------------------------------|
 B|-----------------------|--------|--------|--------|-----------------------|-------------------------------------|
F#|-----------------------|--------|--------|--------|-----------------------|-------------------------------------|
 B|-0---0---0---0---------|--------|--------|--------|-------8---1---0---2---|-1--1--0---8---1---0---2---1--1--0---|


C#|---------------------------------|-------------------------------------|-----------------------|
G#|---------9---8-------------------|-------------------------------------|-----------------------|
 E|---------6---5-------------------|-------------------------------------|-----------------------|
 B|---------6---5-------------------|-------------------------------------|-4---3-----------------|
F#|-3---4---------------------------|-------------------------------------|-2---1---1---2---------|
 B|-----------------8---1---0---2---|-1--1--0---8---1---0---2---1--1--0---|---------1---2---------|


C#|--------|--------|--------|--------|--------|--------|--------|--------|
G#|--------|--------|--------|--------|--------|--------|--------|--------|
 E|--------|--------|--------|--------|--------|--------|--------|--------|
 B|--------|--------|--------|--------|--------|--------|--------|--------|
F#|--------|--------|--------|--------|--------|--------|--------|--------|
 B|--------|--------|--------|--------|--------|--------|--------|--------|





Track 3: Acoustic 1

C#|--------|--------|--------|--------|--------|--------|--------|--------|--------|
G#|--------|--------|--------|--------|--------|--------|--------|--------|--------|
 E|--------|--------|--------|--------|--------|--------|--------|--------|--------|
 B|--------|--------|--------|--------|--------|--------|--------|--------|--------|
F#|--------|--------|--------|--------|--------|--------|--------|--------|--------|
 B|--------|--------|--------|--------|--------|--------|--------|--------|--------|


C#|--------|--------|--------|--------|--------|--------|--------|--------|--------|
G#|--------|--------|--------|--------|--------|--------|--------|--------|--------|
 E|--------|--------|--------|--------|--------|--------|--------|--------|--------|
 B|--------|--------|--------|--------|--------|--------|--------|--------|--------|
F#|--------|--------|--------|--------|--------|--------|--------|--------|--------|
 B|--------|--------|--------|--------|--------|--------|--------|--------|--------|


C#|--------|--------|--------|--------|--------|--------|--------|--------|-5-------5-------5-------5-------|
G#|--------|--------|--------|--------|--------|--------|--------|--------|-----6-------6-------6-------6---|
 E|--------|--------|--------|--------|--------|--------|--------|--------|---------------------------------|
 B|--------|--------|--------|--------|--------|--------|--------|--------|---------------------------------|
F#|--------|--------|--------|--------|--------|--------|--------|--------|---------------------------------|
 B|--------|--------|--------|--------|--------|--------|--------|--------|---------------------------------|


C#|-6-------6-------6-------6-------|-5-------5-------5-------5-------|-5-------5-------5-------5-------|
G#|-----6-------6-------6-------6---|-----6-------6-------5-------5---|-----6-------6-------6-------6---|
 E|---------------------------------|---------------------------------|---------------------------------|
 B|---------------------------------|---------------------------------|---------------------------------|
F#|---------------------------------|---------------------------------|---------------------------------|
 B|---------------------------------|---------------------------------|---------------------------------|


C#|-5-------5-------5-------5-------|-6-------6-------6-------6-------|-5-------5-------5-------5-------|
G#|-----6-------6-------6-------6---|-----6-------6-------6-------6---|-----6-------6-------5-------5---|
 E|---------------------------------|---------------------------------|---------------------------------|
 B|---------------------------------|---------------------------------|---------------------------------|
F#|---------------------------------|---------------------------------|---------------------------------|
 B|---------------------------------|---------------------------------|---------------------------------|


C#|-4----4------|--------|--------|--------|--------|--------|--------|--------|--------|
G#|-4----4------|--------|--------|--------|--------|--------|--------|--------|--------|
 E|-5----5------|--------|--------|--------|--------|--------|--------|--------|--------|
 B|-------------|--------|--------|--------|--------|--------|--------|--------|--------|
F#|-------------|--------|--------|--------|--------|--------|--------|--------|--------|
 B|-------------|--------|--------|--------|--------|--------|--------|--------|--------|


C#|--------|--------|--------|--------|--------|--------|--------|--------|--------|
G#|--------|--------|--------|--------|--------|--------|--------|--------|--------|
 E|--------|--------|--------|--------|--------|--------|--------|--------|--------|
 B|--------|--------|--------|--------|--------|--------|--------|--------|--------|
F#|--------|--------|--------|--------|--------|--------|--------|--------|--------|
 B|--------|--------|--------|--------|--------|--------|--------|--------|--------|


C#|-5-------5-------5-------5-------|-6-------6-------6-------6-------|-5-------5-------5-------5-------|
G#|-----6-------6-------6-------6---|-----6-------6-------6-------6---|-----6-------6-------5-------5---|
 E|---------------------------------|---------------------------------|---------------------------------|
 B|---------------------------------|---------------------------------|---------------------------------|
F#|---------------------------------|---------------------------------|---------------------------------|
 B|---------------------------------|---------------------------------|---------------------------------|


C#|-5-------5-------5-------5-------|-5-------5-------5-------5-------|-6-------6-------6-------6-------|
G#|-----6-------6-------6-------6---|-----6-------6-------6-------6---|-----6-------6-------6-------6---|
 E|---------------------------------|---------------------------------|---------------------------------|
 B|---------------------------------|---------------------------------|---------------------------------|
F#|---------------------------------|---------------------------------|---------------------------------|
 B|---------------------------------|---------------------------------|---------------------------------|


C#|-5-------5-------5-------5-------|-5-------5-------5-------5-------|-5-------5-------5-------5-------|
G#|-----6-------6-------5-------5---|-----6-------6-------6-------6---|-----6-------6-------6-------6---|
 E|---------------------------------|---------------------------------|---------------------------------|
 B|---------------------------------|---------------------------------|---------------------------------|
F#|---------------------------------|---------------------------------|---------------------------------|
 B|---------------------------------|---------------------------------|---------------------------------|


C#|-6-------6-------6-------6-------|-5-------5-------5-------5-------|-5-------5-------5-------5-------|
G#|-----6-------6-------6-------6---|-----6-------6-------5-------5---|-----6-------6-------6-------6---|
 E|---------------------------------|---------------------------------|---------------------------------|
 B|---------------------------------|---------------------------------|---------------------------------|
F#|---------------------------------|---------------------------------|---------------------------------|
 B|---------------------------------|---------------------------------|---------------------------------|


C#|-5-------5-------5-------5-------|-6-------6-------6-------6-------|-5-------5-------5-------5-------|
G#|-----6-------6-------6-------6---|-----6-------6-------6-------6---|-----6-------6-------5-------5---|
 E|---------------------------------|---------------------------------|---------------------------------|
 B|---------------------------------|---------------------------------|---------------------------------|
F#|---------------------------------|---------------------------------|---------------------------------|
 B|---------------------------------|---------------------------------|---------------------------------|


C#|-4----4------|--------|--------|--------|--------|--------|--------|--------|--------|
G#|-4----4------|--------|--------|--------|--------|--------|--------|--------|--------|
 E|-5----5------|--------|--------|--------|--------|--------|--------|--------|--------|
 B|-------------|--------|--------|--------|--------|--------|--------|--------|--------|
F#|-------------|--------|--------|--------|--------|--------|--------|--------|--------|
 B|-------------|--------|--------|--------|--------|--------|--------|--------|--------|


C#|--------|--------|--------|--------|--------|--------|--------|--------|--------|
G#|--------|--------|--------|--------|--------|--------|--------|--------|--------|
 E|--------|--------|--------|--------|--------|--------|--------|--------|--------|
 B|--------|--------|--------|--------|--------|--------|--------|--------|--------|
F#|--------|--------|--------|--------|--------|--------|--------|--------|--------|
 B|--------|--------|--------|--------|--------|--------|--------|--------|--------|


C#|--------|--------|--------|--------|--------|--------|--------|--------|--------|
G#|--------|--------|--------|--------|--------|--------|--------|--------|--------|
 E|--------|--------|--------|--------|--------|--------|--------|--------|--------|
 B|--------|--------|--------|--------|--------|--------|--------|--------|--------|
F#|--------|--------|--------|--------|--------|--------|--------|--------|--------|
 B|--------|--------|--------|--------|--------|--------|--------|--------|--------|


C#|--------|--------|--------|--------|--------|--------|--------|--------|--------|
G#|--------|--------|--------|--------|--------|--------|--------|--------|--------|
 E|--------|--------|--------|--------|--------|--------|--------|--------|--------|
 B|--------|--------|--------|--------|--------|--------|--------|--------|--------|
F#|--------|--------|--------|--------|--------|--------|--------|--------|--------|
 B|--------|--------|--------|--------|--------|--------|--------|--------|--------|


C#|--------|--------|--------|--------|--------|--------|--------|--------|--------|
G#|--------|--------|--------|--------|--------|--------|--------|--------|--------|
 E|--------|--------|--------|--------|--------|--------|--------|--------|--------|
 B|--------|--------|--------|--------|--------|--------|--------|--------|--------|
F#|--------|--------|--------|--------|--------|--------|--------|--------|--------|
 B|--------|--------|--------|--------|--------|--------|--------|--------|--------|


C#|--------|--------|--------|--------|--------|--------|--------|--------|--------|
G#|--------|--------|--------|--------|--------|--------|--------|--------|--------|
 E|--------|--------|--------|--------|--------|--------|--------|--------|--------|
 B|--------|--------|--------|--------|--------|--------|--------|--------|--------|
F#|--------|--------|--------|--------|--------|--------|--------|--------|--------|
 B|--------|--------|--------|--------|--------|--------|--------|--------|--------|


C#|--------|--------|--------|--------|--------|--------|
G#|--------|--------|--------|--------|--------|--------|
 E|--------|--------|--------|--------|--------|--------|
 B|--------|--------|--------|--------|--------|--------|
F#|--------|--------|--------|--------|--------|--------|
 B|--------|--------|--------|--------|--------|--------|





Track 4: Acoustic 2

C#|--------|--------|--------|--------|--------|--------|--------|--------|--------|
G#|--------|--------|--------|--------|--------|--------|--------|--------|--------|
 E|--------|--------|--------|--------|--------|--------|--------|--------|--------|
 B|--------|--------|--------|--------|--------|--------|--------|--------|--------|
F#|--------|--------|--------|--------|--------|--------|--------|--------|--------|
 B|--------|--------|--------|--------|--------|--------|--------|--------|--------|


C#|--------|--------|--------|--------|--------|--------|--------|--------|--------|
G#|--------|--------|--------|--------|--------|--------|--------|--------|--------|
 E|--------|--------|--------|--------|--------|--------|--------|--------|--------|
 B|--------|--------|--------|--------|--------|--------|--------|--------|--------|
F#|--------|--------|--------|--------|--------|--------|--------|--------|--------|
 B|--------|--------|--------|--------|--------|--------|--------|--------|--------|


C#|--------|--------|--------|--------|--------|--------|--------|--------|---------------------------------|
G#|--------|--------|--------|--------|--------|--------|--------|--------|-6-------6-------6-------6-------|
 E|--------|--------|--------|--------|--------|--------|--------|--------|-----7-------7-------7-------7---|
 B|--------|--------|--------|--------|--------|--------|--------|--------|---------------------------------|
F#|--------|--------|--------|--------|--------|--------|--------|--------|---------------------------------|
 B|--------|--------|--------|--------|--------|--------|--------|--------|---------------------------------|


C#|---------------------------------|---------------------------------|---------------------------------|
G#|-----6-------6-------6-------6---|-----6-------6-------5-------5---|-6-------6-------6-------6-------|
 E|---------------------------------|---------------------------------|-----7-------7-------7-------7---|
 B|-8-------8-------8-------8-------|-7-------7-------7-------7-------|---------------------------------|
F#|---------------------------------|---------------------------------|---------------------------------|
 B|---------------------------------|---------------------------------|---------------------------------|


C#|---------------------------------|---------------------------------|---------------------------------|
G#|-6-------6-------6-------6-------|-----6-------6-------6-------6---|-----6-------6-------5-------5---|
 E|-----7-------7-------7-------7---|---------------------------------|---------------------------------|
 B|---------------------------------|-8-------8-------8-------8-------|-7-------7-------7-------7-------|
F#|---------------------------------|---------------------------------|---------------------------------|
 B|---------------------------------|---------------------------------|---------------------------------|


C#|-------------|-------------|--------|--------|--------|--------|--------|--------|
G#|-4----4------|-4-----------|--------|--------|--------|--------|--------|--------|
 E|-5----5------|-5-----------|--------|--------|--------|--------|--------|--------|
 B|-6----6------|-6-----------|--------|--------|--------|--------|--------|--------|
F#|-------------|-------------|--------|--------|--------|--------|--------|--------|
 B|-------------|-------------|--------|--------|--------|--------|--------|--------|


C#|--------|--------|--------|--------|--------|--------|--------|--------|--------|
G#|--------|--------|--------|--------|--------|--------|--------|--------|--------|
 E|--------|--------|--------|--------|--------|--------|--------|--------|--------|
 B|--------|--------|--------|--------|--------|--------|--------|--------|--------|
F#|--------|--------|--------|--------|--------|--------|--------|--------|--------|
 B|--------|--------|--------|--------|--------|--------|--------|--------|--------|


C#|--------|---------------------------------|---------------------------------|---------------------------------|
G#|--------|-6-------6-------6-------6-------|-----6-------6-------6-------6---|-----6-------6-------5-------5---|
 E|--------|-----7-------7-------7-------7---|---------------------------------|---------------------------------|
 B|--------|---------------------------------|-8-------8-------8-------8-------|-7-------7-------7-------7-------|
F#|--------|---------------------------------|---------------------------------|---------------------------------|
 B|--------|---------------------------------|---------------------------------|---------------------------------|


C#|---------------------------------|---------------------------------|---------------------------------|
G#|-6-------6-------6-------6-------|-6-------6-------6-------6-------|-----6-------6-------6-------6---|
 E|-----7-------7-------7-------7---|-----7-------7-------7-------7---|---------------------------------|
 B|---------------------------------|---------------------------------|-8-------8-------8-------8-------|
F#|---------------------------------|---------------------------------|---------------------------------|
 B|---------------------------------|---------------------------------|---------------------------------|


C#|---------------------------------|---------------------------------|---------------------------------|
G#|-----6-------6-------5-------5---|-6-------6-------6-------6-------|-6-------6-------6-------6-------|
 E|---------------------------------|-----7-------7-------7-------7---|-----7-------7-------7-------7---|
 B|-7-------7-------7-------7-------|---------------------------------|---------------------------------|
F#|---------------------------------|---------------------------------|---------------------------------|
 B|---------------------------------|---------------------------------|---------------------------------|


C#|---------------------------------|---------------------------------|---------------------------------|
G#|-----6-------6-------6-------6---|-----6-------6-------5-------5---|-6-------6-------6-------6-------|
 E|---------------------------------|---------------------------------|-----7-------7-------7-------7---|
 B|-8-------8-------8-------8-------|-7-------7-------7-------7-------|---------------------------------|
F#|---------------------------------|---------------------------------|---------------------------------|
 B|---------------------------------|---------------------------------|---------------------------------|


C#|---------------------------------|---------------------------------|---------------------------------|
G#|-6-------6-------6-------6-------|-----6-------6-------6-------6---|-----6-------6-------5-------5---|
 E|-----7-------7-------7-------7---|---------------------------------|---------------------------------|
 B|---------------------------------|-8-------8-------8-------8-------|-7-------7-------7-------7-------|
F#|---------------------------------|---------------------------------|---------------------------------|
 B|---------------------------------|---------------------------------|---------------------------------|


C#|-------------|-------------|--------|--------|--------|--------|--------|--------|
G#|-4----4------|-4-----------|--------|--------|--------|--------|--------|--------|
 E|-5----5------|-5-----------|--------|--------|--------|--------|--------|--------|
 B|-6----6------|-6-----------|--------|--------|--------|--------|--------|--------|
F#|-------------|-------------|--------|--------|--------|--------|--------|--------|
 B|-------------|-------------|--------|--------|--------|--------|--------|--------|


C#|--------|--------|--------|--------|--------|--------|--------|--------|--------|
G#|--------|--------|--------|--------|--------|--------|--------|--------|--------|
 E|--------|--------|--------|--------|--------|--------|--------|--------|--------|
 B|--------|--------|--------|--------|--------|--------|--------|--------|--------|
F#|--------|--------|--------|--------|--------|--------|--------|--------|--------|
 B|--------|--------|--------|--------|--------|--------|--------|--------|--------|


C#|--------|--------|--------|--------|--------|--------|--------|--------|--------|
G#|--------|--------|--------|--------|--------|--------|--------|--------|--------|
 E|--------|--------|--------|--------|--------|--------|--------|--------|--------|
 B|--------|--------|--------|--------|--------|--------|--------|--------|--------|
F#|--------|--------|--------|--------|--------|--------|--------|--------|--------|
 B|--------|--------|--------|--------|--------|--------|--------|--------|--------|


C#|--------|--------|--------|--------|--------|--------|--------|--------|--------|
G#|--------|--------|--------|--------|--------|--------|--------|--------|--------|
 E|--------|--------|--------|--------|--------|--------|--------|--------|--------|
 B|--------|--------|--------|--------|--------|--------|--------|--------|--------|
F#|--------|--------|--------|--------|--------|--------|--------|--------|--------|
 B|--------|--------|--------|--------|--------|--------|--------|--------|--------|


C#|--------|--------|--------|--------|--------|--------|--------|--------|--------|
G#|--------|--------|--------|--------|--------|--------|--------|--------|--------|
 E|--------|--------|--------|--------|--------|--------|--------|--------|--------|
 B|--------|--------|--------|--------|--------|--------|--------|--------|--------|
F#|--------|--------|--------|--------|--------|--------|--------|--------|--------|
 B|--------|--------|--------|--------|--------|--------|--------|--------|--------|


C#|--------|--------|--------|--------|--------|--------|--------|--------|--------|
G#|--------|--------|--------|--------|--------|--------|--------|--------|--------|
 E|--------|--------|--------|--------|--------|--------|--------|--------|--------|
 B|--------|--------|--------|--------|--------|--------|--------|--------|--------|
F#|--------|--------|--------|--------|--------|--------|--------|--------|--------|
 B|--------|--------|--------|--------|--------|--------|--------|--------|--------|


C#|--------|--------|--------|--------|--------|--------|--------|
G#|--------|--------|--------|--------|--------|--------|--------|
 E|--------|--------|--------|--------|--------|--------|--------|
 B|--------|--------|--------|--------|--------|--------|--------|
F#|--------|--------|--------|--------|--------|--------|--------|
 B|--------|--------|--------|--------|--------|--------|--------|





Track 5: Acoustic 3

C#|--------|--------|--------|--------|--------|--------|--------|--------|--------|
G#|--------|--------|--------|--------|--------|--------|--------|--------|--------|
 E|--------|--------|--------|--------|--------|--------|--------|--------|--------|
 B|--------|--------|--------|--------|--------|--------|--------|--------|--------|
F#|--------|--------|--------|--------|--------|--------|--------|--------|--------|
 B|--------|--------|--------|--------|--------|--------|--------|--------|--------|


C#|--------|--------|--------|--------|--------|--------|--------|--------|--------|
G#|--------|--------|--------|--------|--------|--------|--------|--------|--------|
 E|--------|--------|--------|--------|--------|--------|--------|--------|--------|
 B|--------|--------|--------|--------|--------|--------|--------|--------|--------|
F#|--------|--------|--------|--------|--------|--------|--------|--------|--------|
 B|--------|--------|--------|--------|--------|--------|--------|--------|--------|


C#|--------|--------|--------|--------|--------|--------|--------|--------|--------|
G#|--------|--------|--------|--------|--------|--------|--------|--------|--------|
 E|--------|--------|--------|--------|--------|--------|--------|--------|--------|
 B|--------|--------|--------|--------|--------|--------|--------|--------|-0------|
F#|--------|--------|--------|--------|--------|--------|--------|--------|-0------|
 B|--------|--------|--------|--------|--------|--------|--------|--------|-0------|


C#|--------|--------|--------|--------|--------|--------|-------------|--------|--------|
G#|--------|--------|--------|--------|--------|--------|-------------|--------|--------|
 E|--------|--------|--------|--------|--------|--------|-------------|--------|--------|
 B|-5------|-7------|-0------|-0------|-5------|-7------|-6----6------|--------|--------|
F#|-5------|-7------|-0------|-0------|-5------|-7------|-6----6------|--------|--------|
 B|-5------|-7------|-0------|-0------|-5------|-7------|-6----6------|--------|--------|


C#|--------|--------|--------|--------|--------|--------|--------|--------|--------|
G#|--------|--------|--------|--------|--------|--------|--------|--------|--------|
 E|--------|--------|--------|--------|--------|--------|--------|--------|--------|
 B|--------|--------|--------|--------|--------|--------|--------|--------|--------|
F#|--------|--------|--------|--------|--------|--------|--------|--------|--------|
 B|--------|--------|--------|--------|--------|--------|--------|--------|--------|


C#|--------|--------|--------|--------|--------|--------|--------|--------|--------|
G#|--------|--------|--------|--------|--------|--------|--------|--------|--------|
 E|--------|--------|--------|--------|--------|--------|--------|--------|--------|
 B|--------|--------|--------|--------|--------|--------|-0------|-5------|-7------|
F#|--------|--------|--------|--------|--------|--------|-0------|-5------|-7------|
 B|--------|--------|--------|--------|--------|--------|-0------|-5------|-7------|


C#|--------|--------|--------|--------|--------|--------|--------|--------|--------|
G#|--------|--------|--------|--------|--------|--------|--------|--------|--------|
 E|--------|--------|--------|--------|--------|--------|--------|--------|--------|
 B|-0------|-0------|-5------|-7------|-0------|-0------|-5------|-7------|-0------|
F#|-0------|-0------|-5------|-7------|-0------|-0------|-5------|-7------|-0------|
 B|-0------|-0------|-5------|-7------|-0------|-0------|-5------|-7------|-0------|


C#|--------|--------|--------|-------------|--------|--------|--------|--------|--------|
G#|--------|--------|--------|-------------|--------|--------|--------|--------|--------|
 E|--------|--------|--------|-------------|--------|--------|--------|--------|--------|
 B|-0------|-5------|-7------|-6----6------|--------|--------|--------|--------|--------|
F#|-0------|-5------|-7------|-6----6------|--------|--------|--------|--------|--------|
 B|-0------|-5------|-7------|-6----6------|--------|--------|--------|--------|--------|


C#|--------|--------|--------|--------|--------|--------|--------|--------|--------|
G#|--------|--------|--------|--------|--------|--------|--------|--------|--------|
 E|--------|--------|--------|--------|--------|--------|--------|--------|--------|
 B|--------|--------|--------|--------|--------|--------|--------|--------|--------|
F#|--------|--------|--------|--------|--------|--------|--------|--------|--------|
 B|--------|--------|--------|--------|--------|--------|--------|--------|--------|


C#|--------|--------|--------|--------|--------|--------|--------|--------|--------|
G#|--------|--------|--------|--------|--------|--------|--------|--------|--------|
 E|--------|--------|--------|--------|--------|--------|--------|--------|--------|
 B|--------|--------|--------|--------|--------|--------|--------|--------|--------|
F#|--------|--------|--------|--------|--------|--------|--------|--------|--------|
 B|--------|--------|--------|--------|--------|--------|--------|--------|--------|


C#|--------|--------|--------|--------|--------|--------|--------|--------|--------|
G#|--------|--------|--------|--------|--------|--------|--------|--------|--------|
 E|--------|--------|--------|--------|--------|--------|--------|--------|--------|
 B|--------|--------|--------|--------|--------|--------|--------|--------|--------|
F#|--------|--------|--------|--------|--------|--------|--------|--------|--------|
 B|--------|--------|--------|--------|--------|--------|--------|--------|--------|


C#|--------|--------|--------|--------|--------|--------|--------|--------|--------|
G#|--------|--------|--------|--------|--------|--------|--------|--------|--------|
 E|--------|--------|--------|--------|--------|--------|--------|--------|--------|
 B|--------|--------|--------|--------|--------|--------|--------|--------|--------|
F#|--------|--------|--------|--------|--------|--------|--------|--------|--------|
 B|--------|--------|--------|--------|--------|--------|--------|--------|--------|


C#|--------|--------|--------|--------|--------|--------|--------|--------|--------|
G#|--------|--------|--------|--------|--------|--------|--------|--------|--------|
 E|--------|--------|--------|--------|--------|--------|--------|--------|--------|
 B|--------|--------|--------|--------|--------|--------|--------|--------|--------|
F#|--------|--------|--------|--------|--------|--------|--------|--------|--------|
 B|--------|--------|--------|--------|--------|--------|--------|--------|--------|


C#|--------|--------|--------|--------|--------|--------|--------|--------|--------|
G#|--------|--------|--------|--------|--------|--------|--------|--------|--------|
 E|--------|--------|--------|--------|--------|--------|--------|--------|--------|
 B|--------|--------|--------|--------|--------|--------|--------|--------|--------|
F#|--------|--------|--------|--------|--------|--------|--------|--------|--------|
 B|--------|--------|--------|--------|--------|--------|--------|--------|--------|





Track 6: Synth

C#|--------|--------|--------|--------|--------|--------|--------|--------|--------|
G#|--------|--------|--------|--------|--------|--------|--------|--------|--------|
 E|--------|--------|--------|--------|--------|--------|--------|--------|--------|
 B|--------|--------|--------|--------|--------|--------|--------|--------|--------|
F#|--------|--------|--------|--------|--------|--------|--------|--------|--------|
 B|--------|--------|--------|--------|--------|--------|--------|--------|--------|


C#|--------|--------|--------|--------|--------|--------|--------|--------|--------|
G#|--------|--------|--------|--------|--------|--------|--------|--------|--------|
 E|--------|--------|--------|--------|--------|--------|--------|--------|--------|
 B|--------|--------|--------|--------|--------|--------|--------|--------|--------|
F#|--------|--------|--------|--------|--------|--------|--------|--------|--------|
 B|--------|--------|--------|--------|--------|--------|--------|--------|--------|


C#|--------|--------|--------|--------|--------|--------|--------|--------|--------|
G#|--------|--------|--------|--------|--------|--------|--------|--------|--------|
 E|--------|--------|--------|--------|--------|--------|--------|--------|--------|
 B|--------|--------|--------|--------|--------|--------|--------|--------|--------|
F#|--------|--------|--------|--------|--------|--------|--------|--------|--------|
 B|--------|--------|--------|--------|--------|--------|--------|--------|--------|


C#|--------|--------|--------|--------|--------|--------|--------|--------|--------|
G#|--------|--------|--------|--------|--------|--------|--------|--------|--------|
 E|--------|--------|--------|--------|--------|--------|--------|--------|--------|
 B|--------|--------|--------|--------|--------|--------|--------|--------|--------|
F#|--------|--------|--------|--------|--------|--------|--------|--------|--------|
 B|--------|--------|--------|--------|--------|--------|--------|--------|--------|


C#|--------|--------|--------|--------|--------|--------|--------|--------|--------|
G#|--------|--------|--------|--------|--------|--------|--------|--------|--------|
 E|--------|--------|--------|--------|--------|--------|--------|--------|--------|
 B|--------|--------|--------|--------|--------|--------|--------|--------|--------|
F#|--------|--------|--------|--------|--------|--------|--------|--------|--------|
 B|--------|--------|--------|--------|--------|--------|--------|--------|--------|


C#|--------|--------|--------|--------|--------|--------|--------|--------|--------|
G#|--------|--------|--------|--------|--------|--------|--------|--------|--------|
 E|--------|--------|--------|--------|--------|--------|--------|--------|--------|
 B|--------|--------|--------|--------|--------|--------|--------|--------|--------|
F#|--------|--------|--------|--------|--------|--------|--------|--------|--------|
 B|--------|--------|--------|--------|--------|--------|--------|--------|--------|


C#|--------|--------|--------|--------|--------|--------|--------|--------|--------|
G#|--------|--------|--------|--------|--------|--------|--------|--------|--------|
 E|--------|--------|--------|--------|--------|--------|--------|--------|--------|
 B|--------|--------|--------|--------|--------|--------|--------|--------|--------|
F#|--------|--------|--------|--------|--------|--------|--------|--------|--------|
 B|--------|--------|--------|--------|--------|--------|--------|--------|--------|


C#|--------|--------|--------|--------|--------|---------------------------------|
G#|--------|--------|--------|--------|--------|-16--16--16--16--16--16--16--16--|
 E|--------|--------|--------|--------|--------|---------------------------------|
 B|--------|--------|--------|--------|--------|---------------------------------|
F#|--------|--------|--------|--------|--------|---------------------------------|
 B|--------|--------|--------|--------|--------|---------------------------------|


C#|-19--19--19--18--18--18--18--18--|---------------------------------|-19--19--19--18--18--18--18--18--|
G#|---------------------------------|-16--16--16--16--16--16--16--16--|---------------------------------|
 E|---------------------------------|---------------------------------|---------------------------------|
 B|---------------------------------|---------------------------------|---------------------------------|
F#|---------------------------------|---------------------------------|---------------------------------|
 B|---------------------------------|---------------------------------|---------------------------------|


C#|---------------------------------|-19--19--19--18--18--18--18--18--|---------------------------------|
G#|-16--16--16--16--16--16--16--16--|---------------------------------|-16--16--16--16--16--16--16--16--|
 E|---------------------------------|---------------------------------|---------------------------------|
 B|---------------------------------|---------------------------------|---------------------------------|
F#|---------------------------------|---------------------------------|---------------------------------|
 B|---------------------------------|---------------------------------|---------------------------------|


C#|-19--19--19--18--18--18--18--18--|---------------------------------|-19--19--19--18--18--18--18--18--|
G#|---------------------------------|-16--16--16--16--16--16--16--16--|---------------------------------|
 E|---------------------------------|---------------------------------|---------------------------------|
 B|---------------------------------|---------------------------------|---------------------------------|
F#|---------------------------------|---------------------------------|---------------------------------|
 B|---------------------------------|---------------------------------|---------------------------------|


C#|---------------------------------|-19--19--19--18--18--18--18--18--|--------|--------|
G#|-16--16--16--16--16--16--16--16--|---------------------------------|--------|--------|
 E|---------------------------------|---------------------------------|--------|--------|
 B|---------------------------------|---------------------------------|--------|--------|
F#|---------------------------------|---------------------------------|--------|--------|
 B|---------------------------------|---------------------------------|--------|--------|


C#|--------|--------|--------|--------|--------|--------|--------|--------|--------|
G#|--------|--------|--------|--------|--------|--------|--------|--------|--------|
 E|--------|--------|--------|--------|--------|--------|--------|--------|--------|
 B|--------|--------|--------|--------|--------|--------|--------|--------|--------|
F#|--------|--------|--------|--------|--------|--------|--------|--------|--------|
 B|--------|--------|--------|--------|--------|--------|--------|--------|--------|


C#|--------|--------|--------|--------|--------|--------|--------|--------|--------|
G#|--------|--------|--------|--------|--------|--------|--------|--------|--------|
 E|--------|--------|--------|--------|--------|--------|--------|--------|--------|
 B|--------|--------|--------|--------|--------|--------|--------|--------|--------|
F#|--------|--------|--------|--------|--------|--------|--------|--------|--------|
 B|--------|--------|--------|--------|--------|--------|--------|--------|--------|


C#|--------|--------|--------|--------|--------|--------|--------|--------|--------|
G#|--------|--------|--------|--------|--------|--------|--------|--------|--------|
 E|--------|--------|--------|--------|--------|--------|--------|--------|--------|
 B|--------|--------|--------|--------|--------|--------|--------|--------|--------|
F#|--------|--------|--------|--------|--------|--------|--------|--------|--------|
 B|--------|--------|--------|--------|--------|--------|--------|--------|--------|


C#|--------|--------|--------|--------|--------|--------|--------|--------|--------|
G#|--------|--------|--------|--------|--------|--------|--------|--------|--------|
 E|--------|--------|--------|--------|--------|--------|--------|--------|--------|
 B|--------|--------|--------|--------|--------|--------|--------|--------|--------|
F#|--------|--------|--------|--------|--------|--------|--------|--------|--------|
 B|--------|--------|--------|--------|--------|--------|--------|--------|--------|


C#|--------|--------|--------|--------|--------|--------|--------|--------|
G#|--------|--------|--------|--------|--------|--------|--------|--------|
 E|--------|--------|--------|--------|--------|--------|--------|--------|
 B|--------|--------|--------|--------|--------|--------|--------|--------|
F#|--------|--------|--------|--------|--------|--------|--------|--------|
 B|--------|--------|--------|--------|--------|--------|--------|--------|





Track 7: Distortion 1

C#|--------|--------|--------|--------|--------|--------|--------|--------|--------|
G#|--------|--------|--------|--------|--------|--------|--------|--------|--------|
 E|--------|--------|--------|--------|--------|--------|--------|--------|--------|
 B|--------|--------|--------|--------|--------|--------|--------|--------|--------|
F#|--------|--------|--------|--------|--------|--------|--------|--------|--------|
 B|--------|--------|--------|--------|--------|--------|--------|--------|--------|


C#|--------|--------|--------|--------|--------|--------|--------|--------|--------|
G#|--------|--------|--------|--------|--------|--------|--------|--------|--------|
 E|--------|--------|--------|--------|--------|--------|--------|--------|--------|
 B|--------|--------|--------|--------|--------|--------|--------|--------|--------|
F#|--------|--------|--------|--------|--------|--------|--------|--------|--------|
 B|--------|--------|--------|--------|--------|--------|--------|--------|--------|


C#|--------|--------|--------|--------|--------|--------|--------|--------|--------|
G#|--------|--------|--------|--------|--------|--------|--------|--------|--------|
 E|--------|--------|--------|--------|--------|--------|--------|--------|--------|
 B|--------|--------|--------|--------|--------|--------|--------|--------|--------|
F#|--------|--------|--------|--------|--------|--------|--------|--------|--------|
 B|--------|--------|--------|--------|--------|--------|--------|--------|--------|


C#|--------|--------|--------|--------|--------|--------|--------|--------|--------|
G#|--------|--------|--------|--------|--------|--------|--------|--------|--------|
 E|--------|--------|--------|--------|--------|--------|--------|--------|--------|
 B|--------|--------|--------|--------|--------|--------|--------|--------|--------|
F#|--------|--------|--------|--------|--------|--------|--------|--------|--------|
 B|--------|--------|--------|--------|--------|--------|--------|--------|--------|


C#|--------|--------|--------|--------|--------|--------|--------|--------|--------|
G#|--------|--------|--------|--------|--------|--------|--------|--------|--------|
 E|--------|--------|--------|--------|--------|--------|--------|--------|--------|
 B|--------|--------|--------|--------|--------|--------|--------|--------|--------|
F#|--------|--------|--------|--------|--------|--------|--------|--------|--------|
 B|--------|--------|--------|--------|--------|--------|--------|--------|--------|


C#|--------|--------|--------|--------|--------|--------|--------|--------|--------|
G#|--------|--------|--------|--------|--------|--------|--------|--------|--------|
 E|--------|--------|--------|--------|--------|--------|--------|--------|--------|
 B|--------|--------|--------|--------|--------|--------|--------|--------|--------|
F#|--------|--------|--------|--------|--------|--------|--------|--------|--------|
 B|--------|--------|--------|--------|--------|--------|--------|--------|--------|


C#|--------|--------|--------|--------|--------|--------|--------|--------|--------|
G#|--------|--------|--------|--------|--------|--------|--------|--------|--------|
 E|--------|--------|--------|--------|--------|--------|--------|--------|--------|
 B|--------|--------|--------|--------|--------|--------|--------|--------|--------|
F#|--------|--------|--------|--------|--------|--------|--------|--------|--------|
 B|--------|--------|--------|--------|--------|--------|--------|--------|--------|


C#|--------|--------|--------|--------|--------|--------|--------|--------|--------|
G#|--------|--------|--------|--------|--------|--------|--------|--------|--------|
 E|--------|--------|--------|--------|--------|--------|--------|--------|--------|
 B|--------|--------|--------|--------|--------|--------|--------|--------|--------|
F#|--------|--------|--------|--------|--------|--------|--------|--------|--------|
 B|--------|--------|--------|--------|--------|--------|--------|--------|--------|


C#|--------|--------|--------|--------|--------|--------|--------|--------|--------|
G#|--------|--------|--------|--------|--------|--------|--------|--------|--------|
 E|--------|--------|--------|--------|--------|--------|--------|--------|--------|
 B|--------|--------|--------|--------|--------|--------|--------|--------|--------|
F#|--------|--------|--------|--------|--------|--------|--------|--------|--------|
 B|--------|--------|--------|--------|--------|--------|--------|--------|--------|


C#|--------|--------|--------|--------|--------|--------|--------|--------|--------|
G#|--------|--------|--------|--------|--------|--------|--------|--------|--------|
 E|--------|--------|--------|--------|--------|--------|--------|--------|--------|
 B|--------|--------|--------|--------|--------|--------|--------|--------|--------|
F#|--------|--------|--------|--------|--------|--------|--------|--------|--------|
 B|--------|--------|--------|--------|--------|--------|--------|--------|--------|


C#|--------|--------|--------|--------|--------|--------|--------|--------|--------|
G#|--------|--------|--------|--------|--------|--------|--------|--------|--------|
 E|--------|--------|--------|--------|--------|--------|--------|--------|--------|
 B|--------|--------|--------|--------|--------|--------|--------|--------|--------|
F#|--------|--------|--------|--------|--------|--------|--------|--------|--------|
 B|--------|--------|--------|--------|--------|--------|--------|--------|--------|


C#|--------|--------|--------|--------|--------|--------|--------|--------|--------|
G#|--------|--------|--------|--------|--------|--------|--------|--------|--------|
 E|--------|--------|--------|--------|--------|--------|--------|--------|--------|
 B|--------|--------|--------|--------|--------|--------|--------|--------|--------|
F#|--------|--------|--------|--------|--------|--------|--------|--------|--------|
 B|--------|--------|--------|--------|--------|--------|--------|--------|--------|


C#|--------|--------|--------|--------|--------|--------|--------|--------|--------|
G#|--------|--------|--------|--------|--------|--------|--------|--------|--------|
 E|--------|--------|--------|--------|--------|--------|--------|--------|--------|
 B|--------|--------|--------|--------|--------|--------|--------|--------|--------|
F#|--------|--------|--------|--------|--------|--------|--------|--------|--------|
 B|--------|--------|--------|--------|--------|--------|--------|--------|--------|


C#|-----------------------|-------------------------------------|---------------------------------|
G#|-----------------------|-------------------------------------|---------9---8-------------------|
 E|-----------------------|-------------------------------------|---------6---5-------------------|
 B|-----------------------|-------------------------------------|-5---6---6---5-------------------|
F#|-------8---1---0---2---|-1--1--0---8---1---0---2---1--1--0---|-3---4-----------8---1---0---2---|
 B|-------8---1---0---2---|-1--1--0---8---1---0---2---1--1--0---|-----------------8---1---0---2---|


C#|-------------------------|--------|--------|--------|--------|--------|
G#|-------------------------|--------|--------|--------|--------|--------|
 E|-------------------------|--------|--------|--------|--------|--------|
 B|-------------------------|--------|--------|--------|--------|--------|
F#|-1--1--0---8---1---------|--------|--------|--------|--------|--------|
 B|-1--1--0---8---1---------|--------|--------|--------|--------|--------|





Track 8: Distortion 1

C#|--------|--------|--------|--------|--------|--------|--------|--------|--------|
G#|--------|--------|--------|--------|--------|--------|--------|--------|--------|
 E|--------|--------|--------|--------|--------|--------|--------|--------|--------|
 B|--------|--------|--------|--------|--------|--------|--------|--------|--------|
F#|--------|--------|--------|--------|--------|--------|--------|--------|--------|
 B|--------|--------|--------|--------|--------|--------|--------|--------|--------|


C#|--------|--------|--------|--------|--------|--------|--------|--------|--------|
G#|--------|--------|--------|--------|--------|--------|--------|--------|--------|
 E|--------|--------|--------|--------|--------|--------|--------|--------|--------|
 B|--------|--------|--------|--------|--------|--------|--------|--------|--------|
F#|--------|--------|--------|--------|--------|--------|--------|--------|--------|
 B|--------|--------|--------|--------|--------|--------|--------|--------|--------|


C#|--------|--------|--------|--------|--------|--------|--------|--------|--------|
G#|--------|--------|--------|--------|--------|--------|--------|--------|--------|
 E|--------|--------|--------|--------|--------|--------|--------|--------|--------|
 B|--------|--------|--------|--------|--------|--------|--------|--------|--------|
F#|--------|--------|--------|--------|--------|--------|--------|--------|--------|
 B|--------|--------|--------|--------|--------|--------|--------|--------|--------|


C#|--------|--------|--------|--------|--------|--------|--------|--------|--------|
G#|--------|--------|--------|--------|--------|--------|--------|--------|--------|
 E|--------|--------|--------|--------|--------|--------|--------|--------|--------|
 B|--------|--------|--------|--------|--------|--------|--------|--------|--------|
F#|--------|--------|--------|--------|--------|--------|--------|--------|--------|
 B|--------|--------|--------|--------|--------|--------|--------|--------|--------|


C#|--------|--------|--------|--------|--------|--------|--------|--------|--------|
G#|--------|--------|--------|--------|--------|--------|--------|--------|--------|
 E|--------|--------|--------|--------|--------|--------|--------|--------|--------|
 B|--------|--------|--------|--------|--------|--------|--------|--------|--------|
F#|--------|--------|--------|--------|--------|--------|--------|--------|--------|
 B|--------|--------|--------|--------|--------|--------|--------|--------|--------|


C#|--------|--------|--------|--------|--------|--------|--------|--------|--------|
G#|--------|--------|--------|--------|--------|--------|--------|--------|--------|
 E|--------|--------|--------|--------|--------|--------|--------|--------|--------|
 B|--------|--------|--------|--------|--------|--------|--------|--------|--------|
F#|--------|--------|--------|--------|--------|--------|--------|--------|--------|
 B|--------|--------|--------|--------|--------|--------|--------|--------|--------|


C#|--------|--------|--------|--------|--------|--------|--------|--------|--------|
G#|--------|--------|--------|--------|--------|--------|--------|--------|--------|
 E|--------|--------|--------|--------|--------|--------|--------|--------|--------|
 B|--------|--------|--------|--------|--------|--------|--------|--------|--------|
F#|--------|--------|--------|--------|--------|--------|--------|--------|--------|
 B|--------|--------|--------|--------|--------|--------|--------|--------|--------|


C#|--------|--------|--------|--------|--------|--------|--------|--------|--------|
G#|--------|--------|--------|--------|--------|--------|--------|--------|--------|
 E|--------|--------|--------|--------|--------|--------|--------|--------|--------|
 B|--------|--------|--------|--------|--------|--------|--------|--------|--------|
F#|--------|--------|--------|--------|--------|--------|--------|--------|--------|
 B|--------|--------|--------|--------|--------|--------|--------|--------|--------|


C#|--------|--------|--------|--------|--------|--------|--------|--------|--------|
G#|--------|--------|--------|--------|--------|--------|--------|--------|--------|
 E|--------|--------|--------|--------|--------|--------|--------|--------|--------|
 B|--------|--------|--------|--------|--------|--------|--------|--------|--------|
F#|--------|--------|--------|--------|--------|--------|--------|--------|--------|
 B|--------|--------|--------|--------|--------|--------|--------|--------|--------|


C#|--------|--------|--------|--------|--------|--------|--------|--------|--------|
G#|--------|--------|--------|--------|--------|--------|--------|--------|--------|
 E|--------|--------|--------|--------|--------|--------|--------|--------|--------|
 B|--------|--------|--------|--------|--------|--------|--------|--------|--------|
F#|--------|--------|--------|--------|--------|--------|--------|--------|--------|
 B|--------|--------|--------|--------|--------|--------|--------|--------|--------|


C#|--------|--------|--------|--------|--------|--------|--------|--------|--------|
G#|--------|--------|--------|--------|--------|--------|--------|--------|--------|
 E|--------|--------|--------|--------|--------|--------|--------|--------|--------|
 B|--------|--------|--------|--------|--------|--------|--------|--------|--------|
F#|--------|--------|--------|--------|--------|--------|--------|--------|--------|
 B|--------|--------|--------|--------|--------|--------|--------|--------|--------|


C#|--------|--------|--------|--------|--------|--------|--------|--------|--------|
G#|--------|--------|--------|--------|--------|--------|--------|--------|--------|
 E|--------|--------|--------|--------|--------|--------|--------|--------|--------|
 B|--------|--------|--------|--------|--------|--------|--------|--------|--------|
F#|--------|--------|--------|--------|--------|--------|--------|--------|--------|
 B|--------|--------|--------|--------|--------|--------|--------|--------|--------|


C#|--------|--------|--------|--------|--------|--------|--------|--------|--------|
G#|--------|--------|--------|--------|--------|--------|--------|--------|--------|
 E|--------|--------|--------|--------|--------|--------|--------|--------|--------|
 B|--------|--------|--------|--------|--------|--------|--------|--------|--------|
F#|--------|--------|--------|--------|--------|--------|--------|--------|--------|
 B|--------|--------|--------|--------|--------|--------|--------|--------|--------|


C#|--------|--------|--------|--------|-----------------------|-------------------------------------|
G#|--------|--------|--------|--------|-----------------------|-------------------------------------|
 E|--------|--------|--------|--------|-----------------------|-------------------------------------|
 B|--------|--------|--------|--------|-----------------------|-------------------------------------|
F#|--------|--------|--------|--------|-------8---1---0---2---|-1--1--0---8---1---0---2---1--1--0---|
 B|--------|--------|--------|--------|-------8---1---0---2---|-1--1--0---8---1---0---2---1--1--0---|


C#|---------------------------------|-------------------------|--------|
G#|---------9---8-------------------|-------------------------|--------|
 E|---------6---5-------------------|-------------------------|--------|
 B|-5---6---6---5-------------------|-------------------------|--------|
F#|-3---4-----------8---1---0---2---|-1--1--0---8---1---------|--------|
 B|-----------------8---1---0---2---|-1--1--0---8---1---------|--------|





Track 9: Untitled

G|--------|--------|--------|--------|--------|--------|--------|--------|--------|
D|--------|--------|--------|--------|--------|--------|--------|--------|--------|
A|--------|--------|--------|--------|--------|--------|--------|--------|--------|
E|--------|--------|--------|--------|--------|--------|--------|--------|--------|


G|--------|--------|--------|--------|--------|--------|--------|--------|--------|
D|--------|--------|--------|--------|--------|--------|--------|--------|--------|
A|--------|--------|--------|--------|--------|--------|--------|--------|--------|
E|--------|--------|--------|--------|--------|--------|--------|--------|--------|


G|--------|--------|--------|--------|--------|--------|--------|--------|--------|
D|--------|--------|--------|--------|--------|--------|--------|--------|--------|
A|--------|--------|--------|--------|--------|--------|--------|--------|--------|
E|--------|--------|--------|--------|--------|--------|--------|--------|--------|


G|--------|--------|--------|--------|--------|--------|--------|--------|--------|
D|--------|--------|--------|--------|--------|--------|--------|--------|--------|
A|--------|--------|--------|--------|--------|--------|--------|--------|--------|
E|--------|--------|--------|--------|--------|--------|--------|--------|--------|


G|--------|--------|--------|--------|--------|--------|--------|--------|--------|
D|--------|--------|--------|--------|--------|--------|--------|--------|--------|
A|--------|--------|--------|--------|--------|--------|--------|--------|--------|
E|--------|--------|--------|--------|--------|--------|--------|--------|--------|


G|--------|--------|--------|--------|--------|--------|--------|--------|--------|
D|--------|--------|--------|--------|--------|--------|--------|--------|--------|
A|--------|--------|--------|--------|--------|--------|--------|--------|--------|
E|--------|--------|--------|--------|--------|--------|--------|--------|--------|


G|--------|--------|--------|--------|--------|--------|--------|--------|--------|
D|--------|--------|--------|--------|--------|--------|--------|--------|--------|
A|--------|--------|--------|--------|--------|--------|--------|--------|--------|
E|--------|--------|--------|--------|--------|--------|--------|--------|--------|


G|--------|--------|--------|--------|--------|--------|--------|--------|--------|
D|--------|--------|--------|--------|--------|--------|--------|--------|--------|
A|--------|--------|--------|--------|--------|--------|--------|--------|--------|
E|--------|--------|--------|--------|--------|--------|--------|--------|--------|


G|--------|--------|--------|--------|--------|--------|--------|--------|--------|
D|--------|--------|--------|--------|--------|--------|--------|--------|--------|
A|--------|--------|--------|--------|--------|--------|--------|--------|--------|
E|--------|--------|--------|--------|--------|--------|--------|--------|--------|


G|--------|--------|--------|--------|--------|--------|--------|--------|--------|
D|--------|--------|--------|--------|--------|--------|--------|--------|--------|
A|--------|--------|--------|--------|--------|--------|--------|--------|--------|
E|--------|--------|--------|--------|--------|--------|--------|--------|--------|


G|--------|--------|--------|--------|--------|--------|--------|--------|--------|
D|--------|--------|--------|--------|--------|--------|--------|--------|--------|
A|--------|--------|--------|--------|--------|--------|--------|--------|--------|
E|--------|--------|--------|--------|--------|--------|--------|--------|--------|


G|--------|--------|--------|--------|--------|--------|--------|--------|--------|
D|--------|--------|--------|--------|--------|--------|--------|--------|--------|
A|--------|--------|--------|--------|--------|--------|--------|--------|--------|
E|--------|--------|--------|--------|--------|--------|--------|--------|--------|


G|--------|--------|--------|--------|--------|--------|--------|--------|--------|
D|--------|--------|--------|--------|--------|--------|--------|--------|--------|
A|--------|--------|--------|--------|--------|--------|--------|--------|--------|
E|--------|--------|--------|--------|--------|--------|--------|--------|--------|


G|--------|--------|--------|--------|--------|--------|--------|--------|--------|
D|--------|--------|--------|--------|--------|--------|--------|--------|--------|
A|--------|--------|--------|--------|--------|--------|--------|--------|--------|
E|--------|--------|--------|--------|--------|--------|--------|--------|--------|