Menu:

 

Search:

 

slipknot - the blister exists:

 



Title: The Blister Exists
Artist: 
Album: Vol 3:The Subliminal Verses
Author: Slipknot


Track 1: Jim

C#|---------------------------------|---------------------------------|---------------------------------|
G#|---------------------------------|---------------------------------|---------------------------------|
 E|---------------------------------|---------------------------------|---------------------------------|
 B|---------------------------------|---------------------------------|---------------------------------|
F#|---------0-----------0-----------|---------0-----------0-----------|---------0-----------0-----------|
 B|-13--13--0---0---0---0---0---0---|-13--13--0---0---0---0---0---0---|-13--13--0---0---0---0---0---0---|


C#|---------------------------------|---------------------------------|---------------------------------|
G#|---------------------------------|---------------------------------|---------------------------------|
 E|---------------------------------|---------------------------------|---------------------------------|
 B|---------------------------------|---------------------------------|---------------------------------|
F#|---------0-----------0-----------|---------0-----------0-----------|---------0-----------0-----------|
 B|-13--13--0---0---0---0---0---0---|-13--13--0---0---0---0---0---0---|-13--13--0---0---0---0---0---0---|


C#|---------------------------------|---------------------------------|---------------------------------|
G#|---------------------------------|---------------------------------|---------------------------------|
 E|---------------------------------|---------------------------------|---------------------------------|
 B|---------------------------------|---------------------------------|---------------------------------|
F#|---------0-----------0-----------|---------0-----------0-----------|---------0-----------0-----------|
 B|-13--13--0---0---0---0---0---0---|-13--13--0---0---0---0---0---0---|-13--13--0---0---0---0---0---0---|


C#|---------------------------------|---------------------------------|---------------------------------|
G#|---------------------------------|---------------------------------|---------------------------------|
 E|---------------------------------|---------------------------------|---------------------------------|
 B|---------------------------------|---------------------------------|---------------------------------|
F#|---------0-----------0-----------|---------0-----------0-----------|---------0-----------0-----------|
 B|-13--13--0---0---0---0---0---0---|-13--13--0---0---0---0---0---0---|-13--13--0---0---0---0---0---0---|


C#|---------------------------------|---------------------------------|---------------------------------|
G#|---------------------------------|---------------------------------|---------------------------------|
 E|---------------------------------|---------------------------------|---------------------------------|
 B|---------------------------------|---------------------------------|---------------------------------|
F#|---------0-----------0-----------|---------0-----------0-----------|---------0-----------0-----------|
 B|-13--13--0---0---0---0---0---0---|-13--13--0---0---0---0---0---0---|-13--13--0---0---0---0---0---0---|


C#|---------------------------------|------------------------------|--------|---------------------------------------|
G#|---------------------------------|------------------------------|--------|---------------------------------------|
 E|---------------------------------|------------------------------|--------|---------------------------------------|
 B|---------------------------------|------------------------------|--------|-0-----------0-------1--1--1--1--1--1--|
F#|---------0-----------0-----------|---------0-----------0--------|--------|-0-----------0-------1--1--1--1--1--1--|
 B|-13--13--0---0---0---0---0---0---|-13--13--0---0---0---0--------|--------|-0---0---0---0---0---1--1--1--1--1--1--|


C#|---------------------------------|---------------------------------------|---------------------------------|
G#|---------------------------------|---------------------------------------|---------------------------------|
 E|---------------------------------|---------------------------------------|---------------------------------|
 B|-0-----------0-------------------|-0-----------0-------1--1--1--1--1--1--|-0-----------0-------------------|
F#|-0-----------0-------------------|-0-----------0-------1--1--1--1--1--1--|-0-----------0-------------------|
 B|-0---0---0---0---0---0---13--13--|-0---0---0---0---0---1--1--1--1--1--1--|-0---0---0---0---0---0---13--13--|


C#|---------------------------------------|---------------------------------|---------------------------------------|
G#|---------------------------------------|---------------------------------|---------------------------------------|
 E|---------------------------------------|---------------------------------|---------------------------------------|
 B|-0-----------0-------1--1--1--1--1--1--|-0-----------0-------------------|-0-----------0-------1--1--1--1--1--1--|
F#|-0-----------0-------1--1--1--1--1--1--|-0-----------0-------------------|-0-----------0-------1--1--1--1--1--1--|
 B|-0---0---0---0---0---1--1--1--1--1--1--|-0---0---0---0---0---0---13--13--|-0---0---0---0---0---1--1--1--1--1--1--|


C#|---------------------------------|---------------------------------------|---------------------------------|
G#|---------------------------------|---------------------------------------|---------------------------------|
 E|---------------------------------|---------------------------------------|---------------------------------|
 B|-0-----------0-------------------|-0-----------0-------1--1--1--1--1--1--|-0-----------0-------------------|
F#|-0-----------0-------------------|-0-----------0-------1--1--1--1--1--1--|-0-----------0-------------------|
 B|-0---0---0---0---0---0---13--13--|-0---0---0---0---0---1--1--1--1--1--1--|-0---0---0---0---0---0---13--13--|


C#|---------------------------------------|---------------------------------|---------------------------------------|
G#|---------------------------------------|---------------------------------|---------------------------------------|
 E|---------------------------------------|---------------------------------|---------------------------------------|
 B|-0-----------0-------1--1--1--1--1--1--|-0-----------0-------------------|-0-----------0-------1--1--1--1--1--1--|
F#|-0-----------0-------1--1--1--1--1--1--|-0-----------0-------------------|-0-----------0-------1--1--1--1--1--1--|
 B|-0---0---0---0---0---1--1--1--1--1--1--|-0---0---0---0---0---0---13--13--|-0---0---0---0---0---1--1--1--1--1--1--|


C#|---------------------------------|---------------------------------------|---------------------------------|
G#|---------------------------------|---------------------------------------|---------------------------------|
 E|---------------------------------|---------------------------------------|---------------------------------|
 B|-0-----------0-------------------|-0-----------0-------1--1--1--1--1--1--|-0-----------0-------------------|
F#|-0-----------0-------------------|-0-----------0-------1--1--1--1--1--1--|-0-----------0-------------------|
 B|-0---0---0---0---0---0---13--13--|-0---0---0---0---0---1--1--1--1--1--1--|-0---0---0---0---0---0---13--13--|


C#|---------------------------------|---------------------------------|---------------------------------|
G#|---------------------------------|---------------------------------|---------------------------------|
 E|---------------------------------|---------------------------------|---------------------------------|
 B|-0-----------1-------3---4---3---|-0-----------1-------3---4---3---|-0-----------1-------3---4---3---|
F#|-0-----------1-------3---4---3---|-0-----------1-------3---4---3---|-0-----------1-------3---4---3---|
 B|-0---0---0---1---0---3---4---3---|-0---0---0---1---0---3---4---3---|-0---0---0---1---0---3---4---3---|


C#|---------------------------------|---------------------------------|---------------------------------|
G#|---------------------------------|---------------------------------|---------------------------------|
 E|---------------------------------|---------------------------------|---------------------------------|
 B|-0-----------1-------3---4---3---|-0-----------1-------3---4---3---|-0-----------1-------3---4---3---|
F#|-0-----------1-------3---4---3---|-0-----------1-------3---4---3---|-0-----------1-------3---4---3---|
 B|-0---0---0---1---0---3---4---3---|-0---0---0---1---0---3---4---3---|-0---0---0---1---0---3---4---3---|


C#|---------------------------------|---------------------------------|---------------------------------------|
G#|---------------------------------|---------------------------------|---------------------------------------|
 E|---------------------------------|---------------------------------|---------------------------------------|
 B|-0-----------1-------3---4---3---|-0-----------1-------3---4---3---|-0-----------0-------------------------|
F#|-0-----------1-------3---4---3---|-0-----------1-------3---4---3---|-0-----------0-------------------------|
 B|-0---0---0---1---0---3---4---3---|-0---0---0---1---0---3---4---3---|-0---0---0---0---0---13-13-13-13-13-13-|


C#|---------------------------------|---------------------------------------|---------------------------------|
G#|---------------------------------|---------------------------------------|---------------------------------|
 E|---------------------------------|---------------------------------------|---------------------------------|
 B|-0-----------0---------------13--|-0-----------0-------------------------|-0-----------0---------------13--|
F#|-0-----------0-------------------|-0-----------0-------------------------|-0-----------0-------------------|
 B|-0---0---0---0---0---12--13------|-0---0---0---0---0---13-13-13-13-13-13-|-0---0---0---0---0---12--13------|


C#|---------------------------------------|---------------------------------|---------------------------------------|
G#|---------------------------------------|---------------------------------|---------------------------------------|
 E|---------------------------------------|---------------------------------|---------------------------------------|
 B|-0-----------0-------------------------|-0-----------0---------------13--|-0-----------0-------------------------|
F#|-0-----------0-------------------------|-0-----------0-------------------|-0-----------0-------------------------|
 B|-0---0---0---0---0---13-13-13-13-13-13-|-0---0---0---0---0---12--13------|-0---0---0---0---0---13-13-13-13-13-13-|


C#|---------------------------------|---------------------------------------|---------------------------------|
G#|---------------------------------|---------------------------------------|---------------------------------|
 E|---------------------------------|---------------------------------------|---------------------------------|
 B|-0-----------0---------------13--|-0-----------0-------------------------|-0-----------0---------------13--|
F#|-0-----------0-------------------|-0-----------0-------------------------|-0-----------0-------------------|
 B|-0---0---0---0---0---12--13------|-0---0---0---0---0---13-13-13-13-13-13-|-0---0---0---0---0---12--13------|


C#|---------------------------------------|---------------------------------|---------------------------------------|
G#|---------------------------------------|---------------------------------|---------------------------------------|
 E|---------------------------------------|---------------------------------|---------------------------------------|
 B|-0-----------0-------------------------|-0-----------0---------------13--|-0-----------0-------------------------|
F#|-0-----------0-------------------------|-0-----------0-------------------|-0-----------0-------------------------|
 B|-0---0---0---0---0---13-13-13-13-13-13-|-0---0---0---0---0---12--13------|-0---0---0---0---0---13-13-13-13-13-13-|


C#|---------------------------------|---------------------------------------|---------------------------------|
G#|---------------------------------|---------------------------------------|---------------------------------|
 E|---------------------------------|---------------------------------------|---------------------------------|
 B|-0-----------0---------------13--|-0-----------0-------------------------|-0-----------0---------------13--|
F#|-0-----------0-------------------|-0-----------0-------------------------|-0-----------0-------------------|
 B|-0---0---0---0---0---12--13------|-0---0---0---0---0---13-13-13-13-13-13-|-0---0---0---0---0---12--13------|


C#|---------------------------------|---------------------------------|---------------------------------|
G#|---------------------------------|---------------------------------|---------------------------------|
 E|---------------------------------|---------------------------------|---------------------------------|
 B|-0-----------1-------3---4---3---|-0-----------1-------3---4---3---|-0-----------1-------3---4---3---|
F#|-0-----------1-------3---4---3---|-0-----------1-------3---4---3---|-0-----------1-------3---4---3---|
 B|-0---0---0---1---0---3---4---3---|-0---0---0---1---0---3---4---3---|-0---0---0---1---0---3---4---3---|


C#|---------------------------------|---------------------------------|---------------------------------|
G#|---------------------------------|---------------------------------|---------------------------------|
 E|---------------------------------|---------------------------------|---------------------------------|
 B|-0-----------1-------3---4---3---|-0-----------1-------3---4---3---|-0-----------1-------3---4---3---|
F#|-0-----------1-------3---4---3---|-0-----------1-------3---4---3---|-0-----------1-------3---4---3---|
 B|-0---0---0---1---0---3---4---3---|-0---0---0---1---0---3---4---3---|-0---0---0---1---0---3---4---3---|


C#|---------------------------------|---------------------------------|----------------|
G#|---------------------------------|---------------------------------|----------------|
 E|---------------------------------|---------------------------------|----------------|
 B|-0-----------1-------3---4---3---|-0-----------1-------3---4---3---|-0--------------|
F#|-0-----------1-------3---4---3---|-0-----------1-------3---4---3---|-0--------------|
 B|-0---0---0---1---0---3---4---3---|-0---0---0---1---0---3---4---3---|-0--------------|


C#|--------|--------------------|-----------------------|---------------------------------------|
G#|--------|--------------------|-----------------------|---------------------------------------|
 E|--------|--------------------|-----------------------|---------------------------------------|
 B|--------|-0---0--------------|-0---0---0-------------|-0-----------0-------1--1--1--1--1--1--|
F#|--------|-0---0--------------|-0---0---0-------12----|-0-----------0-------1--1--1--1--1--1--|
 B|--------|-0---0--------------|-0---0---0-------12----|-0---0---0---0---0---1--1--1--1--1--1--|


C#|---------------------------------|---------------------------------------|---------------------------------|
G#|---------------------------------|---------------------------------------|---------------------------------|
 E|---------------------------------|---------------------------------------|---------------------------------|
 B|-0-----------0-------1---1---1---|-0-----------0-------1--1--1--1--1--1--|-0-----------0-------1---1---1---|
F#|-0-----------0-------1---1---1---|-0-----------0-------1--1--1--1--1--1--|-0-----------0-------1---1---1---|
 B|-0---0---0---0---0---1---1---1---|-0---0---0---0---0---1--1--1--1--1--1--|-0---0---0---0---0---1---1---1---|


C#|---------------------------------------|---------------------------------|---------------------------------------|
G#|---------------------------------------|---------------------------------|---------------------------------------|
 E|---------------------------------------|---------------------------------|---------------------------------------|
 B|-0-----------0-------1--1--1--1--1--1--|-0-----------0-------1---1---1---|-0-----------0-------1--1--1--1--1--1--|
F#|-0-----------0-------1--1--1--1--1--1--|-0-----------0-------1---1---1---|-0-----------0-------1--1--1--1--1--1--|
 B|-0---0---0---0---0---1--1--1--1--1--1--|-0---0---0---0---0---1---1---1---|-0---0---0---0---0---1--1--1--1--1--1--|


C#|---------------------------------|---------------------------------------|---------------------------------|
G#|---------------------------------|---------------------------------------|---------------------------------|
 E|---------------------------------|---------------------------------------|---------------------------------|
 B|-0-----------0-------1---1---1---|-0-----------0-------1--1--1--1--1--1--|-0-----------0-------1---1---1---|
F#|-0-----------0-------1---1---1---|-0-----------0-------1--1--1--1--1--1--|-0-----------0-------1---1---1---|
 B|-0---0---0---0---0---1---1---1---|-0---0---0---0---0---1--1--1--1--1--1--|-0---0---0---0---0---1---1---1---|


C#|---------------------------------------|---------------------------------|---------------------------------|
G#|---------------------------------------|---------------------------------|---------------------------------|
 E|---------------------------------------|---------------------------------|---------------------------------|
 B|-0-----------0-------1--1--1--1--1--1--|-0-----------0-------1---1---1---|-0-----------1-------3---4---3---|
F#|-0-----------0-------1--1--1--1--1--1--|-0-----------0-------1---1---1---|-0-----------1-------3---4---3---|
 B|-0---0---0---0---0---1--1--1--1--1--1--|-0---0---0---0---0---1---1---1---|-0---0---0---1---0---3---4---3---|


C#|---------------------------------|---------------------------------|---------------------------------|
G#|---------------------------------|---------------------------------|---------------------------------|
 E|---------------------------------|---------------------------------|---------------------------------|
 B|-0-----------1-------3---4---3---|-0-----------1-------3---4---3---|-0-----------1-------3---4---3---|
F#|-0-----------1-------3---4---3---|-0-----------1-------3---4---3---|-0-----------1-------3---4---3---|
 B|-0---0---0---1---0---3---4---3---|-0---0---0---1---0---3---4---3---|-0---0---0---1---0---3---4---3---|


C#|--------|--------|--------|--------|-------------------------------------------|
G#|--------|--------|--------|--------|-------------------------------------------|
 E|-14-----|-12-----|-5------|-7------|-------------------------------------------|
 B|--------|--------|--------|--------|-2---3--0---0------------------------------|
F#|-12-----|-10-----|-3------|-5------|-2---3--0---0--6--5--6--5--0---------3--5--|
 B|--------|--------|--------|--------|-2---3--0---0--6--5--6--5--0--3---3--3--5--|


C#|-------------------------------------------|-------------------------------------------|
G#|-------------------------------------------|-------------------------------------------|
 E|-------------------------------------------|-------------------------------------------|
 B|-2---3--0---0------------------------------|-2---3--0---0------------------------------|
F#|-2---3--0---0--6--5--6--5--0---------3--5--|-2---3--0---0--6--5--6--5--0---------3--5--|
 B|-2---3--0---0--6--5--6--5--0--3---3--3--5--|-2---3--0---0--6--5--6--5--0--3---3--3--5--|


C#|-------------------------------------------|-------------------------------------------|
G#|-------------------------------------------|-------------------------------------------|
 E|-------------------------------------------|-------------------------------------------|
 B|-2---3--0---0------------------------------|-----3--0---0------------------------------|
F#|-2---3--0---0--6--5--6--5--0---------3--5--|-----3--0---0--6--5--6--5--0---------3--5--|
 B|-2---3--0---0--6--5--6--5--0--3---3--3--5--|-----3--0---0--6--5--6--5--0--3---3--3--5--|


C#|-------------------------------------------|-------------------------------------------|
G#|-------------------------------------------|-------------------------------------------|
 E|-------------------------------------------|-------------------------------------------|
 B|-2---3--0---0------------------------------|-2---3--0---0------------------------------|
F#|-2---3--0---0--6--5--6--5--0---------3--5--|-2---3--0---0--6--5--6--5--0---------3--5--|
 B|-2---3--0---0--6--5--6--5--0--3---3--3--5--|-2---3--0---0--6--5--6--5--0--3---3--3--5--|


C#|-------------------------------------------|--------------------|--------|--------|
G#|-------------------------------------------|--------------------|--------|--------|
 E|-------------------------------------------|--------------------|--------|--------|
 B|-2---3--0---0------------------------------|-1----0-------------|--------|--------|
F#|-2---3--0---0--6--5--6--5--0---------3--5--|-1----0-------------|--------|--------|
 B|-2---3--0---0--6--5--6--5--0--3---3--3--5--|-1----0-------------|--------|--------|


C#|--------|--------|--------|--------|--------|---------------------------|----------------------------------------------|
G#|--------|--------|--------|--------|--------|---------------------------|----------------------------------------------|
 E|--------|--------|--------|--------|--------|---------------------------|----------------------------------------------|
 B|--------|--------|--------|--------|--------|-1----0--------------------|-----------------------------------------8----|
F#|--------|--------|--------|--------|--------|-1----0--------------------|-----------------------------------------6----|
 B|--------|--------|--------|--------|--------|-1----0-----------0--0--1--|-3--5--6--3--5--6--0---0--0--3--0--0--0-------|


C#|---------------------------|----------------------------------------------|---------------------------|
G#|---------------------------|----------------------------------------------|---------------------------|
 E|---------------------------|----------------------------------------------|---------------------------|
 B|-1----0--------------------|-----------------------------------------8----|-1----0--------------------|
F#|-1----0--------------------|-----------------------------------------6----|-1----0--------------------|
 B|-1----0-----------0--0--1--|-3--5--6--3--5--6--0---0--0--3--0--0--0-------|-1----0-----------0--0--1--|


C#|----------------------------------------------|---------------------------|----------------------------------------------|
G#|----------------------------------------------|---------------------------|----------------------------------------------|
 E|----------------------------------------------|---------------------------|----------------------------------------------|
 B|-----------------------------------------8----|-1----0--------------------|-----------------------------------------8----|
F#|-----------------------------------------6----|-1----0--------------------|-----------------------------------------6----|
 B|-3--5--6--3--5--6--0---0--0--3--0--0--0-------|-1----0-----------0--0--1--|-3--5--6--3--5--6--0---0--0--3--0--0--0-------|


C#|---------------------------|----------------------------------------------|---------------------------|
G#|---------------------------|----------------------------------------------|---------------------------|
 E|---------------------------|----------------------------------------------|---------------------------|
 B|-1----0--------------------|-----------------------------------------8----|-1----0--------------------|
F#|-1----0--------------------|-----------------------------------------6----|-1----0--------------------|
 B|-1----0-----------0--0--1--|-3--5--6--3--5--6--0---0--0--3--0--0--0-------|-1----0-----------0--0--1--|


C#|----------------------------------------------|---------------------------|----------------------------------------------|
G#|----------------------------------------------|---------------------------|----------------------------------------------|
 E|----------------------------------------------|---------------------------|----------------------------------------------|
 B|-----------------------------------------8----|-1----0--------------------|-----------------------------------------8----|
F#|-----------------------------------------6----|-1----0--------------------|-----------------------------------------6----|
 B|-3--5--6--3--5--6--0---0--0--3--0--0--0-------|-1----0-----------0--0--1--|-3--5--6--3--5--6--0---0--0--3--0--0--0-------|


C#|---------------------------|----------------------------------------------|--------|
G#|---------------------------|----------------------------------------------|--------|
 E|---------------------------|----------------------------------------------|--------|
 B|-1----0--------------------|-----------------------------------------8----|--------|
F#|-1----0--------------------|-----------------------------------------6----|--------|
 B|-1----0-----------0--0--1--|-3--5--6--3--5--6--0---0--0--3--0--0--0-------|--------|


C#|--------|--------|--------|--------|--------|--------|--------|--------|--------|
G#|--------|--------|--------|--------|--------|--------|--------|--------|--------|
 E|--------|--------|--------|--------|--------|--------|--------|-14-----|-12-----|
 B|--------|--------|--------|--------|--------|--------|--------|--------|--------|
F#|--------|--------|--------|--------|--------|--------|--------|-12-----|-10-----|
 B|--------|--------|--------|--------|--------|--------|--------|--------|--------|


C#|--------|--------|--------|--------|--------|--------|-------------------------------------------|
G#|--------|--------|--------|--------|--------|--------|-------------------------------------------|
 E|-5------|-7------|-14-----|-12-----|-5------|-7------|-------------------------------------------|
 B|--------|--------|--------|--------|--------|--------|-2---3--0---0------------------------------|
F#|-3------|-5------|-12-----|-10-----|-3------|-5------|-2---3--0---0--6--5--6--5--0---------3--5--|
 B|--------|--------|--------|--------|--------|--------|-2---3--0---0--6--5--6--5--0--3---3--3--5--|


C#|-------------------------------------------|-------------------------------------------|
G#|-------------------------------------------|-------------------------------------------|
 E|-------------------------------------------|-------------------------------------------|
 B|-2---3--0---0------------------------------|-2---3--0---0------------------------------|
F#|-2---3--0---0--6--5--6--5--0---------3--5--|-2---3--0---0--6--5--6--5--0---------3--5--|
 B|-2---3--0---0--6--5--6--5--0--3---3--3--5--|-2---3--0---0--6--5--6--5--0--3---3--3--5--|


C#|-------------------------------------------|-------------------------------------------|
G#|-------------------------------------------|-------------------------------------------|
 E|-------------------------------------------|-------------------------------------------|
 B|-2---3--0---0------------------------------|-----3--0---0------------------------------|
F#|-2---3--0---0--6--5--6--5--0---------3--5--|-----3--0---0--6--5--6--5--0---------3--5--|
 B|-2---3--0---0--6--5--6--5--0--3---3--3--5--|-----3--0---0--6--5--6--5--0--3---3--3--5--|


C#|-------------------------------------------|-------------------------------------------|
G#|-------------------------------------------|-------------------------------------------|
 E|-------------------------------------------|-------------------------------------------|
 B|-2---3--0---0------------------------------|-2---3--0---0------------------------------|
F#|-2---3--0---0--6--5--6--5--0---------3--5--|-2---3--0---0--6--5--6--5--0---------3--5--|
 B|-2---3--0---0--6--5--6--5--0--3---3--3--5--|-2---3--0---0--6--5--6--5--0--3---3--3--5--|


C#|-------------------------------------------|-------------------------------------------|
G#|-------------------------------------------|-------------------------------------------|
 E|-------------------------------------------|-------------------------------------------|
 B|-2---3--0---0------------------------------|-----3--0---0------------------------------|
F#|-2---3--0---0--6--5--6--5--0---------3--5--|-----3--0---0--6--5--6--5--0---------3--5--|
 B|-2---3--0---0--6--5--6--5--0--3---3--3--5--|-----3--0---0--6--5--6--5--0--3---3--3--5--|


C#|-------------------------------------------|-------------------------------------------|
G#|-------------------------------------------|-------------------------------------------|
 E|-------------------------------------------|-------------------------------------------|
 B|-2---3--0---0------------------------------|-2---3--0---0------------------------------|
F#|-2---3--0---0--6--5--6--5--0---------3--5--|-2---3--0---0--6--5--6--5--0---------3--5--|
 B|-2---3--0---0--6--5--6--5--0--3---3--3--5--|-2---3--0---0--6--5--6--5--0--3---3--3--5--|


C#|---------------------------------------------|-------------------------------------------|
G#|---------------------------------------------|-------------------------------------------|
 E|---------------------------------------------|-------------------------------------------|
 B|-2---3--0---0-----------------0-----0-----0--|-----3--0---0------------------------------|
F#|-2---3--0---0--6--5--6--5--0--0-----0-----0--|-----3--0---0--6--5--6--5--0---------3--5--|
 B|-2---3--0---0--6--5--6--5--0--0-----0-----0--|-----3--0---0--6--5--6--5--0--3---3--3--5--|


C#|-------------------------------------------|-------------------------------------------|
G#|-------------------------------------------|-------------------------------------------|
 E|-------------------------------------------|-------------------------------------------|
 B|-2---3--0---0------------------------------|-2---3--0---0------------------------------|
F#|-2---3--0---0--6--5--6--5--0---------3--5--|-2---3--0---0--6--5--6--5--0---------3--5--|
 B|-2---3--0---0--6--5--6--5--0--3---3--3--5--|-2---3--0---0--6--5--6--5--0--3---3--3--5--|


C#|-------------------------------------------|---------------------------|----------------------------------------------|
G#|-------------------------------------------|---------------------------|----------------------------------------------|
 E|-------------------------------------------|---------------------------|----------------------------------------------|
 B|-2---3--0---0------------------------------|-1----0--------------------|-----------------------------------------8----|
F#|-2---3--0---0--6--5--6--5--0---------3--5--|-1----0--------------------|-----------------------------------------6----|
 B|-2---3--0---0--6--5--6--5--0--3---3--3--5--|-1----0-----------0--0--1--|-3--5--6--3--5--6--0---0--0--3--0--0--0-------|


C#|---------------------------|----------------------------------------------|---------------------------|
G#|---------------------------|----------------------------------------------|---------------------------|
 E|---------------------------|----------------------------------------------|---------------------------|
 B|-1----0--------------------|-----------------------------------------8----|-1----0--------------------|
F#|-1----0--------------------|-----------------------------------------6----|-1----0--------------------|
 B|-1----0-----------0--0--1--|-3--5--6--3--5--6--0---0--0--3--0--0--0-------|-1----0-----------0--0--1--|


C#|----------------------------------------------|---------------------------|----------------------------------------------|
G#|----------------------------------------------|---------------------------|----------------------------------------------|
 E|----------------------------------------------|---------------------------|----------------------------------------------|
 B|-----------------------------------------8----|-1----0--------------------|-----------------------------------------8----|
F#|-----------------------------------------6----|-1----0--------------------|-----------------------------------------6----|
 B|-3--5--6--3--5--6--0---0--0--3--0--0--0-------|-1----0-----------0--0--1--|-3--5--6--3--5--6--0---0--0--3--0--0--0-------|


C#|-------------|--------|--------|--------|--------|--------|
G#|-------------|--------|--------|--------|--------|--------|
 E|-------------|--------|--------|--------|--------|--------|
 B|-1----0------|-0------|-0------|-0------|-0------|-0------|
F#|-1----0------|-0------|-0------|-0------|-0------|-0------|
 B|-1----0------|-0------|-0------|-0------|-0------|-0------|





Track 2: Mick

C#|--------|--------|--------|--------|--------|--------|--------|--------|--------|
G#|--------|--------|--------|--------|--------|--------|--------|--------|--------|
 E|--------|--------|--------|--------|--------|--------|--------|--------|--------|
 B|--------|--------|--------|--------|--------|--------|--------|--------|--------|
F#|--------|--------|--------|--------|--------|--------|--------|--------|--------|
 B|--------|--------|--------|--------|--------|--------|--------|--------|--------|


C#|--------|--------|--------|--------|--------|--------|--------|--------|--------|
G#|--------|--------|--------|--------|--------|--------|--------|--------|--------|
 E|--------|--------|--------|--------|--------|--------|--------|--------|--------|
 B|--------|--------|--------|--------|--------|--------|--------|--------|--------|
F#|--------|--------|--------|--------|--------|--------|--------|--------|--------|
 B|--------|--------|--------|--------|--------|--------|--------|--------|--------|


C#|---------------------------------------|---------------------------------|---------------------------------------|
G#|---------------------------------------|---------------------------------|---------------------------------------|
 E|---------------------------------------|---------------------------------|---------------------------------------|
 B|-0-----------0-------1--1--1--1--1--1--|-0-----------0-------1---1---1---|-0-----------0-------1--1--1--1--1--1--|
F#|-0-----------0-------1--1--1--1--1--1--|-0-----------0-------1---1---1---|-0-----------0-------1--1--1--1--1--1--|
 B|-0---0---0---0---0---1--1--1--1--1--1--|-0---0---0---0---0---1---1---1---|-0---0---0---0---0---1--1--1--1--1--1--|


C#|---------------------------------|---------------------------------------|---------------------------------|
G#|---------------------------------|---------------------------------------|---------------------------------|
 E|---------------------------------|---------------------------------------|---------------------------------|
 B|-0-----------0-------1---1---1---|-0-----------0-------1--1--1--1--1--1--|-0-----------0-------1---1---1---|
F#|-0-----------0-------1---1---1---|-0-----------0-------1--1--1--1--1--1--|-0-----------0-------1---1---1---|
 B|-0---0---0---0---0---1---1---1---|-0---0---0---0---0---1--1--1--1--1--1--|-0---0---0---0---0---1---1---1---|


C#|---------------------------------------|---------------------------------|---------------------------------------|
G#|---------------------------------------|---------------------------------|---------------------------------------|
 E|---------------------------------------|---------------------------------|---------------------------------------|
 B|-0-----------0-------1--1--1--1--1--1--|-0-----------0-------1---1---1---|-0-----------0-------1--1--1--1--1--1--|
F#|-0-----------0-------1--1--1--1--1--1--|-0-----------0-------1---1---1---|-0-----------0-------1--1--1--1--1--1--|
 B|-0---0---0---0---0---1--1--1--1--1--1--|-0---0---0---0---0---1---1---1---|-0---0---0---0---0---1--1--1--1--1--1--|


C#|---------------------------------|---------------------------------------|---------------------------------|
G#|---------------------------------|---------------------------------------|---------------------------------|
 E|---------------------------------|---------------------------------------|---------------------------------|
 B|-0-----------0-------1---1---1---|-0-----------0-------1--1--1--1--1--1--|-0-----------0-------1---1---1---|
F#|-0-----------0-------1---1---1---|-0-----------0-------1--1--1--1--1--1--|-0-----------0-------1---1---1---|
 B|-0---0---0---0---0---1---1---1---|-0---0---0---0---0---1--1--1--1--1--1--|-0---0---0---0---0---1---1---1---|


C#|---------------------------------------|---------------------------------|---------------------------------------|
G#|---------------------------------------|---------------------------------|---------------------------------------|
 E|---------------------------------------|---------------------------------|---------------------------------------|
 B|-0-----------0-------1--1--1--1--1--1--|-0-----------0-------1---1---1---|-0-----------0-------1--1--1--1--1--1--|
F#|-0-----------0-------1--1--1--1--1--1--|-0-----------0-------1---1---1---|-0-----------0-------1--1--1--1--1--1--|
 B|-0---0---0---0---0---1--1--1--1--1--1--|-0---0---0---0---0---1---1---1---|-0---0---0---0---0---1--1--1--1--1--1--|


C#|---------------------------------|--------|--------|--------|--------|--------|
G#|---------------------------------|--------|--------|--------|--------|--------|
 E|---------------------------------|--------|--------|--------|--------|--------|
 B|-0-----------0-------1---1---1---|--------|--------|--------|--------|--------|
F#|-0-----------0-------1---1---1---|--------|--------|--------|--------|--------|
 B|-0---0---0---0---0---1---1---1---|--------|--------|--------|--------|--------|


C#|--------|--------|--------|-------------------------------------10-10-10-10-|-10-10-10-10-10-10-10-10-11-11-10-8--------------|
G#|--------|--------|--------|-------------------------------------------------|-------------------------------------11-10-8-----|
 E|--------|--------|--------|-8--8--8--8--8--8--7--7--7--7--7--7--------------|----------------------------------------------10-|
 B|--------|--------|--------|-------------------------------------------------|-------------------------------------------------|
F#|--------|--------|--------|-------------------------------------------------|-------------------------------------------------|
 B|--------|--------|--------|-------------------------------------------------|-------------------------------------------------|


C#|-------------------------------------10-10-10-10-|-10-10----------------8--11-11-10-8--------------|
G#|-------------------------------------------------|-------------7--7--10----------------11-10-8-----|
 E|-8--8--8--8--8--8--7--7--7--7--7--7--------------|-------7--8-----------------------------------10-|
 B|-------------------------------------------------|-------------------------------------------------|
F#|-------------------------------------------------|-------------------------------------------------|
 B|-------------------------------------------------|-------------------------------------------------|


C#|-------------------------------------10-10-10-10-|-10-10-10-10-10-10-10-10-11-11-10-8--------------|
G#|-------------------------------------------------|-------------------------------------11-10-8-----|
 E|-8--8--8--8--8--8--7--7--7--7--7--7--------------|----------------------------------------------10-|
 B|-------------------------------------------------|-------------------------------------------------|
F#|-------------------------------------------------|-------------------------------------------------|
 B|-------------------------------------------------|-------------------------------------------------|


C#|-------------------------------------10-10-10-10-|-10-10----------------8--11-11-10-8--------------|
G#|-------------------------------------------------|-------------7--7--10----------------11-10-8-----|
 E|-8--8--8--8--8--8--7--7--7--7--7--7--------------|-------7--8-----------------------------------10-|
 B|-------------------------------------------------|-------------------------------------------------|
F#|-------------------------------------------------|-------------------------------------------------|
 B|-------------------------------------------------|-------------------------------------------------|


C#|-------------------------------------10-10-10-10-|-10-10-10-10-10-10-10-10-11-11-10-8--------------|
G#|-------------------------------------------------|-------------------------------------11-10-8-----|
 E|-8--8--8--8--8--8--7--7--7--7--7--7--------------|----------------------------------------------10-|
 B|-------------------------------------------------|-------------------------------------------------|
F#|-------------------------------------------------|-------------------------------------------------|
 B|-------------------------------------------------|-------------------------------------------------|


C#|-------------------------------------10-10-10-10-|-10-10----------------8--11-11-10-8--------------|
G#|-------------------------------------------------|-------------7--7--10----------------11-10-8-----|
 E|-8--8--8--8--8--8--7--7--7--7--7--7--------------|-------7--8-----------------------------------10-|
 B|-------------------------------------------------|-------------------------------------------------|
F#|-------------------------------------------------|-------------------------------------------------|
 B|-------------------------------------------------|-------------------------------------------------|


C#|-------------------------------------10-10-10-10-|-10-10-10-10-10-10-10-10-11-11-10-8--------------|
G#|-------------------------------------------------|-------------------------------------11-10-8-----|
 E|-8--8--8--8--8--8--7--7--7--7--7--7--------------|----------------------------------------------10-|
 B|-------------------------------------------------|-------------------------------------------------|
F#|-------------------------------------------------|-------------------------------------------------|
 B|-------------------------------------------------|-------------------------------------------------|


C#|-------------------------------------10-10-10-10-|-10-10----------------8--11-11-10-8--------------|
G#|-------------------------------------------------|-------------7--7--10----------------11-10-8-----|
 E|-8--8--8--8--8--8--7--7--7--7--7--7--------------|-------7--8-----------------------------------10-|
 B|-------------------------------------------------|-------------------------------------------------|
F#|-------------------------------------------------|-------------------------------------------------|
 B|-------------------------------------------------|-------------------------------------------------|


C#|--------|--------|--------|--------|--------|--------|--------|--------|-------------------------------------10-10-10-10-|
G#|--------|--------|--------|--------|--------|--------|--------|--------|-------------------------------------------------|
 E|--------|--------|--------|--------|--------|--------|--------|--------|-8--8--8--8--8--8--7--7--7--7--7--7--------------|
 B|--------|--------|--------|--------|--------|--------|--------|--------|-------------------------------------------------|
F#|--------|--------|--------|--------|--------|--------|--------|--------|-------------------------------------------------|
 B|--------|--------|--------|--------|--------|--------|--------|--------|-------------------------------------------------|


C#|-10-10-10-10-10-10-10-10-11-11-10-8--------------|-------------------------------------10-10-10-10-|
G#|-------------------------------------11-10-8-----|-------------------------------------------------|
 E|----------------------------------------------10-|-8--8--8--8--8--8--7--7--7--7--7--7--------------|
 B|-------------------------------------------------|-------------------------------------------------|
F#|-------------------------------------------------|-------------------------------------------------|
 B|-------------------------------------------------|-------------------------------------------------|


C#|-10-----|--------|--------|--------|--------|--------|--------|--------|--------|
G#|--------|--------|--------|--------|--------|--------|--------|--------|--------|
 E|--------|--------|--------|--------|--------|--------|--------|--------|--------|
 B|--------|--------|--------|--------|--------|--------|--------|--------|--------|
F#|--------|--------|--------|--------|--------|--------|--------|--------|--------|
 B|--------|--------|--------|--------|--------|--------|--------|--------|--------|


C#|-------------------------------------10-10-10-10-|-10-10-10-10-10-10-10-10-11-11-10-8--------------|
G#|-------------------------------------------------|-------------------------------------11-10-8-----|
 E|-8--8--8--8--8--8--7--7--7--7--7--7--------------|----------------------------------------------10-|
 B|-------------------------------------------------|-------------------------------------------------|
F#|-------------------------------------------------|-------------------------------------------------|
 B|-------------------------------------------------|-------------------------------------------------|


C#|-------------------------------------10-10-10-10-|-10-----|--------|--------|--------|
G#|-------------------------------------------------|--------|--------|--------|--------|
 E|-8--8--8--8--8--8--7--7--7--7--7--7--------------|--------|--------|--------|--------|
 B|-------------------------------------------------|--------|--------|--------|--------|
F#|-------------------------------------------------|--------|--------|--------|--------|
 B|-------------------------------------------------|--------|--------|--------|--------|


C#|--------|---------------------------------|---------------------------------|---------------------------------|
G#|--------|---------------------------------|---------------------------------|---------------------------------|
 E|--------|---------------------------------|---------------------------------|---------------------------------|
 B|--------|-0-----------1-------3---4---3---|-0-----------1-------3---4---3---|-0-----------1-------3---4---3---|
F#|--------|-0-----------1-------3---4---3---|-0-----------1-------3---4---3---|-0-----------1-------3---4---3---|
 B|--------|-0---0---0---1---0---3---4---3---|-0---0---0---1---0---3---4---3---|-0---0---0---1---0---3---4---3---|


C#|---------------------------------|--------|--------|--------|--------|--------|
G#|---------------------------------|--------|--------|--------|--------|--------|
 E|---------------------------------|--------|--------|--------|--------|--------|
 B|-0-----------1-------3---4---3---|--------|--------|--------|--------|--------|
F#|-0-----------1-------3---4---3---|--------|--------|--------|--------|--------|
 B|-0---0---0---1---0---3---4---3---|--------|--------|--------|--------|--------|


C#|--------|--------|--------|--------|--------|--------|--------|--------|--------|
G#|--------|--------|--------|--------|--------|--------|--------|--------|--------|
 E|--------|--------|--------|--------|--------|--------|--------|--------|--------|
 B|--------|--------|--------|--------|--------|--------|--------|--------|--------|
F#|--------|--------|--------|--------|--------|--------|--------|--------|--------|
 B|--------|--------|--------|--------|--------|--------|--------|--------|--------|


C#|--------|--------|---------------------------|----------------------------------------------|
G#|--------|--------|---------------------------|----------------------------------------------|
 E|--------|--------|---------------------------|-----------------------------------------8----|
 B|--------|--------|-1----0--------------------|----------------------------------------------|
F#|--------|--------|-1----0--------------------|-----------------------------------------6----|
 B|--------|--------|-1----0-----------0--0--1--|-3--5--6--3--5--6--0---0--0--3--0-----0-------|


C#|---------------------------|----------------------------------------------|---------------------------|
G#|---------------------------|----------------------------------------------|---------------------------|
 E|---------------------------|-----------------------------------------8----|---------------------------|
 B|-1----0--------------------|----------------------------------------------|-1----0--------------------|
F#|-1----0--------------------|-----------------------------------------6----|-1----0--------------------|
 B|-1----0-----------0--0--1--|-3--5--6--3--5--6--0---0--0--3--0-----0-------|-1----0-----------0--0--1--|


C#|----------------------------------------------|---------------------------|----------------------------------------------|
G#|----------------------------------------------|---------------------------|----------------------------------------------|
 E|-----------------------------------------8----|---------------------------|-----------------------------------------8----|
 B|----------------------------------------------|-1----0--------------------|----------------------------------------------|
F#|-----------------------------------------6----|-1----0--------------------|-----------------------------------------6----|
 B|-3--5--6--3--5--6--0---0--0--3--0-----0-------|-1----0-----------0--0--1--|-3--5--6--3--5--6--0---0--0--3--0-----0-------|


C#|-------------------------1010101010101010101010101111108---------|-------------------------101010101010----------8-1111108---------|
G#|---------------------------------------------------------11108---|-----------------------------------------7-7-10----------11108---|
 E|-8-8-8-8-8-8-7-7-7-7-7-7---------------------------------------10|-8-8-8-8-8-8-7-7-7-7-7-7-------------7-8-----------------------10|
 B|-----------------------------------------------------------------|-----------------------------------------------------------------|
F#|-----------------------------------------------------------------|-----------------------------------------------------------------|
 B|-----------------------------------------------------------------|-----------------------------------------------------------------|


C#|-------------------------1010101010101010101010101111108---------|-------------------------101010101010----------8-1111108---------|
G#|---------------------------------------------------------11108---|-----------------------------------------7-7-10----------11108---|
 E|-8-8-8-8-8-8-7-7-7-7-7-7---------------------------------------10|-8-8-8-8-8-8-7-7-7-7-7-7-------------7-8-----------------------10|
 B|-----------------------------------------------------------------|-----------------------------------------------------------------|
F#|-----------------------------------------------------------------|-----------------------------------------------------------------|
 B|-----------------------------------------------------------------|-----------------------------------------------------------------|


C#|-------------------------1010101010101010101010101111108---------|-------------------------101010101010----------8-1111108---------|
G#|---------------------------------------------------------11108---|-----------------------------------------7-7-10----------11108---|
 E|-8-8-8-8-8-8-7-7-7-7-7-7---------------------------------------10|-8-8-8-8-8-8-7-7-7-7-7-7-------------7-8-----------------------10|
 B|-----------------------------------------------------------------|-----------------------------------------------------------------|
F#|-----------------------------------------------------------------|-----------------------------------------------------------------|
 B|-----------------------------------------------------------------|-----------------------------------------------------------------|


C#|-------------------------1010101010101010101010101111108---------|-------------------------1010101010----|
G#|---------------------------------------------------------11108---|---------------------------------------|
 E|-8-8-8-8-8-8-7-7-7-7-7-7---------------------------------------10|-8-8-8-8-8-8-7-7-7-7-7-7---------------|
 B|-----------------------------------------------------------------|---------------------------------------|
F#|-----------------------------------------------------------------|---------------------------------------|
 B|-----------------------------------------------------------------|---------------------------------------|


C#|---------------------------------|---------------------------------|---------------------------------|
G#|---------------------------------|---------------------------------|---------------------------------|
 E|---------------------------------|---------------------------------|---------------------------------|
 B|-0-----------1-------3---4---3---|-0-----------1-------3---4---3---|-0-----------1-------3---4---3---|
F#|-0-----------1-------3---4---3---|-0-----------1-------3---4---3---|-0-----------1-------3---4---3---|
 B|-0---0---0---1---0---3---4---3---|-0---0---0---1---0---3---4---3---|-0---0---0---1---0---3---4---3---|


C#|---------------------------------|---------------------------------|---------------------------------|
G#|---------------------------------|---------------------------------|---------------------------------|
 E|---------------------------------|---------------------------------|---------------------------------|
 B|-0-----------1-------3---4---3---|-0-----------1-------3---4---3---|-0-----------1-------3---4---3---|
F#|-0-----------1-------3---4---3---|-0-----------1-------3---4---3---|-0-----------1-------3---4---3---|
 B|-0---0---0---1---0---3---4---3---|-0---0---0---1---0---3---4---3---|-0---0---0---1---0---3---4---3---|


C#|---------------------------------|---------------------------------|---------------------------------|
G#|---------------------------------|---------------------------------|---------------------------------|
 E|---------------------------------|---------------------------------|---------------------------------|
 B|-0-----------1-------3---4---3---|-0-----------1-------3---4---3---|-0-----------1-------3---4---3---|
F#|-0-----------1-------3---4---3---|-0-----------1-------3---4---3---|-0-----------1-------3---4---3---|
 B|-0---0---0---1---0---3---4---3---|-0---0---0---1---0---3---4---3---|-0---0---0---1---0---3---4---3---|


C#|---------------------------------|---------------------------------|---------------------------------|
G#|---------------------------------|---------------------------------|---------------------------------|
 E|---------------------------------|---------------------------------|---------------------------------|
 B|-0-----------1-------3---4---3---|-0-----------1-------3---4---3---|-0-----------1-------3---4---3---|
F#|-0-----------1-------3---4---3---|-0-----------1-------3---4---3---|-0-----------1-------3---4---3---|
 B|-0---0---0---1---0---3---4---3---|-0---0---0---1---0---3---4---3---|-0---0---0---1---0---3---4---3---|


C#|---------------------------------|---------------------------------|---------------------------------|
G#|---------------------------------|---------------------------------|---------------------------------|
 E|---------------------------------|---------------------------------|---------------------------------|
 B|-0-----------1-------3---4---3---|-0-----------1-------3---4---3---|-0-----------1-------3---4---3---|
F#|-0-----------1-------3---4---3---|-0-----------1-------3---4---3---|-0-----------1-------3---4---3---|
 B|-0---0---0---1---0---3---4---3---|-0---0---0---1---0---3---4---3---|-0---0---0---1---0---3---4---3---|


C#|---------------------------------|--------|--------|--------|--------|--------|
G#|---------------------------------|--------|--------|--------|--------|--------|
 E|---------------------------------|--------|--------|--------|--------|--------|
 B|-0-----------1-------3---4---3---|--------|--------|--------|--------|--------|
F#|-0-----------1-------3---4---3---|--------|--------|--------|--------|--------|
 B|-0---0---0---1---0---3---4---3---|--------|--------|--------|--------|--------|


C#|--------|--------|--------|--------|--------|--------|--------|--------|--------|
G#|--------|--------|--------|--------|--------|--------|--------|--------|--------|
 E|--------|--------|--------|--------|--------|--------|--------|--------|--------|
 B|--------|--------|--------|--------|--------|--------|--------|--------|--------|
F#|--------|--------|--------|--------|--------|--------|--------|--------|--------|
 B|--------|--------|--------|--------|--------|--------|--------|--------|--------|


C#|--------|--------|---------------------------|----------------------------------------------|
G#|--------|--------|---------------------------|----------------------------------------------|
 E|--------|--------|---------------------------|----------------------------------------------|
 B|--------|--------|-1----0--------------------|-----------------------------------------8----|
F#|--------|--------|-1----0--------------------|-----------------------------------------6----|
 B|--------|--------|-1----0-----------0--0--1--|-3--5--6--3--5--6--0---0--0--3--0-----0-------|


C#|---------------------------|----------------------------------------------|---------------------------|
G#|---------------------------|----------------------------------------------|---------------------------|
 E|---------------------------|----------------------------------------------|---------------------------|
 B|-1----0--------------------|-----------------------------------------8----|-1----0--------------------|
F#|-1----0--------------------|-----------------------------------------6----|-1----0--------------------|
 B|-1----0-----------0--0--1--|-3--5--6--3--5--6--0---0--0--3--0-----0-------|-1----0-----------0--0--1--|


C#|----------------------------------------------|---------------------------|----------------------------------------------|
G#|----------------------------------------------|---------------------------|----------------------------------------------|
 E|----------------------------------------------|---------------------------|----------------------------------------------|
 B|-----------------------------------------8----|-1----0--------------------|-----------------------------------------8----|
F#|-----------------------------------------6----|-1----0--------------------|-----------------------------------------6----|
 B|-3--5--6--3--5--6--0---0--0--3--0-----0-------|-1----0-----------0--0--1--|-3--5--6--3--5--6--0---0--0--3--0-----0-------|


C#|--------|--------|--------|--------|--------|--------|
G#|--------|--------|--------|--------|--------|--------|
 E|--------|--------|--------|--------|--------|--------|
 B|--------|--------|--------|--------|--------|--------|
F#|--------|--------|--------|--------|--------|--------|
 B|--------|--------|--------|--------|--------|--------|





Track 3: Jim

C#|--------|--------|--------|--------|--------|--------|--------|--------|--------|
G#|--------|--------|--------|--------|--------|--------|--------|--------|--------|
 E|--------|--------|--------|--------|--------|--------|--------|--------|--------|
 B|--------|--------|--------|--------|--------|--------|--------|--------|--------|
F#|--------|--------|--------|--------|--------|--------|--------|--------|--------|
 B|--------|--------|--------|--------|--------|--------|--------|--------|--------|


C#|--------|--------|--------|--------|--------|--------|--------|--------|--------|
G#|--------|--------|--------|--------|--------|--------|--------|--------|--------|
 E|--------|--------|--------|--------|--------|--------|--------|--------|--------|
 B|--------|--------|--------|--------|--------|--------|--------|--------|--------|
F#|--------|--------|--------|--------|--------|--------|--------|--------|--------|
 B|--------|--------|--------|--------|--------|--------|--------|--------|--------|


C#|--------|--------|--------|--------|--------|--------|--------|--------|--------|
G#|--------|--------|--------|--------|--------|--------|--------|--------|--------|
 E|--------|--------|--------|--------|--------|--------|--------|--------|--------|
 B|--------|--------|--------|--------|--------|--------|--------|--------|--------|
F#|--------|--------|--------|--------|--------|--------|--------|--------|--------|
 B|--------|--------|--------|--------|--------|--------|--------|--------|--------|


C#|--------|--------|--------|--------|--------|--------|--------|--------|--------|
G#|--------|--------|--------|--------|--------|--------|--------|--------|--------|
 E|--------|--------|--------|--------|--------|--------|--------|--------|--------|
 B|--------|--------|--------|--------|--------|--------|--------|--------|--------|
F#|--------|--------|--------|--------|--------|--------|--------|--------|--------|
 B|--------|--------|--------|--------|--------|--------|--------|--------|--------|


C#|--------|--------|--------|--------|--------|--------|--------|--------|--------|
G#|--------|--------|--------|--------|--------|--------|--------|--------|--------|
 E|--------|--------|--------|--------|--------|--------|--------|--------|--------|
 B|--------|--------|--------|--------|--------|--------|--------|--------|--------|
F#|--------|--------|--------|--------|--------|--------|--------|--------|--------|
 B|--------|--------|--------|--------|--------|--------|--------|--------|--------|


C#|--------|--------|--------|--------|--------|--------|--------|--------|--------|
G#|--------|--------|--------|--------|--------|--------|--------|--------|--------|
 E|--------|--------|--------|--------|--------|--------|--------|--------|--------|
 B|--------|--------|--------|--------|--------|--------|--------|--------|--------|
F#|--------|--------|--------|--------|--------|--------|--------|--------|--------|
 B|--------|--------|--------|--------|--------|--------|--------|--------|--------|


C#|--------|--------|--------|--------|--------|--------|--------|--------|--------|
G#|--------|--------|--------|--------|--------|--------|--------|--------|--------|
 E|--------|--------|--------|--------|--------|--------|--------|--------|--------|
 B|--------|--------|--------|--------|--------|--------|--------|--------|--------|
F#|--------|--------|--------|--------|--------|--------|--------|--------|--------|
 B|--------|--------|--------|--------|--------|--------|--------|--------|--------|


C#|--------|--------|--------|--------|--------|--------|--------|--------|--------|
G#|--------|--------|--------|--------|--------|--------|--------|--------|--------|
 E|--------|--------|--------|--------|--------|--------|--------|--------|--------|
 B|--------|--------|--------|--------|--------|--------|--------|--------|--------|
F#|--------|--------|--------|--------|--------|--------|--------|--------|--------|
 B|--------|--------|--------|--------|--------|--------|--------|--------|--------|


C#|--------|--------|--------|--------|--------|--------|--------|--------|--------|
G#|--------|--------|--------|--------|--------|--------|--------|--------|--------|
 E|--------|--------|--------|--------|--------|--------|--------|--------|--------|
 B|--------|--------|--------|--------|--------|--------|--------|--------|--------|
F#|--------|--------|--------|--------|--------|--------|--------|--------|--------|
 B|--------|--------|--------|--------|--------|--------|--------|--------|--------|


C#|--------|--------|--------|--------|--------|--------|--------|--------|--------|
G#|--------|--------|--------|--------|--------|--------|--------|--------|--------|
 E|--------|--------|--------|--------|--------|--------|--------|--------|--------|
 B|--------|--------|--------|--------|--------|--------|--------|--------|--------|
F#|--------|--------|--------|--------|--------|--------|--------|--------|--------|
 B|--------|--------|--------|--------|--------|--------|--------|--------|--------|


C#|--------|--------|--------|--------|--------|--------|--------|--------|--------|
G#|--------|--------|--------|--------|--------|--------|--------|--------|--------|
 E|--------|--------|--------|--------|--------|--------|--------|--------|--------|
 B|--------|--------|--------|--------|--------|--------|--------|--------|--------|
F#|--------|--------|--------|--------|--------|--------|--------|--------|--------|
 B|--------|--------|--------|--------|--------|--------|--------|--------|--------|


C#|--------|--------|--------|--------|--------|--------|--------|--------|--------|
G#|--------|--------|--------|--------|--------|--------|--------|--------|--------|
 E|--------|--------|--------|--------|--------|--------|--------|--------|--------|
 B|--------|--------|--------|--------|--------|--------|--------|--------|--------|
F#|--------|--------|--------|--------|--------|--------|--------|--------|--------|
 B|--------|--------|--------|--------|--------|--------|--------|--------|--------|


C#|--------|--------|--------|--------|--------|--------|--------|--------|--------|
G#|--------|--------|--------|--------|--------|--------|--------|--------|--------|
 E|--------|--------|--------|--------|--------|--------|--------|--------|--------|
 B|--------|--------|--------|--------|--------|--------|--------|--------|--------|
F#|--------|--------|--------|--------|--------|--------|--------|--------|--------|
 B|--------|--------|--------|--------|--------|--------|--------|--------|--------|


C#|--------|--------|--------|--------|--------|--------|--------|--------|--------|
G#|--------|--------|--------|--------|--------|--------|--------|--------|--------|
 E|--------|--------|--------|--------|--------|--------|--------|--------|--------|
 B|--------|--------|--------|--------|--------|--------|--------|--------|--------|
F#|--------|--------|--------|--------|--------|--------|--------|--------|--------|
 B|--------|--------|--------|--------|--------|--------|--------|--------|--------|


C#|--------|--------|--------|--------|--------|--------|--------|--------|--------|
G#|--------|--------|--------|--------|--------|--------|--------|--------|--------|
 E|--------|--------|--------|--------|--------|--------|--------|--------|--------|
 B|--------|--------|--------|--------|--------|--------|--------|--------|--------|
F#|--------|--------|--------|--------|--------|--------|--------|--------|--------|
 B|--------|--------|--------|--------|--------|--------|--------|--------|--------|


C#|--------|--------|--------|--------|--------|--------|--------|--------|--------|
G#|--------|--------|--------|--------|--------|--------|--------|--------|--------|
 E|--------|--------|--------|--------|--------|--------|--------|--------|--------|
 B|--------|--------|--------|--------|--------|--------|--------|--------|--------|
F#|--------|--------|--------|--------|--------|--------|--------|--------|--------|
 B|--------|--------|--------|--------|--------|--------|--------|--------|--------|


C#|--------|--------|--------|--------|--------|--------|--------|--------|--------|
G#|--------|--------|--------|--------|--------|--------|--------|--------|--------|
 E|--------|--------|--------|--------|--------|--------|--------|--------|--------|
 B|--------|--------|--------|--------|--------|--------|--------|--------|--------|
F#|--------|--------|--------|--------|--------|--------|--------|--------|--------|
 B|--------|--------|--------|--------|--------|--------|--------|--------|--------|


C#|--------|--------|--------|--------|--------|--------|--------|--------|--------|
G#|--------|--------|--------|--------|--------|--------|--------|--------|--------|
 E|--------|--------|--------|--------|--------|--------|--------|--------|--------|
 B|--------|--------|--------|--------|--------|--------|--------|--------|--------|
F#|--------|--------|--------|--------|--------|--------|--------|--------|--------|
 B|--------|--------|--------|--------|--------|--------|--------|--------|--------|


C#|-------------|--------|--------|--------|--------|--------|
G#|-------------|--------|--------|--------|--------|--------|
 E|-------------|--------|--------|--------|--------|--------|
 B|-1----0------|-0------|-0------|-0------|-0------|-0------|
F#|-1----0------|-0------|-0------|-0------|-0------|-0------|
 B|-1----0------|-0------|-0------|-0------|-0------|-0------|





Track 4: Untitled

G|--------|--------|--------|--------|--------|--------|--------|--------|--------|
D|--------|--------|--------|--------|--------|--------|--------|--------|--------|
A|--------|--------|--------|--------|--------|--------|--------|--------|--------|
E|--------|--------|--------|--------|--------|--------|--------|--------|--------|


G|--------|--------|--------|--------|--------|--------|--------|--------|--------|
D|--------|--------|--------|--------|--------|--------|--------|--------|--------|
A|--------|--------|--------|--------|--------|--------|--------|--------|--------|
E|--------|--------|--------|--------|--------|--------|--------|--------|--------|


G|--------|--------|--------|--------|--------|--------|--------|--------|--------|
D|--------|--------|--------|--------|--------|--------|--------|--------|--------|
A|--------|--------|--------|--------|--------|--------|--------|--------|--------|
E|--------|--------|--------|--------|--------|--------|--------|--------|--------|


G|--------|--------|--------|--------|--------|--------|--------|--------|--------|
D|--------|--------|--------|--------|--------|--------|--------|--------|--------|
A|--------|--------|--------|--------|--------|--------|--------|--------|--------|
E|--------|--------|--------|--------|--------|--------|--------|--------|--------|


G|--------|--------|--------|--------|--------|--------|--------|--------|--------|
D|--------|--------|--------|--------|--------|--------|--------|--------|--------|
A|--------|--------|--------|--------|--------|--------|--------|--------|--------|
E|--------|--------|--------|--------|--------|--------|--------|--------|--------|


G|--------|--------|--------|--------|--------|--------|--------|--------|--------|
D|--------|--------|--------|--------|--------|--------|--------|--------|--------|
A|--------|--------|--------|--------|--------|--------|--------|--------|--------|
E|--------|--------|--------|--------|--------|--------|--------|--------|--------|


G|--------|--------|--------|--------|--------|--------|--------|--------|--------|
D|--------|--------|--------|--------|--------|--------|--------|--------|--------|
A|--------|--------|--------|--------|--------|--------|--------|--------|--------|
E|--------|--------|--------|--------|--------|--------|--------|--------|--------|


G|--------|--------|--------|--------|--------|--------|--------|--------|--------|
D|--------|--------|--------|--------|--------|--------|--------|--------|--------|
A|--------|--------|--------|--------|--------|--------|--------|--------|--------|
E|--------|--------|--------|--------|--------|--------|--------|--------|--------|


G|--------|--------|--------|--------|--------|--------|--------|--------|--------|
D|--------|--------|--------|--------|--------|--------|--------|--------|--------|
A|--------|--------|--------|--------|--------|--------|--------|--------|--------|
E|--------|--------|--------|--------|--------|--------|--------|--------|--------|


G|--------|--------|--------|--------|--------|--------|--------|--------|--------|
D|--------|--------|--------|--------|--------|--------|--------|--------|--------|
A|--------|--------|--------|--------|--------|--------|--------|--------|--------|
E|--------|--------|--------|--------|--------|--------|--------|--------|--------|


G|--------|--------|--------|--------|--------|--------|--------|--------|--------|
D|--------|--------|--------|--------|--------|--------|--------|--------|--------|
A|--------|--------|--------|--------|--------|--------|--------|--------|--------|
E|--------|--------|--------|--------|--------|--------|--------|--------|--------|


G|--------|--------|--------|--------|--------|--------|--------|--------|--------|
D|--------|--------|--------|--------|--------|--------|--------|--------|--------|
A|--------|--------|--------|--------|--------|--------|--------|--------|--------|
E|--------|--------|--------|--------|--------|--------|--------|--------|--------|


G|--------|--------|--------|--------|--------|--------|--------|--------|--------|
D|--------|--------|--------|--------|--------|--------|--------|--------|--------|
A|--------|--------|--------|--------|--------|--------|--------|--------|--------|
E|--------|--------|--------|--------|--------|--------|--------|--------|--------|


G|--------|--------|--------|--------|--------|--------|--------|--------|--------|
D|--------|--------|--------|--------|--------|--------|--------|--------|--------|
A|--------|--------|--------|--------|--------|--------|--------|--------|--------|
E|--------|--------|--------|--------|--------|--------|--------|--------|--------|


G|--------|--------|--------|--------|--------|--------|--------|--------|--------|
D|--------|--------|--------|--------|--------|--------|--------|--------|--------|
A|--------|--------|--------|--------|--------|--------|--------|--------|--------|
E|--------|--------|--------|--------|--------|--------|--------|--------|--------|


G|--------|--------|--------|--------|--------|--------|--------|--------|--------|
D|--------|--------|--------|--------|--------|--------|--------|--------|--------|
A|--------|--------|--------|--------|--------|--------|--------|--------|--------|
E|--------|--------|--------|--------|--------|--------|--------|--------|--------|


G|--------|--------|--------|--------|--------|--------|--------|--------|--------|
D|--------|--------|--------|--------|--------|--------|--------|--------|--------|
A|--------|--------|--------|--------|--------|--------|--------|--------|--------|
E|--------|--------|--------|--------|--------|--------|--------|--------|--------|


G|--------|--------|--------|--------|--------|--------|--------|--------|--------|
D|--------|--------|--------|--------|--------|--------|--------|--------|--------|
A|--------|--------|--------|--------|--------|--------|--------|--------|--------|
E|--------|--------|--------|--------|--------|--------|--------|--------|--------|


G|--------|--------|--------|--------|--------|--------|
D|--------|--------|--------|--------|--------|--------|
A|--------|--------|--------|--------|--------|--------|
E|--------|--------|--------|--------|--------|--------|