Menu:

 

Search:

 

slipknot - the blister exists:

 



Title: The Blister Exists
Artist: 
Album: Vol.3 : The Subliminal Verses
Author: Slipknot


Track 1: James

C#|---------------------------|---------------------------|---------------------------|
G#|---------------------------|---------------------------|---------------------------|
 E|---------------------------|---------------------------|---------------------------|
 B|---------------------------|---------------------------|---------------------------|
F#|---------0----0---0----0---|---------0----0---0----0---|---------0----0---0----0---|
 B|-13--13--0----0---0----0---|-13--13--0----0---0----0---|-13--13--0----0---0----0---|


C#|---------------------------|---------------------------|---------------------------|
G#|---------------------------|---------------------------|---------------------------|
 E|---------------------------|---------------------------|---------------------------|
 B|---------------------------|---------------------------|---------------------------|
F#|---------0----0---0----0---|---------0----0---0----0---|---------0----0---0----0---|
 B|-13--13--0----0---0----0---|-13--13--0----0---0----0---|-13--13--0----0---0----0---|


C#|---------------------------|---------------------------|---------------------------|
G#|---------------------------|---------------------------|---------------------------|
 E|---------------------------|---------------------------|---------------------------|
 B|---------------------------|---------------------------|---------------------------|
F#|---------0----0---0----0---|---------0----0---0----0---|---------0----0---0----0---|
 B|-13--13--0----0---0----0---|-13--13--0----0---0----0---|-13--13--0----0---0----0---|


C#|---------------------------|---------------------------|---------------------------|
G#|---------------------------|---------------------------|---------------------------|
 E|---------------------------|---------------------------|---------------------------|
 B|---------------------------|---------------------------|---------------------------|
F#|---------0----0---0----0---|---------0----0---0----0---|---------0----0---0----0---|
 B|-13--13--0----0---0----0---|-13--13--0----0---0----0---|-13--13--0----0---0----0---|


C#|---------------------------|---------------------------|---------------------------|
G#|---------------------------|---------------------------|---------------------------|
 E|---------------------------|---------------------------|---------------------------|
 B|---------------------------|---------------------------|---------------------------|
F#|---------0----0---0----0---|---------0----0---0----0---|---------0----0---0----0---|
 B|-13--13--0----0---0----0---|-13--13--0----0---0----0---|-13--13--0----0---0----0---|


C#|---------------------------|---------------------------|--------|-------------------------------|
G#|---------------------------|---------------------------|--------|-------------------------------|
 E|---------------------------|---------------------------|--------|-------------------------------|
 B|---------------------------|---------------------------|--------|-------------------------------|
F#|---------0----0---0----0---|---------0----0---0--------|--------|-0----0---0----0---------------|
 B|-13--13--0----0---0----0---|-13--13--0----0---0--------|--------|-0----0---0----0---1--1--1--1--|


C#|---------------------------|-------------------------------|---------------------------|
G#|---------------------------|-------------------------------|---------------------------|
 E|---------------------------|-------------------------------|---------------------------|
 B|-----------------------1---|-------------------------------|-----------------------1---|
F#|-0----0---0----------------|-0----0---0----0---------------|-0----0---0----------------|
 B|-0----0---0----0---1-------|-0----0---0----0---1--1--1--1--|-0----0---0----0---1-------|


C#|-------------------------------|---------------------------|-------------------------------|
G#|-------------------------------|---------------------------|-------------------------------|
 E|-------------------------------|---------------------------|-------------------------------|
 B|-------------------------------|-----------------------1---|-------------------------------|
F#|-0----0---0----0---------------|-0----0---0----------------|-0----0---0----0---------------|
 B|-0----0---0----0---1--1--1--1--|-0----0---0----0---1-------|-0----0---0----0---1--1--1--1--|


C#|---------------------------|-------------------------------|---------------------------|
G#|---------------------------|-------------------------------|---------------------------|
 E|---------------------------|-------------------------------|---------------------------|
 B|-----------------------1---|-------------------------------|-----------------------1---|
F#|-0----0---0----------------|-0----0---0----0---------------|-0----0---0----------------|
 B|-0----0---0----0---1-------|-0----0---0----0---1--1--1--1--|-0----0---0----0---1-------|


C#|-------------------------------|---------------------------|-------------------------------|
G#|-------------------------------|---------------------------|-------------------------------|
 E|-------------------------------|---------------------------|-------------------------------|
 B|-------------------------------|-----------------------1---|-------------------------------|
F#|-0----0---0----0---------------|-0----0---0----------------|-0----0---0----0---------------|
 B|-0----0---0----0---1--1--1--1--|-0----0---0----0---1-------|-0----0---0----0---1--1--1--1--|


C#|---------------------------|-------------------------------|---------------------------|
G#|---------------------------|-------------------------------|---------------------------|
 E|---------------------------|-------------------------------|---------------------------|
 B|-----------------------1---|-------------------------------|-----------------------1---|
F#|-0----0---0----------------|-0----0---0----0---------------|-0----0---0----------------|
 B|-0----0---0----0---1-------|-0----0---0----0---1--1--1--1--|-0----0---0----0---1-------|


C#|---------------------------|---------------------------|---------------------------|
G#|---------------------------|---------------------------|---------------------------|
 E|---------------------------|---------------------------|---------------------------|
 B|---------------------------|---------------------------|---------------------------|
F#|-0----0---0----3---4---3---|-0----0---0----3---4---3---|-0----0---0----3---4---3---|
 B|-0----0---0----3---4---3---|-0----0---0----3---4---3---|-0----0---0----3---4---3---|


C#|---------------------------|---------------------------|---------------------------|
G#|---------------------------|---------------------------|---------------------------|
 E|---------------------------|---------------------------|---------------------------|
 B|---------------------------|---------------------------|---------------------------|
F#|-0----0---0----3---4---3---|-0----0---0----3---4---3---|-0----0---0----3---4---3---|
 B|-0----0---0----3---4---3---|-0----0---0----3---4---3---|-0----0---0----3---4---3---|


C#|---------------------------|---------------------------|-------------------------------|
G#|---------------------------|---------------------------|-------------------------------|
 E|---------------------------|---------------------------|-------------------------------|
 B|---------------------------|---------------------------|-------------------------------|
F#|-0----0---0----3---4---3---|-0----0---0----3---4---3---|-0----0---0----0---------------|
 B|-0----0---0----3---4---3---|-0----0---0----3---4---3---|-0----0---0----0---1--1--1--1--|


C#|---------------------------|-------------------------------|---------------------------|
G#|---------------------------|-------------------------------|---------------------------|
 E|---------------------------|-------------------------------|---------------------------|
 B|-----------------------1---|-------------------------------|-----------------------1---|
F#|-0----0---0----------------|-0----0---0----0---------------|-0----0---0----------------|
 B|-0----0---0----0---1-------|-0----0---0----0---1--1--1--1--|-0----0---0----0---1-------|


C#|-------------------------------|---------------------------|-------------------------------|
G#|-------------------------------|---------------------------|-------------------------------|
 E|-------------------------------|---------------------------|-------------------------------|
 B|-------------------------------|-----------------------1---|-------------------------------|
F#|-0----0---0----0---------------|-0----0---0----------------|-0----0---0----0---------------|
 B|-0----0---0----0---1--1--1--1--|-0----0---0----0---1-------|-0----0---0----0---1--1--1--1--|


C#|---------------------------|-------------------------------|---------------------------|
G#|---------------------------|-------------------------------|---------------------------|
 E|---------------------------|-------------------------------|---------------------------|
 B|-----------------------1---|-------------------------------|-----------------------1---|
F#|-0----0---0----------------|-0----0---0----0---------------|-0----0---0----------------|
 B|-0----0---0----0---1-------|-0----0---0----0---1--1--1--1--|-0----0---0----0---1-------|


C#|-------------------------------|---------------------------|-------------------------------|
G#|-------------------------------|---------------------------|-------------------------------|
 E|-------------------------------|---------------------------|-------------------------------|
 B|-------------------------------|-----------------------1---|-------------------------------|
F#|-0----0---0----0---------------|-0----0---0----------------|-0----0---0----0---------------|
 B|-0----0---0----0---1--1--1--1--|-0----0---0----0---1-------|-0----0---0----0---1--1--1--1--|


C#|---------------------------|-------------------------------|---------------------------|
G#|---------------------------|-------------------------------|---------------------------|
 E|---------------------------|-------------------------------|---------------------------|
 B|-----------------------1---|-------------------------------|-----------------------1---|
F#|-0----0---0----------------|-0----0---0----0---------------|-0----0---0----------------|
 B|-0----0---0----0---1-------|-0----0---0----0---1--1--1--1--|-0----0---0----0---1-------|


C#|---------------------------|---------------------------|---------------------------|
G#|---------------------------|---------------------------|---------------------------|
 E|---------------------------|---------------------------|---------------------------|
 B|---------------------------|---------------------------|---------------------------|
F#|-0----0---0----3---4---3---|-0----0---0----3---4---3---|-0----0---0----3---4---3---|
 B|-0----0---0----3---4---3---|-0----0---0----3---4---3---|-0----0---0----3---4---3---|


C#|---------------------------|---------------------------|---------------------------|
G#|---------------------------|---------------------------|---------------------------|
 E|---------------------------|---------------------------|---------------------------|
 B|---------------------------|---------------------------|---------------------------|
F#|-0----0---0----3---4---3---|-0----0---0----3---4---3---|-0----0---0----3---4---3---|
 B|-0----0---0----3---4---3---|-0----0---0----3---4---3---|-0----0---0----3---4---3---|


C#|---------------------------|---------------------------|------------|--------|----------------|
G#|---------------------------|---------------------------|------------|--------|----------------|
 E|---------------------------|---------------------------|------------|--------|----------------|
 B|---------------------------|---------------------------|------------|--------|----------------|
F#|-0----0---0----3---4---3---|-0----0---0----3---4---3---|-0----------|--------|-0---0----------|
 B|-0----0---0----3---4---3---|-0----0---0----3---4---3---|-0----------|--------|-0---0----------|


C#|-----------------------|-------------------------------|---------------------------|
G#|-----------------------|-------------------------------|---------------------------|
 E|-----------------------|-------------------------------|---------------------------|
 B|-----------------------|-------------------------------|-----------------------1---|
F#|-0---0---0-------------|-0----0---0----0---------------|-0----0---0----------------|
 B|-0---0---0-------------|-0----0---0----0---1--1--1--1--|-0----0---0----0---1-------|


C#|-------------------------------|---------------------------|-------------------------------|
G#|-------------------------------|---------------------------|-------------------------------|
 E|-------------------------------|---------------------------|-------------------------------|
 B|-------------------------------|-----------------------1---|-------------------------------|
F#|-0----0---0----0---------------|-0----0---0----------------|-0----0---0----0---------------|
 B|-0----0---0----0---1--1--1--1--|-0----0---0----0---1-------|-0----0---0----0---1--1--1--1--|


C#|---------------------------|-------------------------------|---------------------------|
G#|---------------------------|-------------------------------|---------------------------|
 E|---------------------------|-------------------------------|---------------------------|
 B|-----------------------1---|-------------------------------|-----------------------1---|
F#|-0----0---0----------------|-0----0---0----0---------------|-0----0---0----------------|
 B|-0----0---0----0---1-------|-0----0---0----0---1--1--1--1--|-0----0---0----0---1-------|


C#|-------------------------------|---------------------------|-------------------------------|
G#|-------------------------------|---------------------------|-------------------------------|
 E|-------------------------------|---------------------------|-------------------------------|
 B|-------------------------------|-----------------------1---|-------------------------------|
F#|-0----0---0----0---------------|-0----0---0----------------|-0----0---0----0---------------|
 B|-0----0---0----0---1--1--1--1--|-0----0---0----0---1-------|-0----0---0----0---1--1--1--1--|


C#|---------------------------|---------------------------|---------------------------|
G#|---------------------------|---------------------------|---------------------------|
 E|---------------------------|---------------------------|---------------------------|
 B|-----------------------1---|---------------------------|---------------------------|
F#|-0----0---0----------------|-0----0---0----3---4---3---|-0----0---0----3---4---3---|
 B|-0----0---0----0---1-------|-0----0---0----3---4---3---|-0----0---0----3---4---3---|


C#|---------------------------|---------------------------|---------------------------|
G#|---------------------------|---------------------------|---------------------------|
 E|---------------------------|---------------------------|---------------------------|
 B|---------------------------|---------------------------|---------------------------|
F#|-0----0---0----3---4---3---|-0----0---0----3---4---3---|-0----0---0----3---4---3---|
 B|-0----0---0----3---4---3---|-0----0---0----3---4---3---|-0----0---0----3---4---3---|


C#|---------------------------|---------------------------|---------------------------|
G#|---------------------------|---------------------------|---------------------------|
 E|---------------------------|---------------------------|---------------------------|
 B|---------------------------|---------------------------|---------------------------|
F#|-0----0---0----3---4---3---|-0----0---0----3---4---3---|-0----0---0----3---4---3---|
 B|-0----0---0----3---4---3---|-0----0---0----3---4---3---|-0----0---0----3---4---3---|


C#|------------------------|---------------------------|------------------------|---------------------------|
G#|------------------------|---------------------------|------------------------|---------------------------|
 E|------------------------|---------------------------|------------------------|---------------------------|
 B|-2----3---0-----6---0---|-6---0---3---3----3----5---|-2----3---0-----6---0---|-6---0---3---3----3----5---|
F#|-2----3---0-----6---0---|-6---0---3---3----3----5---|-2----3---0-----6---0---|-6---0---3---3----3----5---|
 B|-2----3---0-----6---0---|-6---0---3---3----3----5---|-2----3---0-----6---0---|-6---0---3---3----3----5---|


C#|------------------------|---------------------------|------------------------|---------------------------|
G#|------------------------|---------------------------|------------------------|---------------------------|
 E|------------------------|---------------------------|------------------------|---------------------------|
 B|-2----3---0-----6---0---|-6---0---3---3----3----5---|-2----3---0-----6---0---|-6---0---3---3----3----5---|
F#|-2----3---0-----6---0---|-6---0---3---3----3----5---|-2----3---0-----6---0---|-6---0---3---3----3----5---|
 B|-2----3---0-----6---0---|-6---0---3---3----3----5---|-2----3---0-----6---0---|-6---0---3---3----3----5---|


C#|------------------------|---------------------------|------------------------|---------------------------|
G#|------------------------|---------------------------|------------------------|---------------------------|
 E|------------------------|---------------------------|------------------------|---------------------------|
 B|------2---0-----6---0---|-6---0---3---3----3----5---|-2----3---0-----6---0---|-6---0---3---3----3----5---|
F#|------2---0-----6---0---|-6---0---3---3----3----5---|-2----3---0-----6---0---|-6---0---3---3----3----5---|
 B|------2---0-----6---0---|-6---0---3---3----3----5---|-2----3---0-----6---0---|-6---0---3---3----3----5---|


C#|------------------------|---------------------------|------------------------|---------------------------|
G#|------------------------|---------------------------|------------------------|---------------------------|
 E|------------------------|---------------------------|------------------------|---------------------------|
 B|-2----3---0-----6---0---|-6---0---3---3----3----5---|-2----3---0-----6---0---|-6---0---3---3----3----5---|
F#|-2----3---0-----6---0---|-6---0---3---3----3----5---|-2----3---0-----6---0---|-6---0---3---3----3----5---|
 B|-2----3---0-----6---0---|-6---0---3---3----3----5---|-2----3---0-----6---0---|-6---0---3---3----3----5---|


C#|-----------------|--------|--------|--------|--------|--------|--------|--------|
G#|-----------------|--------|--------|--------|--------|--------|--------|--------|
 E|-----------------|--------|--------|--------|--------|--------|--------|--------|
 B|-----------------|--------|--------|--------|--------|--------|--------|--------|
F#|-1-----0---------|--------|--------|--------|--------|--------|--------|--------|
 B|-1-----0---------|--------|--------|--------|--------|--------|--------|--------|


C#|--------|--------|--------|--------|--------|--------|--------|--------|-----------------|
G#|--------|--------|--------|--------|--------|--------|--------|--------|-----------------|
 E|--------|--------|--------|--------|--------|--------|--------|--------|-----------------|
 B|--------|--------|--------|--------|-5------|-5------|-5------|-5------|-----------------|
F#|--------|--------|--------|--------|-7------|-7------|-7------|-7------|-1-----0---------|
 B|--------|--------|--------|--------|--------|--------|--------|--------|-1-----0---------|


C#|--------------------|-----------------------------------------|-----------------------|
G#|--------------------|-----------------------------------------|-----------------------|
 E|--------------------|-----------------------------------------|-----------------------|
 B|--------------------|-----------------------------------------|-----------------------|
F#|--------1---0---0---|-1---0---0---1---0---0---0-------0---0---|-1---0-------0---1-----|
 B|--------1---0---0---|-1---0---0---1---0---0---0-------0---0---|-1---0-------0---1-----|


C#|-----------------|--------------------|-----------------------------------------|
G#|-----------------|--------------------|-----------------------------------------|
 E|-----------------|--------------------|-----------------------------------------|
 B|-----------------|--------------------|-----------------------------------------|
F#|-1-----0---------|--------1---0---0---|-1---0---0---1---0---0---0-------0---0---|
 B|-1-----0---------|--------1---0---0---|-1---0---0---1---0---0---0-------0---0---|


C#|-----------------------|-----------------|--------------------|-----------------------------------------|
G#|-----------------------|-----------------|--------------------|-----------------------------------------|
 E|-----------------------|-----------------|--------------------|-----------------------------------------|
 B|-----------------------|-----------------|--------------------|-----------------------------------------|
F#|-1---0-------0---1-----|-1-----0---------|--------1---0---0---|-1---0---0---1---0---0---0-------0---0---|
 B|-1---0-------0---1-----|-1-----0---------|--------1---0---0---|-1---0---0---1---0---0---0-------0---0---|


C#|-----------------------|-----------------|--------------------|-----------------------------------------|
G#|-----------------------|-----------------|--------------------|-----------------------------------------|
 E|-----------------------|-----------------|--------------------|-----------------------------------------|
 B|-----------------------|-----------------|--------------------|-----------------------------------------|
F#|-1---0-------0---1-----|-1-----0---------|--------1---0---0---|-1---0---0---1---0---0---0-------0---0---|
 B|-1---0-------0---1-----|-1-----0---------|--------1---0---0---|-1---0---0---1---0---0---0-------0---0---|


C#|-----------------------|-----------------|--------------------|-----------------------------------------|
G#|-----------------------|-----------------|--------------------|-----------------------------------------|
 E|-----------------------|-----------------|--------------------|-----------------------------------------|
 B|-----------------------|-----------------|--------------------|-----------------------------------------|
F#|-1---0-------0---1-----|-1-----0---------|--------1---0---0---|-1---0---0---1---0---0---0-------0---0---|
 B|-1---0-------0---1-----|-1-----0---------|--------1---0---0---|-1---0---0---1---0---0---0-------0---0---|


C#|-----------------------|-----------------|--------------------|-----------------------------------------|
G#|-----------------------|-----------------|--------------------|-----------------------------------------|
 E|-----------------------|-----------------|--------------------|-----------------------------------------|
 B|-----------------------|-----------------|--------------------|-----------------------------------------|
F#|-1---0-------0---1-----|-1-----0---------|--------1---0---0---|-1---0---0---1---0---0---0-------0---0---|
 B|-1---0-------0---1-----|-1-----0---------|--------1---0---0---|-1---0---0---1---0---0---0-------0---0---|


C#|-----------------------|-----------------|--------------------|-----------------------------------------|
G#|-----------------------|-----------------|--------------------|-----------------------------------------|
 E|-----------------------|-----------------|--------------------|-----------------------------------------|
 B|-----------------------|-----------------|--------------------|-----------------------------------------|
F#|-1---0-------0---1-----|-1-----0---------|--------1---0---0---|-1---0---0---1---0---0---0-------0---0---|
 B|-1---0-------0---1-----|-1-----0---------|--------1---0---0---|-1---0---0---1---0---0---0-------0---0---|


C#|-----------------------|-----------------|--------------------|-----------------------------------------|
G#|-----------------------|-----------------|--------------------|-----------------------------------------|
 E|-----------------------|-----------------|--------------------|-----------------------------------------|
 B|-----------------------|-----------------|--------------------|-----------------------------------------|
F#|-1---0-------0---1-----|-1-----0---------|--------1---0---0---|-1---0---0---1---0---0---0-------0---0---|
 B|-1---0-------0---1-----|-1-----0---------|--------1---0---0---|-1---0---0---1---0---0---0-------0---0---|


C#|-----------------------|---------------------------|---------------------------|
G#|-----------------------|---------------------------|---------------------------|
 E|-----------------------|---------------------------|---------------------------|
 B|-----------------------|---------------------------|---------------------------|
F#|-1---0-------0---1-----|-0----0---0----3---4---3---|-0----0---0----3---4---3---|
 B|-1---0-------0---1-----|-0----0---0----3---4---3---|-0----0---0----3---4---3---|


C#|---------------------------|---------------------------|---------------------------|
G#|---------------------------|---------------------------|---------------------------|
 E|---------------------------|---------------------------|---------------------------|
 B|---------------------------|---------------------------|---------------------------|
F#|-0----0---0----3---4---3---|-0----0---0----3---4---3---|-0----0---0----3---4---3---|
 B|-0----0---0----3---4---3---|-0----0---0----3---4---3---|-0----0---0----3---4---3---|


C#|---------------------------|---------------------------|---------------------------|
G#|---------------------------|---------------------------|---------------------------|
 E|---------------------------|---------------------------|---------------------------|
 B|---------------------------|---------------------------|---------------------------|
F#|-0----0---0----3---4---3---|-0----0---0----3---4---3---|-0----0---0----3---4---3---|
 B|-0----0---0----3---4---3---|-0----0---0----3---4---3---|-0----0---0----3---4---3---|


C#|---------------------------|---------------------------|---------------------------|
G#|---------------------------|---------------------------|---------------------------|
 E|---------------------------|---------------------------|---------------------------|
 B|---------------------------|---------------------------|---------------------------|
F#|-0----0---0----3---4---3---|-0----0---0----3---4---3---|-0----0---0----3---4---3---|
 B|-0----0---0----3---4---3---|-0----0---0----3---4---3---|-0----0---0----3---4---3---|


C#|---------------------------|---------------------------|---------------------------|
G#|---------------------------|---------------------------|---------------------------|
 E|---------------------------|---------------------------|---------------------------|
 B|---------------------------|---------------------------|---------------------------|
F#|-0----0---0----3---4---3---|-0----0---0----3---4---3---|-0----0---0----3---4---3---|
 B|-0----0---0----3---4---3---|-0----0---0----3---4---3---|-0----0---0----3---4---3---|


C#|---------------------------|---------------------------|------------------------|
G#|---------------------------|---------------------------|------------------------|
 E|---------------------------|---------------------------|------------------------|
 B|---------------------------|---------------------------|-2----3---0-----6---0---|
F#|-0----0---0----3---4---3---|-0----0---0----3---4---3---|-2----3---0-----6---0---|
 B|-0----0---0----3---4---3---|-0----0---0----3---4---3---|-2----3---0-----6---0---|


C#|---------------------------|------------------------|---------------------------|
G#|---------------------------|------------------------|---------------------------|
 E|---------------------------|------------------------|---------------------------|
 B|-6---0---3---3----3----5---|-2----3---0-----6---0---|-6---0---3---3----3----5---|
F#|-6---0---3---3----3----5---|-2----3---0-----6---0---|-6---0---3---3----3----5---|
 B|-6---0---3---3----3----5---|-2----3---0-----6---0---|-6---0---3---3----3----5---|


C#|------------------------|---------------------------|------------------------|---------------------------|
G#|------------------------|---------------------------|------------------------|---------------------------|
 E|------------------------|---------------------------|------------------------|---------------------------|
 B|-2----3---0-----6---0---|-6---0---3---3----3----5---|-2----3---0-----6---0---|-6---0---3---3----3----5---|
F#|-2----3---0-----6---0---|-6---0---3---3----3----5---|-2----3---0-----6---0---|-6---0---3---3----3----5---|
 B|-2----3---0-----6---0---|-6---0---3---3----3----5---|-2----3---0-----6---0---|-6---0---3---3----3----5---|


C#|------------------------|---------------------------|------------------------|---------------------------|
G#|------------------------|---------------------------|------------------------|---------------------------|
 E|------------------------|---------------------------|------------------------|---------------------------|
 B|------2---0-----6---0---|-6---0---3---3----3----5---|-2----3---0-----6---0---|-6---0---3---3----3----5---|
F#|------2---0-----6---0---|-6---0---3---3----3----5---|-2----3---0-----6---0---|-6---0---3---3----3----5---|
 B|------2---0-----6---0---|-6---0---3---3----3----5---|-2----3---0-----6---0---|-6---0---3---3----3----5---|


C#|------------------------|---------------------------|------------------------|---------------------------|
G#|------------------------|---------------------------|------------------------|---------------------------|
 E|------------------------|---------------------------|------------------------|---------------------------|
 B|-2----3---0-----6---0---|-6---0---3---3----3----5---|-2----3---0-----6---0---|-6---0---3---3----3----5---|
F#|-2----3---0-----6---0---|-6---0---3---3----3----5---|-2----3---0-----6---0---|-6---0---3---3----3----5---|
 B|-2----3---0-----6---0---|-6---0---3---3----3----5---|-2----3---0-----6---0---|-6---0---3---3----3----5---|


C#|------------------------|---------------------------|------------------------|---------------------------|
G#|------------------------|---------------------------|------------------------|---------------------------|
 E|------------------------|---------------------------|------------------------|---------------------------|
 B|------2---0-----6---0---|-6---0---3---3----3----5---|-2----3---0-----6---0---|-6---0---3---3----3----5---|
F#|------2---0-----6---0---|-6---0---3---3----3----5---|-2----3---0-----6---0---|-6---0---3---3----3----5---|
 B|------2---0-----6---0---|-6---0---3---3----3----5---|-2----3---0-----6---0---|-6---0---3---3----3----5---|


C#|------------------------|---------------------------|------------------------|------------------------|
G#|------------------------|---------------------------|------------------------|------------------------|
 E|------------------------|---------------------------|------------------------|------------------------|
 B|-2----3---0-----6---0---|-6---0---3---3----3----5---|-2----3---0-----6---0---|-6---0---0----0----0----|
F#|-2----3---0-----6---0---|-6---0---3---3----3----5---|-2----3---0-----6---0---|-6---0---0----0----0----|
 B|-2----3---0-----6---0---|-6---0---3---3----3----5---|-2----3---0-----6---0---|-6---0---0----0----0----|


C#|------------------------|---------------------------|------------------------|---------------------------|
G#|------------------------|---------------------------|------------------------|---------------------------|
 E|------------------------|---------------------------|------------------------|---------------------------|
 B|------2---0-----6---0---|-6---0---3---3----3----5---|-2----3---0-----6---0---|-6---0---3---3----3----5---|
F#|------2---0-----6---0---|-6---0---3---3----3----5---|-2----3---0-----6---0---|-6---0---3---3----3----5---|
 B|------2---0-----6---0---|-6---0---3---3----3----5---|-2----3---0-----6---0---|-6---0---3---3----3----5---|


C#|------------------------|---------------------------|------------------------|---------------------------|
G#|------------------------|---------------------------|------------------------|---------------------------|
 E|------------------------|---------------------------|------------------------|---------------------------|
 B|-2----3---0-----6---0---|-6---0---3---3----3----5---|-2----3---0-----6---0---|-6---0---3---3----3----5---|
F#|-2----3---0-----6---0---|-6---0---3---3----3----5---|-2----3---0-----6---0---|-6---0---3---3----3----5---|
 B|-2----3---0-----6---0---|-6---0---3---3----3----5---|-2----3---0-----6---0---|-6---0---3---3----3----5---|


C#|-----------------|--------------------|-----------------------------------------|
G#|-----------------|--------------------|-----------------------------------------|
 E|-----------------|--------------------|-----------------------------------------|
 B|-----------------|--------------------|-----------------------------------------|
F#|-1-----0---------|--------1---0---0---|-1---0---0---1---0---0---0-------0---0---|
 B|-1-----0---------|--------1---0---0---|-1---0---0---1---0---0---0-------0---0---|


C#|-----------------------|-----------------|--------------------|-----------------------------------------|
G#|-----------------------|-----------------|--------------------|-----------------------------------------|
 E|-----------------------|-----------------|--------------------|-----------------------------------------|
 B|-----------------------|-----------------|--------------------|-----------------------------------------|
F#|-1---0-------0---1-----|-1-----0---------|--------1---0---0---|-1---0---0---1---0---0---0-------0---0---|
 B|-1---0-------0---1-----|-1-----0---------|--------1---0---0---|-1---0---0---1---0---0---0-------0---0---|


C#|-----------------------|-----------------|--------------------|-----------------------------------------|
G#|-----------------------|-----------------|--------------------|-----------------------------------------|
 E|-----------------------|-----------------|--------------------|-----------------------------------------|
 B|-----------------------|-----------------|--------------------|-----------------------------------------|
F#|-1---0-------0---1-----|-1-----0---------|--------1---0---0---|-1---0---0---1---0---0---0-------0---0---|
 B|-1---0-------0---1-----|-1-----0---------|--------1---0---0---|-1---0---0---1---0---0---0-------0---0---|


C#|-----------------------|-----------------|--------------------|-----------------------------------------|
G#|-----------------------|-----------------|--------------------|-----------------------------------------|
 E|-----------------------|-----------------|--------------------|-----------------------------------------|
 B|-----------------------|-----------------|--------------------|-----------------------------------------|
F#|-1---0-------0---1-----|-1-----0---------|--------1---0---0---|-1---0---0---1---0---0---0-------0---0---|
 B|-1---0-------0---1-----|-1-----0---------|--------1---0---0---|-1---0---0---1---0---0---0-------0---0---|


C#|-----------------------|-------------|--------|--------|--------|
G#|-----------------------|-------------|--------|--------|--------|
 E|-----------------------|-------------|--------|--------|--------|
 B|-----------------------|-------------|--------|--------|--------|
F#|-1---0-------0---1-----|-1-----0-----|-0------|-0------|-0------|
 B|-1---0-------0---1-----|-1-----0-----|-0------|-0------|-0------|





Track 2: Mick

C#|--------|--------|--------|--------|--------|--------|--------|--------|--------|
G#|--------|--------|--------|--------|--------|--------|--------|--------|--------|
 E|--------|--------|--------|--------|--------|--------|--------|--------|--------|
 B|--------|--------|--------|--------|--------|--------|--------|--------|--------|
F#|--------|--------|--------|--------|--------|--------|--------|--------|--------|
 B|--------|--------|--------|--------|--------|--------|--------|--------|--------|


C#|--------|--------|--------|--------|--------|--------|--------|--------|--------|
G#|--------|--------|--------|--------|--------|--------|--------|--------|--------|
 E|--------|--------|--------|--------|--------|--------|--------|--------|--------|
 B|--------|--------|--------|--------|--------|--------|--------|--------|--------|
F#|--------|--------|--------|--------|--------|--------|--------|--------|--------|
 B|--------|--------|--------|--------|--------|--------|--------|--------|--------|


C#|--------|--------|--------|--------|--------|--------|--------|--------|--------|
G#|--------|--------|--------|--------|--------|--------|--------|--------|--------|
 E|--------|--------|--------|--------|--------|--------|--------|--------|--------|
 B|--------|--------|--------|--------|--------|--------|--------|--------|--------|
F#|--------|--------|--------|--------|--------|--------|--------|--------|--------|
 B|--------|--------|--------|--------|--------|--------|--------|--------|--------|


C#|--------|--------|--------|--------|--------|--------|--------|--------|--------|
G#|--------|--------|--------|--------|--------|--------|--------|--------|--------|
 E|--------|--------|--------|--------|--------|--------|--------|--------|--------|
 B|--------|--------|--------|--------|--------|--------|--------|--------|--------|
F#|--------|--------|--------|--------|--------|--------|--------|--------|--------|
 B|--------|--------|--------|--------|--------|--------|--------|--------|--------|


C#|--------|--------|--------|--------|--------|--------|------------------|---------------------------|
G#|--------|--------|--------|--------|--------|--------|------------------|---------------------------|
 E|--------|--------|--------|--------|--------|--------|-------------19---|-19----19---19-20-19-------|
 B|--------|--------|--------|--------|--------|--------|------------------|---------------------20-18-|
F#|--------|--------|--------|--------|--------|--------|-18----17---------|---------------------------|
 B|--------|--------|--------|--------|--------|--------|------------------|---------------------------|


C#|------------------|-----------------------------------------------|------------------|
G#|------------------|-----------------------------------------------|------------------|
 E|-------------19---|-19--------------------16-18-19-18-16----------|-------------19---|
 B|------------------|--------------16-18-19----------------19-18-16-|------------------|
F#|-18----17---------|-----17-18-20----------------------------------|-18----17---------|
 B|------------------|-----------------------------------------------|------------------|


C#|---------------------------|------------------|-----------------------------------------------|
G#|---------------------------|------------------|-----------------------------------------------|
 E|-19----19---19-20-19-------|-------------19---|-19--------------------16-18-19-18-16----------|
 B|---------------------20-18-|------------------|--------------16-18-19----------------19-18-16-|
F#|---------------------------|-18----17---------|-----17-18-20----------------------------------|
 B|---------------------------|------------------|-----------------------------------------------|


C#|------------------|---------------------------|------------------|-----------------------------------------------|
G#|------------------|---------------------------|------------------|-----------------------------------------------|
 E|-------------19---|-19----19---19-20-19-------|-------------19---|-19--------------------16-18-19-18-16----------|
 B|------------------|---------------------20-18-|------------------|--------------16-18-19----------------19-18-16-|
F#|-18----17---------|---------------------------|-18----17---------|-----17-18-20----------------------------------|
 B|------------------|---------------------------|------------------|-----------------------------------------------|


C#|------------------|---------------------------|------------------|----------------|
G#|------------------|---------------------------|------------------|----------------|
 E|-------------19---|-19----19---19-20-19-------|-------------19---|-19--19-----19--|
 B|------------------|---------------------20-18-|------------------|----------------|
F#|-18----17---------|---------------------------|-18----17---------|----------------|
 B|------------------|---------------------------|------------------|----------------|


C#|--------|--------|--------|--------|--------|--------|--------|--------|------------------|
G#|--------|--------|--------|--------|--------|--------|--------|--------|------------------|
 E|--------|--------|--------|--------|--------|--------|--------|--------|-------------19---|
 B|--------|--------|--------|--------|--------|--------|--------|--------|------------------|
F#|--------|--------|--------|--------|--------|--------|--------|--------|-18----17---------|
 B|--------|--------|--------|--------|--------|--------|--------|--------|------------------|


C#|---------------------------|------------------|----------------|--------|--------|
G#|---------------------------|------------------|----------------|--------|--------|
 E|-19----19---19-20-19-------|-------------19---|-19--19-----19--|--------|--------|
 B|---------------------20-18-|------------------|----------------|--------|--------|
F#|---------------------------|-18----17---------|----------------|--------|--------|
 B|---------------------------|------------------|----------------|--------|--------|


C#|--------|--------|--------|--------|--------|--------|------------------|---------------------------|
G#|--------|--------|--------|--------|--------|--------|------------------|---------------------------|
 E|--------|--------|--------|--------|--------|--------|-------------19---|-19----19---19-20-19-------|
 B|--------|--------|--------|--------|--------|--------|------------------|---------------------20-18-|
F#|--------|--------|--------|--------|--------|--------|-18----17---------|---------------------------|
 B|--------|--------|--------|--------|--------|--------|------------------|---------------------------|


C#|------------------|----------------|--------|--------|--------|--------|--------|
G#|------------------|----------------|--------|--------|--------|--------|--------|
 E|-------------19---|-19--19-----19--|--------|--------|--------|--------|--------|
 B|------------------|----------------|--------|--------|--------|--------|--------|
F#|-18----17---------|----------------|--------|--------|--------|--------|--------|
 B|------------------|----------------|--------|--------|--------|--------|--------|


C#|--------|--------|--------|--------|--------|--------|--------|--------|--------|
G#|--------|--------|--------|--------|--------|--------|--------|--------|--------|
 E|--------|--------|--------|--------|--------|--------|--------|--------|--------|
 B|--------|--------|--------|--------|--------|--------|--------|--------|--------|
F#|--------|--------|--------|--------|--------|--------|--------|--------|--------|
 B|--------|--------|--------|--------|--------|--------|--------|--------|--------|


C#|--------|--------|--------|--------|--------|--------|--------|--------|--------|
G#|--------|--------|--------|--------|--------|--------|--------|--------|--------|
 E|--------|--------|--------|--------|--------|--------|--------|--------|--------|
 B|--------|--------|--------|--------|--------|--------|--------|--------|--------|
F#|--------|--------|--------|--------|--------|--------|--------|--------|--------|
 B|--------|--------|--------|--------|--------|--------|--------|--------|--------|


C#|--------|--------|--------|--------|--------|--------|--------|--------|--------|
G#|--------|--------|--------|--------|--------|--------|--------|--------|--------|
 E|--------|--------|--------|--------|--------|--------|--------|--------|--------|
 B|--------|--------|--------|--------|--------|--------|--------|--------|--------|
F#|--------|--------|--------|--------|--------|--------|--------|--------|--------|
 B|--------|--------|--------|--------|--------|--------|--------|--------|--------|


C#|--------|--------|--------|--------|--------|--------|--------|--------|-----------------|
G#|--------|--------|--------|--------|--------|--------|--------|--------|-----------------|
 E|--------|--------|--------|--------|--------|--------|--------|--------|-----------------|
 B|--------|--------|--------|--------|--------|--------|--------|--------|-----------------|
F#|--------|--------|--------|--------|--------|--------|--------|--------|-1-----0---------|
 B|--------|--------|--------|--------|--------|--------|--------|--------|-1-----0---------|


C#|--------------------|-----------------------------------------|-----------------------|
G#|--------------------|-----------------------------------------|-----------------------|
 E|--------------------|-----------------------------------------|-----------------------|
 B|--------------------|-----------------------------------------|-----------------8-----|
F#|--------1---0---0---|-1---0---0---1---0---0---0-------0---0---|-1---0-------0---6-----|
 B|--------1---0---0---|-1---0---0---1---0---0---0-------0---0---|-1---0-------0---------|


C#|-----------------|--------------------|-----------------------------------------|
G#|-----------------|--------------------|-----------------------------------------|
 E|-----------------|--------------------|-----------------------------------------|
 B|-----------------|--------------------|-----------------------------------------|
F#|-1-----0---------|--------1---0---0---|-1---0---0---1---0---0---0-------0---0---|
 B|-1-----0---------|--------1---0---0---|-1---0---0---1---0---0---0-------0---0---|


C#|-----------------------|-----------------|--------------------|-----------------------------------------|
G#|-----------------------|-----------------|--------------------|-----------------------------------------|
 E|-----------------------|-----------------|--------------------|-----------------------------------------|
 B|-----------------8-----|-----------------|--------------------|-----------------------------------------|
F#|-1---0-------0---6-----|-1-----0---------|--------1---0---0---|-1---0---0---1---0---0---0-------0---0---|
 B|-1---0-------0---------|-1-----0---------|--------1---0---0---|-1---0---0---1---0---0---0-------0---0---|


C#|-----------------------|-----------------|--------------------|-----------------------------------------|
G#|-----------------------|-----------------|--------------------|-----------------------------------------|
 E|-----------------------|-----------------|--------------------|-----------------------------------------|
 B|-----------------8-----|-----------------|--------------------|-----------------------------------------|
F#|-1---0-------0---6-----|-1-----0---------|--------1---0---0---|-1---0---0---1---0---0---0-------0---0---|
 B|-1---0-------0---------|-1-----0---------|--------1---0---0---|-1---0---0---1---0---0---0-------0---0---|


C#|-----------------------|-------------|---------------------------|------------------|
G#|-----------------------|-------------|---------------------------|------------------|
 E|-----------------------|--------19---|-19----19---19-20-19-------|-------------19---|
 B|-----------------8-----|-------------|---------------------20-18-|------------------|
F#|-1---0-------0---6-----|-------------|---------------------------|-18----17---------|
 B|-1---0-------0---------|-------------|---------------------------|------------------|


C#|-----------------------------------------------|------------------|---------------------------|
G#|-----------------------------------------------|------------------|---------------------------|
 E|-19--------------------16-18-19-18-16----------|-------------19---|-19----19---19-20-19-------|
 B|--------------16-18-19----------------19-18-16-|------------------|---------------------20-18-|
F#|-----17-18-20----------------------------------|-18----17---------|---------------------------|
 B|-----------------------------------------------|------------------|---------------------------|


C#|------------------|-----------24--------|------------------|---------------------------|
G#|------------------|-------23------23----|------------------|---------------------------|
 E|-------------19---|-19------------------|-------------19---|-19----19---19-20-19-------|
 B|------------------|---------------------|------------------|---------------------20-18-|
F#|-18----17---------|---------------------|-18----17---------|---------------------------|
 B|------------------|---------------------|------------------|---------------------------|


C#|------------------|--------------17-18-20-22-22-22-22-22----------|------------------|
G#|------------------|--------------------------------------20-18-17-|------------------|
 E|-------------19---|-19--------20----------------------------------|-------------19---|
 B|------------------|--------19-------------------------------------|------------------|
F#|-18----17---------|-----17----------------------------------------|-18----17---------|
 B|------------------|-----------------------------------------------|------------------|


C#|------------18-20-20-------|-------------28---|-28--28--28---28--28---28--|--------|
G#|---------------------20-18-|------------------|---------------------------|--------|
 E|-19----19------------------|------------------|---------------------------|--------|
 B|---------------------------|------------------|---------------------------|--------|
F#|---------------------------|-18----17---------|---------------------------|--------|
 B|---------------------------|------------------|---------------------------|--------|


C#|--------|--------|--------|--------|--------|--------|--------|--------|--------|
G#|--------|--------|--------|--------|--------|--------|--------|--------|--------|
 E|--------|--------|--------|--------|--------|--------|--------|--------|--------|
 B|--------|--------|--------|--------|--------|--------|--------|--------|--------|
F#|--------|--------|--------|--------|--------|--------|--------|--------|--------|
 B|--------|--------|--------|--------|--------|--------|--------|--------|--------|


C#|--------|--------|--------|--------|--------|--------|--------|--------|--------|
G#|--------|--------|--------|--------|--------|--------|--------|--------|--------|
 E|--------|--------|--------|--------|--------|--------|--------|--------|--------|
 B|--------|--------|--------|--------|--------|--------|--------|--------|--------|
F#|--------|--------|--------|--------|--------|--------|--------|--------|--------|
 B|--------|--------|--------|--------|--------|--------|--------|--------|--------|


C#|--------|--------|--------|--------|--------|--------|--------|--------|--------|
G#|--------|--------|--------|--------|--------|--------|--------|--------|--------|
 E|--------|--------|--------|--------|--------|--------|--------|--------|--------|
 B|--------|--------|--------|--------|--------|--------|--------|--------|--------|
F#|--------|--------|--------|--------|--------|--------|--------|--------|--------|
 B|--------|--------|--------|--------|--------|--------|--------|--------|--------|


C#|--------|--------|--------|--------|--------|--------|--------|--------|--------|
G#|--------|--------|--------|--------|--------|--------|--------|--------|--------|
 E|--------|--------|--------|--------|--------|--------|--------|--------|--------|
 B|--------|--------|--------|--------|--------|--------|--------|--------|--------|
F#|--------|--------|--------|--------|--------|--------|--------|--------|--------|
 B|--------|--------|--------|--------|--------|--------|--------|--------|--------|


C#|--------|--------|--------|--------|--------|--------|--------|--------|--------|
G#|--------|--------|--------|--------|--------|--------|--------|--------|--------|
 E|--------|--------|--------|--------|--------|--------|--------|--------|--------|
 B|--------|--------|--------|--------|--------|--------|--------|--------|--------|
F#|--------|--------|--------|--------|--------|--------|--------|--------|--------|
 B|--------|--------|--------|--------|--------|--------|--------|--------|--------|


C#|--------|--------|-----------------|--------------------|-----------------------------------------|
G#|--------|--------|-----------------|--------------------|-----------------------------------------|
 E|--------|--------|-----------------|--------------------|-----------------------------------------|
 B|--------|--------|-----------------|--------------------|-----------------------------------------|
F#|--------|--------|-1-----0---------|--------1---0---0---|-1---0---0---1---0---0---0-------0---0---|
 B|--------|--------|-1-----0---------|--------1---0---0---|-1---0---0---1---0---0---0-------0---0---|


C#|-----------------------|-----------------|--------------------|-----------------------------------------|
G#|-----------------------|-----------------|--------------------|-----------------------------------------|
 E|-----------------------|-----------------|--------------------|-----------------------------------------|
 B|-----------------8-----|-----------------|--------------------|-----------------------------------------|
F#|-1---0-------0---6-----|-1-----0---------|--------1---0---0---|-1---0---0---1---0---0---0-------0---0---|
 B|-1---0-------0---------|-1-----0---------|--------1---0---0---|-1---0---0---1---0---0---0-------0---0---|


C#|-----------------------|-----------------|--------------------|-----------------------------------------|
G#|-----------------------|-----------------|--------------------|-----------------------------------------|
 E|-----------------------|-----------------|--------------------|-----------------------------------------|
 B|-----------------8-----|-----------------|--------------------|-----------------------------------------|
F#|-1---0-------0---6-----|-1-----0---------|--------1---0---0---|-1---0---0---1---0---0---0-------0---0---|
 B|-1---0-------0---------|-1-----0---------|--------1---0---0---|-1---0---0---1---0---0---0-------0---0---|


C#|-----------------------|-----------------|--------------------|-----------------------------------------|
G#|-----------------------|-----------------|--------------------|-----------------------------------------|
 E|-----------------------|-----------------|--------------------|-----------------------------------------|
 B|-----------------8-----|-----------------|--------------------|-----------------------------------------|
F#|-1---0-------0---6-----|-1-----0---------|--------1---0---0---|-1---0---0---1---0---0---0-------0---0---|
 B|-1---0-------0---------|-1-----0---------|--------1---0---0---|-1---0---0---1---0---0---0-------0---0---|


C#|-----------------------|--------|--------|--------|--------|
G#|-----------------------|--------|--------|--------|--------|
 E|-----------------------|--------|--------|--------|--------|
 B|-----------------8-----|--------|--------|--------|--------|
F#|-1---0-------0---6-----|--------|--------|--------|--------|
 B|-1---0-------0---------|--------|--------|--------|--------|





Track 3: Wah'd

C#|--------|--------|--------|--------|--------|--------|--------|--------|--------|
G#|--------|--------|--------|--------|--------|--------|--------|--------|--------|
 E|--------|--------|--------|--------|--------|--------|--------|--------|--------|
 B|--------|--------|--------|--------|--------|--------|--------|--------|--------|
F#|--------|--------|--------|--------|--------|--------|--------|--------|--------|
 B|--------|--------|--------|--------|--------|--------|--------|--------|--------|


C#|--------|--------|--------|--------|--------|--------|--------|--------|--------|
G#|--------|--------|--------|--------|--------|--------|--------|--------|--------|
 E|--------|--------|--------|--------|--------|--------|--------|--------|--------|
 B|--------|--------|--------|--------|--------|--------|--------|--------|--------|
F#|--------|--------|--------|--------|--------|--------|--------|--------|--------|
 B|--------|--------|--------|--------|--------|--------|--------|--------|--------|


C#|--------|--------|--------|--------|--------|--------|--------|--------|--------|
G#|--------|--------|--------|--------|--------|--------|--------|--------|--------|
 E|--------|--------|--------|--------|--------|--------|--------|--------|--------|
 B|--------|--------|--------|--------|--------|--------|--------|--------|--------|
F#|--------|--------|--------|--------|--------|--------|--------|--------|--------|
 B|--------|--------|--------|--------|--------|--------|--------|--------|--------|


C#|--------|--------|--------|--------|--------|--------|--------|--------|--------|
G#|--------|--------|--------|--------|--------|--------|--------|--------|--------|
 E|--------|--------|--------|--------|--------|--------|--------|--------|--------|
 B|--------|--------|--------|--------|--------|--------|--------|--------|--------|
F#|--------|--------|--------|--------|--------|--------|--------|--------|--------|
 B|--------|--------|--------|--------|--------|--------|--------|--------|--------|


C#|--------|--------|--------|--------|--------|--------|--------|--------|--------|
G#|--------|--------|--------|--------|--------|--------|--------|--------|--------|
 E|--------|--------|--------|--------|--------|--------|--------|--------|--------|
 B|--------|--------|--------|--------|--------|--------|--------|--------|--------|
F#|--------|--------|--------|--------|--------|--------|--------|--------|--------|
 B|--------|--------|--------|--------|--------|--------|--------|--------|--------|


C#|--------|--------|--------|--------|--------|--------|--------|--------|--------|
G#|--------|--------|--------|--------|--------|--------|--------|--------|--------|
 E|--------|--------|--------|--------|--------|--------|--------|--------|--------|
 B|--------|--------|--------|--------|--------|--------|--------|--------|--------|
F#|--------|--------|--------|--------|--------|--------|--------|--------|--------|
 B|--------|--------|--------|--------|--------|--------|--------|--------|--------|


C#|--------|--------|--------|--------|--------|--------|--------|--------|--------|
G#|--------|--------|--------|--------|--------|--------|--------|--------|--------|
 E|--------|--------|--------|--------|--------|--------|--------|--------|--------|
 B|--------|--------|--------|--------|--------|--------|--------|--------|--------|
F#|--------|--------|--------|--------|--------|--------|--------|--------|--------|
 B|--------|--------|--------|--------|--------|--------|--------|--------|--------|


C#|--------|--------|--------|--------|--------|--------|--------|--------|--------|
G#|--------|--------|--------|--------|--------|--------|--------|--------|--------|
 E|--------|--------|--------|--------|--------|--------|--------|--------|--------|
 B|--------|--------|--------|--------|--------|--------|--------|--------|--------|
F#|--------|--------|--------|--------|--------|--------|--------|--------|--------|
 B|--------|--------|--------|--------|--------|--------|--------|--------|--------|


C#|--------|--------|--------|--------|--------|--------|--------|--------|--------|
G#|--------|--------|--------|--------|--------|--------|--------|--------|--------|
 E|--------|--------|--------|--------|--------|--------|--------|--------|--------|
 B|--------|--------|--------|--------|--------|--------|--------|--------|--------|
F#|--------|--------|--------|--------|--------|--------|--------|--------|--------|
 B|--------|--------|--------|--------|--------|--------|--------|--------|--------|


C#|--------|--------|--------|--------|--------|---------------------------------|
G#|--------|--------|--------|--------|--------|-10--10--10--10--10--10--10--10--|
 E|--------|--------|--------|--------|--------|-7---7---7---7---7---7---7---7---|
 B|--------|--------|--------|--------|--------|---------------------------------|
F#|--------|--------|--------|--------|--------|---------------------------------|
 B|--------|--------|--------|--------|--------|---------------------------------|


C#|---------------------------------|---------------------------------|---------------------------------|
G#|-8---8---8---8---8---8---8---8---|---------------------------------|---------------------------------|
 E|-5---5---5---5---5---5---5---5---|-5---5---5---5---5---5---5---5---|-7---7---7---7---7---7---7---7---|
 B|---------------------------------|-3---3---3---3---3---3---3---3---|-5---5---5---5---5---5---5---5---|
F#|---------------------------------|---------------------------------|---------------------------------|
 B|---------------------------------|---------------------------------|---------------------------------|


C#|--------|--------|--------|--------|--------|--------|--------|--------|--------|
G#|--------|--------|--------|--------|--------|--------|--------|--------|--------|
 E|--------|--------|--------|--------|--------|--------|--------|--------|--------|
 B|--------|--------|--------|--------|--------|--------|--------|--------|--------|
F#|--------|--------|--------|--------|--------|--------|--------|--------|--------|
 B|--------|--------|--------|--------|--------|--------|--------|--------|--------|


C#|--------|--------|--------|--------|--------|--------|--------|--------|--------|
G#|--------|--------|--------|--------|--------|--------|--------|--------|--------|
 E|--------|--------|--------|--------|--------|--------|--------|--------|--------|
 B|--------|--------|--------|--------|--------|--------|--------|--------|--------|
F#|--------|--------|--------|--------|--------|--------|--------|--------|--------|
 B|--------|--------|--------|--------|--------|--------|--------|--------|--------|


C#|--------|--------|--------|--------|--------|--------|--------|--------|--------|
G#|--------|--------|--------|--------|--------|--------|--------|--------|--------|
 E|--------|--------|--------|--------|--------|--------|--------|--------|--------|
 B|--------|--------|--------|--------|--------|--------|--------|--------|--------|
F#|--------|--------|--------|--------|--------|--------|--------|--------|--------|
 B|--------|--------|--------|--------|--------|--------|--------|--------|--------|


C#|--------|--------|--------|--------|--------|--------|--------|--------|--------|
G#|--------|--------|--------|--------|--------|--------|--------|--------|--------|
 E|--------|--------|--------|--------|--------|--------|--------|--------|--------|
 B|--------|--------|--------|--------|--------|--------|--------|--------|--------|
F#|--------|--------|--------|--------|--------|--------|--------|--------|--------|
 B|--------|--------|--------|--------|--------|--------|--------|--------|--------|


C#|--------|--------|--------|--------|--------|--------|--------|--------|--------|
G#|--------|--------|--------|--------|--------|--------|--------|--------|--------|
 E|--------|--------|--------|--------|--------|--------|--------|--------|--------|
 B|--------|--------|--------|--------|--------|--------|--------|--------|--------|
F#|--------|--------|--------|--------|--------|--------|--------|--------|--------|
 B|--------|--------|--------|--------|--------|--------|--------|--------|--------|


C#|--------|--------|--------|--------|--------|--------|--------|--------|--------|
G#|--------|--------|--------|--------|--------|--------|--------|--------|--------|
 E|--------|--------|--------|--------|--------|--------|--------|--------|--------|
 B|--------|--------|--------|--------|--------|--------|--------|--------|--------|
F#|--------|--------|--------|--------|--------|--------|--------|--------|--------|
 B|--------|--------|--------|--------|--------|--------|--------|--------|--------|


C#|--------|--------|--------|--------|--------|--------|--------|--------|--------|
G#|--------|--------|--------|--------|--------|--------|--------|--------|--------|
 E|--------|--------|--------|--------|--------|--------|--------|--------|--------|
 B|--------|--------|--------|--------|--------|--------|--------|--------|--------|
F#|--------|--------|--------|--------|--------|--------|--------|--------|--------|
 B|--------|--------|--------|--------|--------|--------|--------|--------|--------|


C#|--------|--------|--------|--------|--------|--------|--------|--------|--------|
G#|--------|--------|--------|--------|--------|--------|--------|--------|--------|
 E|--------|--------|--------|--------|--------|--------|--------|--------|--------|
 B|--------|--------|--------|--------|--------|--------|--------|--------|--------|
F#|--------|--------|--------|--------|--------|--------|--------|--------|--------|
 B|--------|--------|--------|--------|--------|--------|--------|--------|--------|


C#|---------------------------------|---------------------------------|---------------------------------|
G#|-10--10--10--10--10--10--10--10--|-8---8---8---8---8---8---8---8---|---------------------------------|
 E|-7---7---7---7---7---7---7---7---|-5---5---5---5---5---5---5---5---|-5---5---5---5---5---5---5---5---|
 B|---------------------------------|---------------------------------|-3---3---3---3---3---3---3---3---|
F#|---------------------------------|---------------------------------|---------------------------------|
 B|---------------------------------|---------------------------------|---------------------------------|


C#|---------------------------------|---------------------------------|---------------------------------|
G#|---------------------------------|-10--10--10--10--10--10--10--10--|-8---8---8---8---8---8---8---8---|
 E|-7---7---7---7---7---7---7---7---|-7---7---7---7---7---7---7---7---|-5---5---5---5---5---5---5---5---|
 B|-5---5---5---5---5---5---5---5---|---------------------------------|---------------------------------|
F#|---------------------------------|---------------------------------|---------------------------------|
 B|---------------------------------|---------------------------------|---------------------------------|


C#|---------------------------------|---------------------23----|--------|--------|
G#|---------------------------------|---------------------23----|--------|--------|
 E|-5---5---5---5---5---5---5---5---|-7---7---7---7---7---------|--------|--------|
 B|-3---3---3---3---3---3---3---3---|-5---5---5---5---5---------|--------|--------|
F#|---------------------------------|---------------------------|--------|--------|
 B|---------------------------------|---------------------------|--------|--------|


C#|--------|--------|--------|--------|--------|--------|--------|--------|--------|
G#|--------|--------|--------|--------|--------|--------|--------|--------|--------|
 E|--------|--------|--------|--------|--------|--------|--------|--------|--------|
 B|--------|--------|--------|--------|--------|--------|--------|--------|--------|
F#|--------|--------|--------|--------|--------|--------|--------|--------|--------|
 B|--------|--------|--------|--------|--------|--------|--------|--------|--------|


C#|--------|--------|--------|--------|--------|--------|--------|--------|--------|
G#|--------|--------|--------|--------|--------|--------|--------|--------|--------|
 E|--------|--------|--------|--------|--------|--------|--------|--------|--------|
 B|--------|--------|--------|--------|--------|--------|--------|--------|--------|
F#|--------|--------|--------|--------|--------|--------|--------|--------|--------|
 B|--------|--------|--------|--------|--------|--------|--------|--------|--------|


C#|--------|--------|--------|--------|--------|--------|--------|--------|--------|
G#|--------|--------|--------|--------|--------|--------|--------|--------|--------|
 E|--------|--------|--------|--------|--------|--------|--------|--------|--------|
 B|--------|--------|--------|--------|--------|--------|--------|--------|--------|
F#|--------|--------|--------|--------|--------|--------|--------|--------|--------|
 B|--------|--------|--------|--------|--------|--------|--------|--------|--------|


C#|--------|--------|--------|--------|--------|--------|--------|--------|--------|
G#|--------|--------|--------|--------|--------|--------|--------|--------|--------|
 E|--------|--------|--------|--------|--------|--------|--------|--------|--------|
 B|--------|--------|--------|--------|--------|--------|--------|--------|--------|
F#|--------|--------|--------|--------|--------|--------|--------|--------|--------|
 B|--------|--------|--------|--------|--------|--------|--------|--------|--------|


C#|--------|--------|--------|--------|--------|--------|--------|--------|--------|
G#|--------|--------|--------|--------|--------|--------|--------|--------|--------|
 E|--------|--------|--------|--------|--------|--------|--------|--------|--------|
 B|--------|--------|--------|--------|--------|--------|--------|--------|--------|
F#|--------|--------|--------|--------|--------|--------|--------|--------|--------|
 B|--------|--------|--------|--------|--------|--------|--------|--------|--------|


C#|--------|--------|--------|--------|--------|
G#|--------|--------|--------|--------|--------|
 E|--------|--------|--------|--------|--------|
 B|--------|--------|--------|--------|--------|
F#|--------|--------|--------|--------|--------|
 B|--------|--------|--------|--------|--------|





Track 4: Chris and Shawn

E|--------|--------|--------|--------|--------|--------|--------|--------|--------|
B|--------|--------|--------|--------|--------|--------|--------|--------|--------|
G|--------|--------|--------|--------|--------|--------|--------|--------|--------|
D|--------|--------|--------|--------|--------|--------|--------|--------|--------|
A|--------|--------|--------|--------|--------|--------|--------|--------|--------|
E|--------|--------|--------|--------|--------|--------|--------|--------|--------|


E|--------|--------|--------|--------|--------|--------|--------|--------|--------|
B|--------|--------|--------|--------|--------|--------|--------|--------|--------|
G|--------|--------|--------|--------|--------|--------|--------|--------|--------|
D|--------|--------|--------|--------|--------|--------|--------|--------|--------|
A|--------|--------|--------|--------|--------|--------|--------|--------|--------|
E|--------|--------|--------|--------|--------|--------|--------|--------|--------|


E|--------|--------|--------|--------|--------|--------|--------|--------|--------|
B|--------|--------|--------|--------|--------|--------|--------|--------|--------|
G|--------|--------|--------|--------|--------|--------|--------|--------|--------|
D|--------|--------|--------|--------|--------|--------|--------|--------|--------|
A|--------|--------|--------|--------|--------|--------|--------|--------|--------|
E|--------|--------|--------|--------|--------|--------|--------|--------|--------|


E|--------|--------|--------|--------|--------|--------|--------|--------|--------|
B|--------|--------|--------|--------|--------|--------|--------|--------|--------|
G|--------|--------|--------|--------|--------|--------|--------|--------|--------|
D|--------|--------|--------|--------|--------|--------|--------|--------|--------|
A|--------|--------|--------|--------|--------|--------|--------|--------|--------|
E|--------|--------|--------|--------|--------|--------|--------|--------|--------|


E|--------|--------|--------|--------|--------|--------|--------|--------|--------|
B|--------|--------|--------|--------|--------|--------|--------|--------|--------|
G|--------|--------|--------|--------|--------|--------|--------|--------|--------|
D|--------|--------|--------|--------|--------|--------|--------|--------|--------|
A|--------|--------|--------|--------|--------|--------|--------|--------|--------|
E|--------|--------|--------|--------|--------|--------|--------|--------|--------|


E|--------|--------|--------|--------|--------|--------|--------|--------|--------|
B|--------|--------|--------|--------|--------|--------|--------|--------|--------|
G|--------|--------|--------|--------|--------|--------|--------|--------|--------|
D|--------|--------|--------|--------|--------|--------|--------|--------|--------|
A|--------|--------|--------|--------|--------|--------|--------|--------|--------|
E|--------|--------|--------|--------|--------|--------|--------|--------|--------|


E|--------|--------|--------|--------|--------|--------|--------|--------|--------|
B|--------|--------|--------|--------|--------|--------|--------|--------|--------|
G|--------|--------|--------|--------|--------|--------|--------|--------|--------|
D|--------|--------|--------|--------|--------|--------|--------|--------|--------|
A|--------|--------|--------|--------|--------|--------|--------|--------|--------|
E|--------|--------|--------|--------|--------|--------|--------|--------|--------|


E|--------|--------|--------|--------|--------|--------|--------|--------|--------|
B|--------|--------|--------|--------|--------|--------|--------|--------|--------|
G|--------|--------|--------|--------|--------|--------|--------|--------|--------|
D|--------|--------|--------|--------|--------|--------|--------|--------|--------|
A|--------|--------|--------|--------|--------|--------|--------|--------|--------|
E|--------|--------|--------|--------|--------|--------|--------|--------|--------|


E|--------|--------|--------|--------|--------|--------|--------|--------|--------|
B|--------|--------|--------|--------|--------|--------|--------|--------|--------|
G|--------|--------|--------|--------|--------|--------|--------|--------|--------|
D|--------|--------|--------|--------|--------|--------|--------|--------|--------|
A|--------|--------|--------|--------|--------|--------|--------|--------|--------|
E|--------|--------|--------|--------|--------|--------|--------|--------|--------|


E|--------|--------|--------|--------|--------|--------|--------|--------|--------|
B|--------|--------|--------|--------|--------|--------|--------|--------|--------|
G|--------|--------|--------|--------|--------|--------|--------|--------|--------|
D|--------|--------|--------|--------|--------|--------|--------|--------|--------|
A|--------|--------|--------|--------|--------|--------|--------|--------|--------|
E|--------|--------|--------|--------|--------|--------|--------|--------|--------|


E|--------|--------|--------|--------|--------|--------|--------|--------|--------|
B|--------|--------|--------|--------|--------|--------|--------|--------|--------|
G|--------|--------|--------|--------|--------|--------|--------|--------|--------|
D|--------|--------|--------|--------|--------|--------|--------|--------|--------|
A|--------|--------|--------|--------|--------|--------|--------|--------|--------|
E|--------|--------|--------|--------|--------|--------|--------|--------|--------|


E|--------|--------|--------|--------|--------|--------|--------|-0-----0----0---0---0---|
B|--------|--------|--------|--------|--------|--------|--------|-0-----0----0---0---0---|
G|--------|--------|--------|--------|--------|--------|--------|-0-----0----0---0---0---|
D|--------|--------|--------|--------|--------|--------|--------|-0-----0----0---0---0---|
A|--------|--------|--------|--------|--------|--------|--------|-0-----0----0---0---0---|
E|--------|--------|--------|--------|--------|--------|--------|-0-----0----0---0---0---|


E|-0---0---0---0---0---0---0---------|-0----0----0---------|-0---0---0---0---0---0---0---0---0---0---|
B|-0---0---0---0---0---0---0---------|-0----0----0---------|-0---0---0---0---0---0---0---0---0---0---|
G|-0---0---0---0---0---0---0---------|-0----0----0---------|-0---0---0---0---0---0---0---0---0---0---|
D|-0---0---0---0---0---0---0---------|-0----0----0---------|-0---0---0---0---0---0---0---0---0---0---|
A|-0---0---0---0---0---0---0---------|-0----0----0---------|-0---0---0---0---0---0---0---0---0---0---|
E|-0---0---0---0---0---0---0---------|-0----0----0---------|-0---0---0---0---0---0---0---0---0---0---|


E|-0-----0----0---0---0---|-0---0---0---0---0---0---0---------|-0----0----0---------|
B|-0-----0----0---0---0---|-0---0---0---0---0---0---0---------|-0----0----0---------|
G|-0-----0----0---0---0---|-0---0---0---0---0---0---0---------|-0----0----0---------|
D|-0-----0----0---0---0---|-0---0---0---0---0---0---0---------|-0----0----0---------|
A|-0-----0----0---0---0---|-0---0---0---0---0---0---0---------|-0----0----0---------|
E|-0-----0----0---0---0---|-0---0---0---0---0---0---0---------|-0----0----0---------|


E|-0---0---0---0---0---0---0---0---0---0---|-0-----0----0---0---0---|-0---0---0---0---0---0---0---------|
B|-0---0---0---0---0---0---0---0---0---0---|-0-----0----0---0---0---|-0---0---0---0---0---0---0---------|
G|-0---0---0---0---0---0---0---0---0---0---|-0-----0----0---0---0---|-0---0---0---0---0---0---0---------|
D|-0---0---0---0---0---0---0---0---0---0---|-0-----0----0---0---0---|-0---0---0---0---0---0---0---------|
A|-0---0---0---0---0---0---0---0---0---0---|-0-----0----0---0---0---|-0---0---0---0---0---0---0---------|
E|-0---0---0---0---0---0---0---0---0---0---|-0-----0----0---0---0---|-0---0---0---0---0---0---0---------|


E|-0----0----0---------|-0---0---0---0---0---0---0---0---0---0---|-0-----0----0---0---0---|
B|-0----0----0---------|-0---0---0---0---0---0---0---0---0---0---|-0-----0----0---0---0---|
G|-0----0----0---------|-0---0---0---0---0---0---0---0---0---0---|-0-----0----0---0---0---|
D|-0----0----0---------|-0---0---0---0---0---0---0---0---0---0---|-0-----0----0---0---0---|
A|-0----0----0---------|-0---0---0---0---0---0---0---0---0---0---|-0-----0----0---0---0---|
E|-0----0----0---------|-0---0---0---0---0---0---0---0---0---0---|-0-----0----0---0---0---|


E|-0---0---0---0---0---0---0---------|-0----0----0---------|-0---0---0---0---0---0---0---0---0---0---|
B|-0---0---0---0---0---0---0---------|-0----0----0---------|-0---0---0---0---0---0---0---0---0---0---|
G|-0---0---0---0---0---0---0---------|-0----0----0---------|-0---0---0---0---0---0---0---0---0---0---|
D|-0---0---0---0---0---0---0---------|-0----0----0---------|-0---0---0---0---0---0---0---0---0---0---|
A|-0---0---0---0---0---0---0---------|-0----0----0---------|-0---0---0---0---0---0---0---0---0---0---|
E|-0---0---0---0---0---0---0---------|-0----0----0---------|-0---0---0---0---0---0---0---0---0---0---|


E|-0-----0----0---0---0---|-0---0---0---0---0---0---0---------|-0----0----0---------|
B|-0-----0----0---0---0---|-0---0---0---0---0---0---0---------|-0----0----0---------|
G|-0-----0----0---0---0---|-0---0---0---0---0---0---0---------|-0----0----0---------|
D|-0-----0----0---0---0---|-0---0---0---0---0---0---0---------|-0----0----0---------|
A|-0-----0----0---0---0---|-0---0---0---0---0---0---0---------|-0----0----0---------|
E|-0-----0----0---0---0---|-0---0---0---0---0---0---0---------|-0----0----0---------|


E|-0---0---0---0---0---0---0---0---0---0---|-0-----0----0---0---0---|-0---0---0---0---0---0---0---------|
B|-0---0---0---0---0---0---0---0---0---0---|-0-----0----0---0---0---|-0---0---0---0---0---0---0---------|
G|-0---0---0---0---0---0---0---0---0---0---|-0-----0----0---0---0---|-0---0---0---0---0---0---0---------|
D|-0---0---0---0---0---0---0---0---0---0---|-0-----0----0---0---0---|-0---0---0---0---0---0---0---------|
A|-0---0---0---0---0---0---0---0---0---0---|-0-----0----0---0---0---|-0---0---0---0---0---0---0---------|
E|-0---0---0---0---0---0---0---0---0---0---|-0-----0----0---0---0---|-0---0---0---0---0---0---0---------|


E|-0----0----0---------|-0---0---0---0---0---0---0---0---0---0---|-0-----0----0---0---0---|
B|-0----0----0---------|-0---0---0---0---0---0---0---0---0---0---|-0-----0----0---0---0---|
G|-0----0----0---------|-0---0---0---0---0---0---0---0---0---0---|-0-----0----0---0---0---|
D|-0----0----0---------|-0---0---0---0---0---0---0---0---0---0---|-0-----0----0---0---0---|
A|-0----0----0---------|-0---0---0---0---0---0---0---0---0---0---|-0-----0----0---0---0---|
E|-0----0----0---------|-0---0---0---0---0---0---0---0---0---0---|-0-----0----0---0---0---|


E|-0---0---0---0---0---0---0---------|-0----0----0---------|-0---0---0---0---0---0---0---0---0---0---|
B|-0---0---0---0---0---0---0---------|-0----0----0---------|-0---0---0---0---0---0---0---0---0---0---|
G|-0---0---0---0---0---0---0---------|-0----0----0---------|-0---0---0---0---0---0---0---0---0---0---|
D|-0---0---0---0---0---0---0---------|-0----0----0---------|-0---0---0---0---0---0---0---0---0---0---|
A|-0---0---0---0---0---0---0---------|-0----0----0---------|-0---0---0---0---0---0---0---0---0---0---|
E|-0---0---0---0---0---0---0---------|-0----0----0---------|-0---0---0---0---0---0---0---0---0---0---|


E|-0-----0----0---0---0---|-0---0---0---0---0---0---0---------|-0----0----0---------|
B|-0-----0----0---0---0---|-0---0---0---0---0---0---0---------|-0----0----0---------|
G|-0-----0----0---0---0---|-0---0---0---0---0---0---0---------|-0----0----0---------|
D|-0-----0----0---0---0---|-0---0---0---0---0---0---0---------|-0----0----0---------|
A|-0-----0----0---0---0---|-0---0---0---0---0---0---0---------|-0----0----0---------|
E|-0-----0----0---0---0---|-0---0---0---0---0---0---0---------|-0----0----0---------|


E|-0---0---0---0---0---0---0---0---0---0---|--------|--------|-0----0----0---------|
B|-0---0---0---0---0---0---0---0---0---0---|--------|--------|-0----0----0---------|
G|-0---0---0---0---0---0---0---0---0---0---|--------|--------|-0----0----0---------|
D|-0---0---0---0---0---0---0---0---0---0---|--------|--------|-0----0----0---------|
A|-0---0---0---0---0---0---0---0---0---0---|--------|--------|-0----0----0---------|
E|-0---0---0---0---0---0---0---0---0---0---|--------|--------|-0----0----0---------|


E|-0---0---0---0---0---0---0---0---0---0---|-0-----0----0---0---0---|-0---0---0---0---0---0---0---------|
B|-0---0---0---0---0---0---0---0---0---0---|-0-----0----0---0---0---|-0---0---0---0---0---0---0---------|
G|-0---0---0---0---0---0---0---0---0---0---|-0-----0----0---0---0---|-0---0---0---0---0---0---0---------|
D|-0---0---0---0---0---0---0---0---0---0---|-0-----0----0---0---0---|-0---0---0---0---0---0---0---------|
A|-0---0---0---0---0---0---0---0---0---0---|-0-----0----0---0---0---|-0---0---0---0---0---0---0---------|
E|-0---0---0---0---0---0---0---0---0---0---|-0-----0----0---0---0---|-0---0---0---0---0---0---0---------|


E|-0----0----0---------|-0---0---0---0---0---0---0---0---0---0---|-0-----0----0---0---0---|
B|-0----0----0---------|-0---0---0---0---0---0---0---0---0---0---|-0-----0----0---0---0---|
G|-0----0----0---------|-0---0---0---0---0---0---0---0---0---0---|-0-----0----0---0---0---|
D|-0----0----0---------|-0---0---0---0---0---0---0---0---0---0---|-0-----0----0---0---0---|
A|-0----0----0---------|-0---0---0---0---0---0---0---0---0---0---|-0-----0----0---0---0---|
E|-0----0----0---------|-0---0---0---0---0---0---0---0---0---0---|-0-----0----0---0---0---|


E|-0---0---0---0---0---0---0---------|-0----0----0---------|-0---0---0---0---0---0---0---0---0---0---|
B|-0---0---0---0---0---0---0---------|-0----0----0---------|-0---0---0---0---0---0---0---0---0---0---|
G|-0---0---0---0---0---0---0---------|-0----0----0---------|-0---0---0---0---0---0---0---0---0---0---|
D|-0---0---0---0---0---0---0---------|-0----0----0---------|-0---0---0---0---0---0---0---0---0---0---|
A|-0---0---0---0---0---0---0---------|-0----0----0---------|-0---0---0---0---0---0---0---0---0---0---|
E|-0---0---0---0---0---0---0---------|-0----0----0---------|-0---0---0---0---0---0---0---0---0---0---|


E|-0-----0----0---0---0---|-0---0---0---0---0---0---0---------|-0----0----0---------|
B|-0-----0----0---0---0---|-0---0---0---0---0---0---0---------|-0----0----0---------|
G|-0-----0----0---0---0---|-0---0---0---0---0---0---0---------|-0----0----0---------|
D|-0-----0----0---0---0---|-0---0---0---0---0---0---0---------|-0----0----0---------|
A|-0-----0----0---0---0---|-0---0---0---0---0---0---0---------|-0----0----0---------|
E|-0-----0----0---0---0---|-0---0---0---0---0---0---0---------|-0----0----0---------|


E|-0---0---0---0---0---0---0---0---0---0---|--------|--------|--------|--------|--------|
B|-0---0---0---0---0---0---0---0---0---0---|--------|--------|--------|--------|--------|
G|-0---0---0---0---0---0---0---0---0---0---|--------|--------|--------|--------|--------|
D|-0---0---0---0---0---0---0---0---0---0---|--------|--------|--------|--------|--------|
A|-0---0---0---0---0---0---0---0---0---0---|--------|--------|--------|--------|--------|
E|-0---0---0---0---0---0---0---0---0---0---|--------|--------|--------|--------|--------|


E|--------|--------|--------|--------|--------|--------|--------|--------|--------|
B|--------|--------|--------|--------|--------|--------|--------|--------|--------|
G|--------|--------|--------|--------|--------|--------|--------|--------|--------|
D|--------|--------|--------|--------|--------|--------|--------|--------|--------|
A|--------|--------|--------|--------|--------|--------|--------|--------|--------|
E|--------|--------|--------|--------|--------|--------|--------|--------|--------|


E|--------|--------|--------|--------|--------|--------|--------|--------|--------|
B|--------|--------|--------|--------|--------|--------|--------|--------|--------|
G|--------|--------|--------|--------|--------|--------|--------|--------|--------|
D|--------|--------|--------|--------|--------|--------|--------|--------|--------|
A|--------|--------|--------|--------|--------|--------|--------|--------|--------|
E|--------|--------|--------|--------|--------|--------|--------|--------|--------|


E|--------|--------|--------|--------|--------|--------|--------|--------|--------|
B|--------|--------|--------|--------|--------|--------|--------|--------|--------|
G|--------|--------|--------|--------|--------|--------|--------|--------|--------|
D|--------|--------|--------|--------|--------|--------|--------|--------|--------|
A|--------|--------|--------|--------|--------|--------|--------|--------|--------|
E|--------|--------|--------|--------|--------|--------|--------|--------|--------|


E|--------|--------|--------|--------|--------|--------|--------|--------|--------|
B|--------|--------|--------|--------|--------|--------|--------|--------|--------|
G|--------|--------|--------|--------|--------|--------|--------|--------|--------|
D|--------|--------|--------|--------|--------|--------|--------|--------|--------|
A|--------|--------|--------|--------|--------|--------|--------|--------|--------|
E|--------|--------|--------|--------|--------|--------|--------|--------|--------|


E|--------|--------|--------|--------|--------|--------|--------|-0-----0----0---0---0---|
B|--------|--------|--------|--------|--------|--------|--------|-0-----0----0---0---0---|
G|--------|--------|--------|--------|--------|--------|--------|-0-----0----0---0---0---|
D|--------|--------|--------|--------|--------|--------|--------|-0-----0----0---0---0---|
A|--------|--------|--------|--------|--------|--------|--------|-0-----0----0---0---0---|
E|--------|--------|--------|--------|--------|--------|--------|-0-----0----0---0---0---|


E|-0---0---0---0---0---0---0---------|-0----0----0---------|-0---0---0---0---0---0---0---0---0---0---|
B|-0---0---0---0---0---0---0---------|-0----0----0---------|-0---0---0---0---0---0---0---0---0---0---|
G|-0---0---0---0---0---0---0---------|-0----0----0---------|-0---0---0---0---0---0---0---0---0---0---|
D|-0---0---0---0---0---0---0---------|-0----0----0---------|-0---0---0---0---0---0---0---0---0---0---|
A|-0---0---0---0---0---0---0---------|-0----0----0---------|-0---0---0---0---0---0---0---0---0---0---|
E|-0---0---0---0---0---0---0---------|-0----0----0---------|-0---0---0---0---0---0---0---0---0---0---|


E|-0-----0----0---0---0---|-0---0---0---0---0---0---0---------|-0----0----0---------|
B|-0-----0----0---0---0---|-0---0---0---0---0---0---0---------|-0----0----0---------|
G|-0-----0----0---0---0---|-0---0---0---0---0---0---0---------|-0----0----0---------|
D|-0-----0----0---0---0---|-0---0---0---0---0---0---0---------|-0----0----0---------|
A|-0-----0----0---0---0---|-0---0---0---0---0---0---0---------|-0----0----0---------|
E|-0-----0----0---0---0---|-0---0---0---0---0---0---0---------|-0----0----0---------|


E|-0---0---0---0---0---0---0---0---0---0---|-0-----0----0---0---0---|-0---0---0---0---0---0---0---------|
B|-0---0---0---0---0---0---0---0---0---0---|-0-----0----0---0---0---|-0---0---0---0---0---0---0---------|
G|-0---0---0---0---0---0---0---0---0---0---|-0-----0----0---0---0---|-0---0---0---0---0---0---0---------|
D|-0---0---0---0---0---0---0---0---0---0---|-0-----0----0---0---0---|-0---0---0---0---0---0---0---------|
A|-0---0---0---0---0---0---0---0---0---0---|-0-----0----0---0---0---|-0---0---0---0---0---0---0---------|
E|-0---0---0---0---0---0---0---0---0---0---|-0-----0----0---0---0---|-0---0---0---0---0---0---0---------|


E|-0----0----0---------|-0---0---0---0---0---0---0---0---0---0---|-0-----0----0---0---0---|
B|-0----0----0---------|-0---0---0---0---0---0---0---0---0---0---|-0-----0----0---0---0---|
G|-0----0----0---------|-0---0---0---0---0---0---0---0---0---0---|-0-----0----0---0---0---|
D|-0----0----0---------|-0---0---0---0---0---0---0---0---0---0---|-0-----0----0---0---0---|
A|-0----0----0---------|-0---0---0---0---0---0---0---0---0---0---|-0-----0----0---0---0---|
E|-0----0----0---------|-0---0---0---0---0---0---0---0---0---0---|-0-----0----0---0---0---|


E|-0---0---0---0---0---0---0---------|-0----0----0---------|-0---0---0---0---0---0---0---0---0---0---|
B|-0---0---0---0---0---0---0---------|-0----0----0---------|-0---0---0---0---0---0---0---0---0---0---|
G|-0---0---0---0---0---0---0---------|-0----0----0---------|-0---0---0---0---0---0---0---0---0---0---|
D|-0---0---0---0---0---0---0---------|-0----0----0---------|-0---0---0---0---0---0---0---0---0---0---|
A|-0---0---0---0---0---0---0---------|-0----0----0---------|-0---0---0---0---0---0---0---0---0---0---|
E|-0---0---0---0---0---0---0---------|-0----0----0---------|-0---0---0---0---0---0---0---0---0---0---|


E|-0-----0----0---0---0---|-0---0---0---0---0---0---0---------|-0----0----0---------|
B|-0-----0----0---0---0---|-0---0---0---0---0---0---0---------|-0----0----0---------|
G|-0-----0----0---0---0---|-0---0---0---0---0---0---0---------|-0----0----0---------|
D|-0-----0----0---0---0---|-0---0---0---0---0---0---0---------|-0----0----0---------|
A|-0-----0----0---0---0---|-0---0---0---0---0---0---0---------|-0----0----0---------|
E|-0-----0----0---0---0---|-0---0---0---0---0---0---0---------|-0----0----0---------|


E|-0---0---0---0---0---0---0---0---0---0---|
B|-0---0---0---0---0---0---0---0---0---0---|
G|-0---0---0---0---0---0---0---0---0---0---|
D|-0---0---0---0---0---0---0---0---0---0---|
A|-0---0---0---0---0---0---0---0---0---0---|
E|-0---0---0---0---0---0---0---0---0---0---|





Track 5: Joey

E|--------|--------|--------|--------|--------|--------|--------|--------|--------|
B|--------|--------|--------|--------|--------|--------|--------|--------|--------|
G|--------|--------|--------|--------|--------|--------|--------|--------|--------|
D|--------|--------|--------|--------|--------|--------|--------|--------|--------|
A|--------|--------|--------|--------|--------|--------|--------|--------|--------|
E|--------|--------|--------|--------|--------|--------|--------|--------|--------|


E|--------|--------|--------|--------|--------|--------|--------|--------|--------|
B|--------|--------|--------|--------|--------|--------|--------|--------|--------|
G|--------|--------|--------|--------|--------|--------|--------|--------|--------|
D|--------|--------|--------|--------|--------|--------|--------|--------|--------|
A|--------|--------|--------|--------|--------|--------|--------|--------|--------|
E|--------|--------|--------|--------|--------|--------|--------|--------|--------|


E|--------|--------|--------|--------|--------|--------|--------|--------|--------|
B|--------|--------|--------|--------|--------|--------|--------|--------|--------|
G|--------|--------|--------|--------|--------|--------|--------|--------|--------|
D|--------|--------|--------|--------|--------|--------|--------|--------|--------|
A|--------|--------|--------|--------|--------|--------|--------|--------|--------|
E|--------|--------|--------|--------|--------|--------|--------|--------|--------|


E|--------|--------|--------|--------|--------|--------|--------|--------|--------|
B|--------|--------|--------|--------|--------|--------|--------|--------|--------|
G|--------|--------|--------|--------|--------|--------|--------|--------|--------|
D|--------|--------|--------|--------|--------|--------|--------|--------|--------|
A|--------|--------|--------|--------|--------|--------|--------|--------|--------|
E|--------|--------|--------|--------|--------|--------|--------|--------|--------|


E|--------|--------|--------|--------|--------|--------|--------|--------|--------|
B|--------|--------|--------|--------|--------|--------|--------|--------|--------|
G|--------|--------|--------|--------|--------|--------|--------|--------|--------|
D|--------|--------|--------|--------|--------|--------|--------|--------|--------|
A|--------|--------|--------|--------|--------|--------|--------|--------|--------|
E|--------|--------|--------|--------|--------|--------|--------|--------|--------|


E|--------|--------|--------|--------|--------|--------|--------|--------|--------|
B|--------|--------|--------|--------|--------|--------|--------|--------|--------|
G|--------|--------|--------|--------|--------|--------|--------|--------|--------|
D|--------|--------|--------|--------|--------|--------|--------|--------|--------|
A|--------|--------|--------|--------|--------|--------|--------|--------|--------|
E|--------|--------|--------|--------|--------|--------|--------|--------|--------|


E|--------|--------|--------|--------|--------|--------|--------|--------|--------|
B|--------|--------|--------|--------|--------|--------|--------|--------|--------|
G|--------|--------|--------|--------|--------|--------|--------|--------|--------|
D|--------|--------|--------|--------|--------|--------|--------|--------|--------|
A|--------|--------|--------|--------|--------|--------|--------|--------|--------|
E|--------|--------|--------|--------|--------|--------|--------|--------|--------|


E|--------|--------|--------|--------|--------|--------|--------|--------|--------|
B|--------|--------|--------|--------|--------|--------|--------|--------|--------|
G|--------|--------|--------|--------|--------|--------|--------|--------|--------|
D|--------|--------|--------|--------|--------|--------|--------|--------|--------|
A|--------|--------|--------|--------|--------|--------|--------|--------|--------|
E|--------|--------|--------|--------|--------|--------|--------|--------|--------|


E|--------|--------|--------|--------|--------|--------|--------|--------|--------|
B|--------|--------|--------|--------|--------|--------|--------|--------|--------|
G|--------|--------|--------|--------|--------|--------|--------|--------|--------|
D|--------|--------|--------|--------|--------|--------|--------|--------|--------|
A|--------|--------|--------|--------|--------|--------|--------|--------|--------|
E|--------|--------|--------|--------|--------|--------|--------|--------|--------|


E|--------|--------|--------|--------|--------|--------|--------|--------|--------|
B|--------|--------|--------|--------|--------|--------|--------|--------|--------|
G|--------|--------|--------|--------|--------|--------|--------|--------|--------|
D|--------|--------|--------|--------|--------|--------|--------|--------|--------|
A|--------|--------|--------|--------|--------|--------|--------|--------|--------|
E|--------|--------|--------|--------|--------|--------|--------|--------|--------|


E|--------|--------|--------|--------|--------|--------|--------|--------|--------|
B|--------|--------|--------|--------|--------|--------|--------|--------|--------|
G|--------|--------|--------|--------|--------|--------|--------|--------|--------|
D|--------|--------|--------|--------|--------|--------|--------|--------|--------|
A|--------|--------|--------|--------|--------|--------|--------|--------|--------|
E|--------|--------|--------|--------|--------|--------|--------|--------|--------|


E|--------|--------|--------|--------|--------|--------|--------|--------|--------20---|
B|--------|--------|--------|--------|--------|--------|--------|--------|-------------|
G|--------|--------|--------|--------|--------|--------|--------|--------|-------------|
D|--------|--------|--------|--------|--------|--------|--------|--------|-------------|
A|--------|--------|--------|--------|--------|--------|--------|--------|-------------|
E|--------|--------|--------|--------|--------|--------|--------|--------|-------------|


E|--------|--------|--------|--------20---|--------|--------|--------|--------20---|
B|--------|--------|--------|-------------|--------|--------|--------|-------------|
G|--------|--------|--------|-------------|--------|--------|--------|-------------|
D|--------|--------|--------|-------------|--------|--------|--------|-------------|
A|--------|--------|--------|-------------|--------|--------|--------|-------------|
E|--------|--------|--------|-------------|--------|--------|--------|-------------|


E|--------|--------|--------|--------20---|--------|--------|--------|--------20---|
B|--------|--------|--------|-------------|--------|--------|--------|-------------|
G|--------|--------|--------|-------------|--------|--------|--------|-------------|
D|--------|--------|--------|-------------|--------|--------|--------|-------------|
A|--------|--------|--------|-------------|--------|--------|--------|-------------|
E|--------|--------|--------|-------------|--------|--------|--------|-------------|


E|--------|--------|--------|--------20---|--------|--------|--------|--------20---|
B|--------|--------|--------|-------------|--------|--------|--------|-------------|
G|--------|--------|--------|-------------|--------|--------|--------|-------------|
D|--------|--------|--------|-------------|--------|--------|--------|-------------|
A|--------|--------|--------|-------------|--------|--------|--------|-------------|
E|--------|--------|--------|-------------|--------|--------|--------|-------------|


E|--------|--------|--------|--------20---|--------|--------|--------|--------20---|
B|--------|--------|--------|-------------|--------|--------|--------|-------------|
G|--------|--------|--------|-------------|--------|--------|--------|-------------|
D|--------|--------|--------|-------------|--------|--------|--------|-------------|
A|--------|--------|--------|-------------|--------|--------|--------|-------------|
E|--------|--------|--------|-------------|--------|--------|--------|-------------|


E|--------|--------|--------|--------20---|--------|--------|--------|--------20---|
B|--------|--------|--------|-------------|--------|--------|--------|-------------|
G|--------|--------|--------|-------------|--------|--------|--------|-------------|
D|--------|--------|--------|-------------|--------|--------|--------|-------------|
A|--------|--------|--------|-------------|--------|--------|--------|-------------|
E|--------|--------|--------|-------------|--------|--------|--------|-------------|


E|--------|--------|--------|--------20---|--------|--------|--------|--------|--------|
B|--------|--------|--------|-------------|--------|--------|--------|--------|--------|
G|--------|--------|--------|-------------|--------|--------|--------|--------|--------|
D|--------|--------|--------|-------------|--------|--------|--------|--------|--------|
A|--------|--------|--------|-------------|--------|--------|--------|--------|--------|
E|--------|--------|--------|-------------|--------|--------|--------|--------|--------|


E|--------|--------|--------|--------|--------|--------|--------|--------|--------|
B|--------|--------|--------|--------|--------|--------|--------|--------|--------|
G|--------|--------|--------|--------|--------|--------|--------|--------|--------|
D|--------|--------|--------|--------|--------|--------|--------|--------|--------|
A|--------|--------|--------|--------|--------|--------|--------|--------|--------|
E|--------|--------|--------|--------|--------|--------|--------|--------|--------|


E|--------|--------|--------|--------|--------|--------|--------|--------|--------|
B|--------|--------|--------|--------|--------|--------|--------|--------|--------|
G|--------|--------|--------|--------|--------|--------|--------|--------|--------|
D|--------|--------|--------|--------|--------|--------|--------|--------|--------|
A|--------|--------|--------|--------|--------|--------|--------|--------|--------|
E|--------|--------|--------|--------|--------|--------|--------|--------|--------|


E|--------|--------|--------|--------|--------|--------|--------|--------|--------|
B|--------|--------|--------|--------|--------|--------|--------|--------|--------|
G|--------|--------|--------|--------|--------|--------|--------|--------|--------|
D|--------|--------|--------|--------|--------|--------|--------|--------|--------|
A|--------|--------|--------|--------|--------|--------|--------|--------|--------|
E|--------|--------|--------|--------|--------|--------|--------|--------|--------|


E|--------|--------|--------|--------|--------|--------|--------|--------|--------|
B|--------|--------|--------|--------|--------|--------|--------|--------|--------|
G|--------|--------|--------|--------|--------|--------|--------|--------|--------|
D|--------|--------|--------|--------|--------|--------|--------|--------|--------|
A|--------|--------|--------|--------|--------|--------|--------|--------|--------|
E|--------|--------|--------|--------|--------|--------|--------|--------|--------|


E|--------|--------|--------|--------|--------|--------|--------|--------|--------|
B|--------|--------|--------|--------|--------|--------|--------|--------|--------|
G|--------|--------|--------|--------|--------|--------|--------|--------|--------|
D|--------|--------|--------|--------|--------|--------|--------|--------|--------|
A|--------|--------|--------|--------|--------|--------|--------|--------|--------|
E|--------|--------|--------|--------|--------|--------|--------|--------|--------|


E|--------|--------20---|--------|--------|--------|--------20---|--------|--------|
B|--------|-------------|--------|--------|--------|-------------|--------|--------|
G|--------|-------------|--------|--------|--------|-------------|--------|--------|
D|--------|-------------|--------|--------|--------|-------------|--------|--------|
A|--------|-------------|--------|--------|--------|-------------|--------|--------|
E|--------|-------------|--------|--------|--------|-------------|--------|--------|


E|--------|--------20---|--------|--------|--------|--------20---|--------|--------|
B|--------|-------------|--------|--------|--------|-------------|--------|--------|
G|--------|-------------|--------|--------|--------|-------------|--------|--------|
D|--------|-------------|--------|--------|--------|-------------|--------|--------|
A|--------|-------------|--------|--------|--------|-------------|--------|--------|
E|--------|-------------|--------|--------|--------|-------------|--------|--------|


E|--------|--------20---|--------|--------|
B|--------|-------------|--------|--------|
G|--------|-------------|--------|--------|
D|--------|-------------|--------|--------|
A|--------|-------------|--------|--------|
E|--------|-------------|--------|--------|





Track 6: Joey

C#|--------|--------|--------|--------|--------|--------|--------|--------|--------|
G#|--------|--------|--------|--------|--------|--------|--------|--------|--------|
 E|--------|--------|--------|--------|--------|--------|--------|--------|--------|
 B|--------|--------|--------|--------|--------|--------|--------|--------|--------|
F#|--------|--------|--------|--------|--------|--------|--------|--------|--------|
 B|--------|--------|--------|--------|--------|--------|--------|--------|--------|


C#|--------|--------|--------|--------|--------|--------|--------|--------|--------|
G#|--------|--------|--------|--------|--------|--------|--------|--------|--------|
 E|--------|--------|--------|--------|--------|--------|--------|--------|--------|
 B|--------|--------|--------|--------|--------|--------|--------|--------|--------|
F#|--------|--------|--------|--------|--------|--------|--------|--------|--------|
 B|--------|--------|--------|--------|--------|--------|--------|--------|--------|


C#|--------|--------|--------|--------|--------|--------|--------|--------|--------|
G#|--------|--------|--------|--------|--------|--------|--------|--------|--------|
 E|--------|--------|--------|--------|--------|--------|--------|--------|--------|
 B|--------|--------|--------|--------|--------|--------|--------|--------|--------|
F#|--------|--------|--------|--------|--------|--------|--------|--------|--------|
 B|--------|--------|--------|--------|--------|--------|--------|--------|--------|


C#|--------|--------|--------|--------|--------|--------|--------|--------|--------|
G#|--------|--------|--------|--------|--------|--------|--------|--------|--------|
 E|--------|--------|--------|--------|--------|--------|--------|--------|--------|
 B|--------|--------|--------|--------|--------|--------|--------|--------|--------|
F#|--------|--------|--------|--------|--------|--------|--------|--------|--------|
 B|--------|--------|--------|--------|--------|--------|--------|--------|--------|


C#|--------|--------|--------|--------|--------|--------|--------|--------|--------|
G#|--------|--------|--------|--------|--------|--------|--------|--------|--------|
 E|--------|--------|--------|--------|--------|--------|--------|--------|--------|
 B|--------|--------|--------|--------|--------|--------|--------|--------|--------|
F#|--------|--------|--------|--------|--------|--------|--------|--------|--------|
 B|--------|--------|--------|--------|--------|--------|--------|--------|--------|


C#|--------|--------|--------|--------|--------|--------|--------|--------|--------|
G#|--------|--------|--------|--------|--------|--------|--------|--------|--------|
 E|--------|--------|--------|--------|--------|--------|--------|--------|--------|
 B|--------|--------|--------|--------|--------|--------|--------|--------|--------|
F#|--------|--------|--------|--------|--------|--------|--------|--------|--------|
 B|--------|--------|--------|--------|--------|--------|--------|--------|--------|


C#|--------|--------|--------|--------|--------|--------|--------|--------|--------|
G#|--------|--------|--------|--------|--------|--------|--------|--------|--------|
 E|--------|--------|--------|--------|--------|--------|--------|--------|--------|
 B|--------|--------|--------|--------|--------|--------|--------|--------|--------|
F#|--------|--------|--------|--------|--------|--------|--------|--------|--------|
 B|--------|--------|--------|--------|--------|--------|--------|--------|--------|


C#|--------|--------|--------|--------|--------|--------|--------|--------|--------|
G#|--------|--------|--------|--------|--------|--------|--------|--------|--------|
 E|--------|--------|--------|--------|--------|--------|--------|--------|--------|
 B|--------|--------|--------|--------|--------|--------|--------|--------|--------|
F#|--------|--------|--------|--------|--------|--------|--------|--------|--------|
 B|--------|--------|--------|--------|--------|--------|--------|--------|--------|


C#|--------|--------|--------|--------|--------|--------|--------|--------|--------|
G#|--------|--------|--------|--------|--------|--------|--------|--------|--------|
 E|--------|--------|--------|--------|--------|--------|--------|--------|--------|
 B|--------|--------|--------|--------|--------|--------|--------|--------|--------|
F#|--------|--------|--------|--------|--------|--------|--------|--------|--------|
 B|--------|--------|--------|--------|--------|--------|--------|--------|--------|


C#|--------|--------|--------|--------|--------|--------|--------|--------|--------|
G#|--------|--------|--------|--------|--------|--------|--------|--------|--------|
 E|--------|--------|--------|--------|--------|--------|--------|--------|--------|
 B|--------|--------|--------|--------|--------|--------|--------|--------|--------|
F#|--------|--------|--------|--------|--------|--------|--------|--------|--------|
 B|--------|--------|--------|--------|--------|--------|--------|--------|--------|


C#|--------|--------|--------|--------|--------|--------|--------|--------|--------|
G#|--------|--------|--------|--------|--------|--------|--------|--------|--------|
 E|--------|--------|--------|--------|--------|--------|--------|--------|--------|
 B|--------|--------|--------|--------|--------|--------|--------|--------|--------|
F#|--------|--------|--------|--------|--------|--------|--------|--------|--------|
 B|--------|--------|--------|--------|--------|--------|--------|--------|--------|


C#|--------|--------|--------|--------|--------|--------|--------|--------|--------|
G#|--------|--------|--------|--------|--------|--------|--------|--------|--------|
 E|--------|--------|--------|--------|--------|--------|--------|--------|--------|
 B|--------|--------|--------|--------|--------|--------|--------|--------|--------|
F#|--------|--------|--------|--------|--------|--------|--------|--------|--------|
 B|--------|--------|--------|--------|--------|--------|--------|--------|--------|


C#|----------------|--------|--------|--------|----------------|--------|--------|
G#|----------------|--------|--------|--------|----------------|--------|--------|
 E|----------------|--------|--------|--------|----------------|--------|--------|
 B|----------------|--------|--------|--------|----------------|--------|--------|
F#|--------0---0---|--------|--------|--------|--------0---0---|--------|--------|
 B|--------0---0---|--------|--------|--------|--------0---0---|--------|--------|


C#|--------|----------------|--------|--------|--------|----------------|--------|
G#|--------|----------------|--------|--------|--------|----------------|--------|
 E|--------|----------------|--------|--------|--------|----------------|--------|
 B|--------|----------------|--------|--------|--------|----------------|--------|
F#|--------|--------0---0---|--------|--------|--------|--------0---0---|--------|
 B|--------|--------0---0---|--------|--------|--------|--------0---0---|--------|


C#|--------|--------|----------------|--------|--------|--------|----------------|
G#|--------|--------|----------------|--------|--------|--------|----------------|
 E|--------|--------|----------------|--------|--------|--------|----------------|
 B|--------|--------|----------------|--------|--------|--------|----------------|
F#|--------|--------|--------0---0---|--------|--------|--------|--------0---0---|
 B|--------|--------|--------0---0---|--------|--------|--------|--------0---0---|


C#|--------|--------|--------|----------------|--------|--------|--------|----------------|
G#|--------|--------|--------|----------------|--------|--------|--------|----------------|
 E|--------|--------|--------|----------------|--------|--------|--------|----------------|
 B|--------|--------|--------|----------------|--------|--------|--------|----------------|
F#|--------|--------|--------|--------0---0---|--------|--------|--------|--------0---0---|
 B|--------|--------|--------|--------0---0---|--------|--------|--------|--------0---0---|


C#|--------|--------|--------|----------------|--------|--------|--------|----------------|
G#|--------|--------|--------|----------------|--------|--------|--------|----------------|
 E|--------|--------|--------|----------------|--------|--------|--------|----------------|
 B|--------|--------|--------|----------------|--------|--------|--------|----------------|
F#|--------|--------|--------|--------0---0---|--------|--------|--------|--------0---0---|
 B|--------|--------|--------|--------0---0---|--------|--------|--------|--------0---0---|


C#|--------|--------|--------|----------------|--------|--------|--------|----------------|
G#|--------|--------|--------|----------------|--------|--------|--------|----------------|
 E|--------|--------|--------|----------------|--------|--------|--------|----------------|
 B|--------|--------|--------|----------------|--------|--------|--------|----------------|
F#|--------|--------|--------|--------0---0---|--------|--------|--------|--------0---0---|
 B|--------|--------|--------|--------0---0---|--------|--------|--------|--------0---0---|


C#|--------|--------|--------|--------|--------|--------|--------|--------|--------|
G#|--------|--------|--------|--------|--------|--------|--------|--------|--------|
 E|--------|--------|--------|--------|--------|--------|--------|--------|--------|
 B|--------|--------|--------|--------|--------|--------|--------|--------|--------|
F#|--------|--------|--------|--------|--------|--------|--------|--------|--------|
 B|--------|--------|--------|--------|--------|--------|--------|--------|--------|


C#|--------|--------|--------|--------|--------|--------|--------|--------|--------|
G#|--------|--------|--------|--------|--------|--------|--------|--------|--------|
 E|--------|--------|--------|--------|--------|--------|--------|--------|--------|
 B|--------|--------|--------|--------|--------|--------|--------|--------|--------|
F#|--------|--------|--------|--------|--------|--------|--------|--------|--------|
 B|--------|--------|--------|--------|--------|--------|--------|--------|--------|


C#|--------|--------|--------|--------|--------|--------|--------|--------|--------|
G#|--------|--------|--------|--------|--------|--------|--------|--------|--------|
 E|--------|--------|--------|--------|--------|--------|--------|--------|--------|
 B|--------|--------|--------|--------|--------|--------|--------|--------|--------|
F#|--------|--------|--------|--------|--------|--------|--------|--------|--------|
 B|--------|--------|--------|--------|--------|--------|--------|--------|--------|


C#|--------|--------|--------|--------|--------|--------|--------|--------|--------|
G#|--------|--------|--------|--------|--------|--------|--------|--------|--------|
 E|--------|--------|--------|--------|--------|--------|--------|--------|--------|
 B|--------|--------|--------|--------|--------|--------|--------|--------|--------|
F#|--------|--------|--------|--------|--------|--------|--------|--------|--------|
 B|--------|--------|--------|--------|--------|--------|--------|--------|--------|


C#|--------|--------|--------|--------|--------|--------|--------|--------|--------|
G#|--------|--------|--------|--------|--------|--------|--------|--------|--------|
 E|--------|--------|--------|--------|--------|--------|--------|--------|--------|
 B|--------|--------|--------|--------|--------|--------|--------|--------|--------|
F#|--------|--------|--------|--------|--------|--------|--------|--------|--------|
 B|--------|--------|--------|--------|--------|--------|--------|--------|--------|


C#|--------|--------|--------|--------|--------|--------|----------------|--------|
G#|--------|--------|--------|--------|--------|--------|----------------|--------|
 E|--------|--------|--------|--------|--------|--------|----------------|--------|
 B|--------|--------|--------|--------|--------|--------|----------------|--------|
F#|--------|--------|--------|--------|--------|--------|--------0---0---|--------|
 B|--------|--------|--------|--------|--------|--------|--------0---0---|--------|


C#|--------|--------|----------------|--------|--------|--------|----------------|
G#|--------|--------|----------------|--------|--------|--------|----------------|
 E|--------|--------|----------------|--------|--------|--------|----------------|
 B|--------|--------|----------------|--------|--------|--------|----------------|
F#|--------|--------|--------0---0---|--------|--------|--------|--------0---0---|
 B|--------|--------|--------0---0---|--------|--------|--------|--------0---0---|


C#|--------|--------|--------|----------------|--------|--------|--------|----------------|
G#|--------|--------|--------|----------------|--------|--------|--------|----------------|
 E|--------|--------|--------|----------------|--------|--------|--------|----------------|
 B|--------|--------|--------|----------------|--------|--------|--------|----------------|
F#|--------|--------|--------|--------0---0---|--------|--------|--------|--------0---0---|
 B|--------|--------|--------|--------0---0---|--------|--------|--------|--------0---0---|


C#|--------|
G#|--------|
 E|--------|
 B|--------|
F#|--------|
 B|--------|





Track 7: James

C#|--------|--------|--------|--------|--------|--------|--------|--------|--------|
G#|--------|--------|--------|--------|--------|--------|--------|--------|--------|
 E|--------|--------|--------|--------|--------|--------|--------|--------|--------|
 B|--------|--------|--------|--------|--------|--------|--------|--------|--------|
F#|--------|--------|--------|--------|--------|--------|--------|--------|--------|
 B|--------|--------|--------|--------|--------|--------|--------|--------|--------|


C#|--------|--------|--------|--------|--------|--------|--------|--------|--------|
G#|--------|--------|--------|--------|--------|--------|--------|--------|--------|
 E|--------|--------|--------|--------|--------|--------|--------|--------|--------|
 B|--------|--------|--------|--------|--------|--------|--------|--------|--------|
F#|--------|--------|--------|--------|--------|--------|--------|--------|--------|
 B|--------|--------|--------|--------|--------|--------|--------|--------|--------|


C#|--------|--------|--------|--------|--------|--------|--------|--------|--------|
G#|--------|--------|--------|--------|--------|--------|--------|--------|--------|
 E|--------|--------|--------|--------|--------|--------|--------|--------|--------|
 B|--------|--------|--------|--------|--------|--------|--------|--------|--------|
F#|--------|--------|--------|--------|--------|--------|--------|--------|--------|
 B|--------|--------|--------|--------|--------|--------|--------|--------|--------|


C#|--------|--------|--------|--------|--------|--------|--------|--------|--------|
G#|--------|--------|--------|--------|--------|--------|--------|--------|--------|
 E|--------|--------|--------|--------|--------|--------|--------|--------|--------|
 B|--------|--------|--------|--------|--------|--------|--------|--------|--------|
F#|--------|--------|--------|--------|--------|--------|--------|--------|--------|
 B|--------|--------|--------|--------|--------|--------|--------|--------|--------|


C#|--------|--------|--------|--------|--------|--------|--------|--------|--------|
G#|--------|--------|--------|--------|--------|--------|--------|--------|--------|
 E|--------|--------|--------|--------|--------|--------|--------|--------|--------|
 B|--------|--------|--------|--------|--------|--------|--------|--------|--------|
F#|--------|--------|--------|--------|--------|--------|--------|--------|--------|
 B|--------|--------|--------|--------|--------|--------|--------|--------|--------|


C#|--------|--------|--------|--------|--------|--------|--------|--------|--------|
G#|--------|--------|--------|--------|--------|--------|--------|--------|--------|
 E|--------|--------|--------|--------|--------|--------|--------|--------|--------|
 B|--------|--------|--------|--------|--------|--------|--------|--------|--------|
F#|--------|--------|--------|--------|--------|--------|--------|--------|--------|
 B|--------|--------|--------|--------|--------|--------|--------|--------|--------|


C#|--------|--------|--------|--------|--------|--------|--------|--------|--------|
G#|--------|--------|--------|--------|--------|--------|--------|--------|--------|
 E|--------|--------|--------|--------|--------|--------|--------|--------|--------|
 B|--------|--------|--------|--------|--------|--------|--------|--------|--------|
F#|--------|--------|--------|--------|--------|--------|--------|--------|--------|
 B|--------|--------|--------|--------|--------|--------|--------|--------|--------|


C#|--------|--------|--------|--------|--------|--------|--------|--------|--------|
G#|--------|--------|--------|--------|--------|--------|--------|--------|--------|
 E|--------|--------|--------|--------|--------|--------|--------|--------|--------|
 B|--------|--------|--------|--------|--------|--------|--------|--------|--------|
F#|--------|--------|--------|--------|--------|--------|--------|--------|--------|
 B|--------|--------|--------|--------|--------|--------|--------|--------|--------|


C#|--------|--------|--------|--------|--------|--------|--------|--------|--------|
G#|--------|--------|--------|--------|--------|--------|--------|--------|--------|
 E|--------|--------|--------|--------|--------|--------|--------|--------|--------|
 B|--------|--------|--------|--------|--------|--------|--------|--------|--------|
F#|--------|--------|--------|--------|--------|--------|--------|--------|--------|
 B|--------|--------|--------|--------|--------|--------|--------|--------|--------|


C#|--------|--------|--------|--------|--------|--------|--------|--------|--------|
G#|--------|--------|--------|--------|--------|--------|--------|--------|--------|
 E|--------|--------|--------|--------|--------|--------|--------|--------|--------|
 B|--------|--------|--------|--------|--------|--------|--------|--------|--------|
F#|--------|--------|--------|--------|--------|--------|--------|--------|--------|
 B|--------|--------|--------|--------|--------|--------|--------|--------|--------|


C#|--------|--------|--------|--------|--------|--------|--------|--------|--------|
G#|--------|--------|--------|--------|--------|--------|--------|--------|--------|
 E|--------|--------|--------|--------|--------|--------|--------|--------|--------|
 B|--------|--------|--------|--------|--------|--------|--------|--------|--------|
F#|--------|--------|--------|--------|--------|--------|--------|--------|--------|
 B|--------|--------|--------|--------|--------|--------|--------|--------|--------|


C#|--------|--------|--------|--------|--------|--------|--------|--------|--------|
G#|--------|--------|--------|--------|--------|--------|--------|--------|--------|
 E|--------|--------|--------|--------|--------|--------|--------|--------|--------|
 B|--------|--------|--------|--------|--------|--------|--------|--------|--------|
F#|--------|--------|--------|--------|--------|--------|--------|--------|--------|
 B|--------|--------|--------|--------|--------|--------|--------|--------|--------|


C#|--------|--------|--------|--------|--------|--------|--------|--------|--------|
G#|--------|--------|--------|--------|--------|--------|--------|--------|--------|
 E|--------|--------|--------|--------|--------|--------|--------|--------|--------|
 B|--------|--------|--------|--------|--------|--------|--------|--------|--------|
F#|--------|--------|--------|--------|--------|--------|--------|--------|--------|
 B|--------|--------|--------|--------|--------|--------|--------|--------|--------|


C#|--------|--------|--------|--------|--------|--------|--------|--------|--------|
G#|--------|--------|--------|--------|--------|--------|--------|--------|--------|
 E|--------|--------|--------|--------|--------|--------|--------|--------|--------|
 B|--------|--------|--------|--------|--------|--------|--------|--------|--------|
F#|--------|--------|--------|--------|--------|--------|--------|--------|--------|
 B|--------|--------|--------|--------|--------|--------|--------|--------|--------|


C#|--------|--------|--------|--------|--------|--------|--------|--------|--------|
G#|--------|--------|--------|--------|--------|--------|--------|--------|--------|
 E|--------|--------|--------|--------|--------|--------|--------|--------|--------|
 B|--------|--------|--------|--------|--------|--------|--------|--------|--------|
F#|--------|--------|--------|--------|--------|--------|--------|--------|--------|
 B|--------|--------|--------|--------|--------|--------|--------|--------|--------|


C#|--------|--------|--------|-0-----0----0---0---0---|-0---0---0---0---0---0---0---------|
G#|--------|--------|--------|-0-----0----0---0---0---|-0---0---0---0---0---0---0---------|
 E|--------|--------|--------|-0-----0----0---0---0---|-0---0---0---0---0---0---0---------|
 B|--------|--------|--------|-0-----0----0---0---0---|-0---0---0---0---0---0---0---------|
F#|--------|--------|--------|-0-----0----0---0---0---|-0---0---0---0---0---0---0---------|
 B|--------|--------|--------|-0-----0----0---0---0---|-0---0---0---0---0---0---0---------|


C#|--------|--------|--------|--------|--------|--------|--------|--------|--------|
G#|--------|--------|--------|--------|--------|--------|--------|--------|--------|
 E|--------|--------|--------|--------|--------|--------|--------|--------|--------|
 B|--------|--------|--------|--------|--------|--------|--------|--------|--------|
F#|--------|--------|--------|--------|--------|--------|--------|--------|--------|
 B|--------|--------|--------|--------|--------|--------|--------|--------|--------|


C#|--------|--------|--------|--------|--------|--------|--------|--------|--------|
G#|--------|--------|--------|--------|--------|--------|--------|--------|--------|
 E|--------|--------|--------|--------|--------|--------|--------|--------|--------|
 B|--------|--------|--------|--------|--------|--------|--------|--------|--------|
F#|--------|--------|--------|--------|--------|--------|--------|--------|--------|
 B|--------|--------|--------|--------|--------|--------|--------|--------|--------|


C#|--------|--------|--------|--------|--------|--------|--------|--------|--------|
G#|--------|--------|--------|--------|--------|--------|--------|--------|--------|
 E|--------|--------|--------|--------|--------|--------|--------|--------|--------|
 B|--------|--------|--------|--------|--------|--------|--------|--------|--------|
F#|--------|--------|--------|--------|--------|--------|--------|--------|--------|
 B|--------|--------|--------|--------|--------|--------|--------|--------|--------|


C#|--------|--------|--------|--------|--------|--------|--------|--------|--------|
G#|--------|--------|--------|--------|--------|--------|--------|--------|--------|
 E|--------|--------|--------|--------|--------|--------|--------|--------|--------|
 B|--------|--------|--------|--------|--------|--------|--------|--------|--------|
F#|--------|--------|--------|--------|--------|--------|--------|--------|--------|
 B|--------|--------|--------|--------|--------|--------|--------|--------|--------|


C#|--------|--------|--------|--------|--------|--------|--------|--------|--------|
G#|--------|--------|--------|--------|--------|--------|--------|--------|--------|
 E|--------|--------|--------|--------|--------|--------|--------|--------|--------|
 B|--------|--------|--------|--------|--------|--------|--------|--------|--------|
F#|--------|--------|--------|--------|--------|--------|--------|--------|--------|
 B|--------|--------|--------|--------|--------|--------|--------|--------|--------|


C#|--------|--------|--------|--------|--------|--------|--------|--------|--------|
G#|--------|--------|--------|--------|--------|--------|--------|--------|--------|
 E|--------|--------|--------|--------|--------|--------|--------|--------|--------|
 B|--------|--------|--------|--------|--------|--------|--------|--------|--------|
F#|--------|--------|--------|--------|--------|--------|--------|--------|--------|
 B|--------|--------|--------|--------|--------|--------|--------|--------|--------|


C#|--------|--------|--------|--------|--------|--------|--------|--------|--------|
G#|--------|--------|--------|--------|--------|--------|--------|--------|--------|
 E|--------|--------|--------|--------|--------|--------|--------|--------|--------|
 B|--------|--------|--------|--------|--------|--------|--------|--------|--------|
F#|--------|--------|--------|--------|--------|--------|--------|--------|--------|
 B|--------|--------|--------|--------|--------|--------|--------|--------|--------|


C#|--------|--------|--------|--------|--------|--------|--------|--------|--------|
G#|--------|--------|--------|--------|--------|--------|--------|--------|--------|
 E|--------|--------|--------|--------|--------|--------|--------|--------|--------|
 B|--------|--------|--------|--------|--------|--------|--------|--------|--------|
F#|--------|--------|--------|--------|--------|--------|--------|--------|--------|
 B|--------|--------|--------|--------|--------|--------|--------|--------|--------|


C#|--------|--------|--------|--------|--------|--------|--------|--------|--------|
G#|--------|--------|--------|--------|--------|--------|--------|--------|--------|
 E|--------|--------|--------|--------|--------|--------|--------|--------|--------|
 B|--------|--------|--------|--------|--------|--------|--------|--------|--------|
F#|--------|--------|--------|--------|--------|--------|--------|--------|--------|
 B|--------|--------|--------|--------|--------|--------|--------|--------|--------|


C#|--------|
G#|--------|
 E|--------|
 B|--------|
F#|--------|
 B|--------|





Track 8: Chris and Shawn Snares

G|--------|--------|--------|--------|--------|--------|--------|--------|--------|
D|--------|--------|--------|--------|--------|--------|--------|--------|--------|
A|--------|--------|--------|--------|--------|--------|--------|--------|--------|
E|--------|--------|--------|--------|--------|--------|--------|--------|--------|


G|--------|--------|--------|--------|--------|--------|--------|--------|--------|
D|--------|--------|--------|--------|--------|--------|--------|--------|--------|
A|--------|--------|--------|--------|--------|--------|--------|--------|--------|
E|--------|--------|--------|--------|--------|--------|--------|--------|--------|


G|--------|--------|--------|--------|--------|--------|--------|--------|--------|
D|--------|--------|--------|--------|--------|--------|--------|--------|--------|
A|--------|--------|--------|--------|--------|--------|--------|--------|--------|
E|--------|--------|--------|--------|--------|--------|--------|--------|--------|


G|--------|--------|--------|--------|--------|--------|--------|--------|--------|
D|--------|--------|--------|--------|--------|--------|--------|--------|--------|
A|--------|--------|--------|--------|--------|--------|--------|--------|--------|
E|--------|--------|--------|--------|--------|--------|--------|--------|--------|


G|--------|--------|--------|--------|--------|--------|--------|--------|--------|
D|--------|--------|--------|--------|--------|--------|--------|--------|--------|
A|--------|--------|--------|--------|--------|--------|--------|--------|--------|
E|--------|--------|--------|--------|--------|--------|--------|--------|--------|


G|--------|--------|--------|--------|--------|--------|--------|--------|--------|
D|--------|--------|--------|--------|--------|--------|--------|--------|--------|
A|--------|--------|--------|--------|--------|--------|--------|--------|--------|
E|--------|--------|--------|--------|--------|--------|--------|--------|--------|


G|--------|--------|--------|--------|--------|--------|--------|--------|--------|
D|--------|--------|--------|--------|--------|--------|--------|--------|--------|
A|--------|--------|--------|--------|--------|--------|--------|--------|--------|
E|--------|--------|--------|--------|--------|--------|--------|--------|--------|


G|--------|--------|--------|--------|--------|--------|--------|--------|--------|
D|--------|--------|--------|--------|--------|--------|--------|--------|--------|
A|--------|--------|--------|--------|--------|--------|--------|--------|--------|
E|--------|--------|--------|--------|--------|--------|--------|--------|--------|


G|--------|--------|--------|--------|--------|--------|--------|--------|--------|
D|--------|--------|--------|--------|--------|--------|--------|--------|--------|
A|--------|--------|--------|--------|--------|--------|--------|--------|--------|
E|--------|--------|--------|--------|--------|--------|--------|--------|--------|


G|--------|--------|--------|--------|--------|--------|--------|--------|--------|
D|--------|--------|--------|--------|--------|--------|--------|--------|--------|
A|--------|--------|--------|--------|--------|--------|--------|--------|--------|
E|--------|--------|--------|--------|--------|--------|--------|--------|--------|


G|--------|--------|--------|--------|--------|--------|--------|--------|--------|
D|--------|--------|--------|--------|--------|--------|--------|--------|--------|
A|--------|--------|--------|--------|--------|--------|--------|--------|--------|
E|--------|--------|--------|--------|--------|--------|--------|--------|--------|


G|--------|--------|--------|--------|--------|--------|--------|--------|--------|
D|--------|--------|--------|--------|--------|--------|--------|--------|--------|
A|--------|--------|--------|--------|--------|--------|--------|--------|--------|
E|--------|--------|--------|--------|--------|--------|--------|--------|--------|


G|--------|--------|--------|--------|--------|--------|--------|--------|--------|
D|--------|--------|--------|--------|--------|--------|--------|--------|--------|
A|--------|--------|--------|--------|--------|--------|--------|--------|--------|
E|--------|--------|--------|--------|--------|--------|--------|--------|--------|


G|--------|--------|--------|--------|--------|--------|--------|--------|--------|
D|--------|--------|--------|--------|--------|--------|--------|--------|--------|
A|--------|--------|--------|--------|--------|--------|--------|--------|--------|
E|--------|--------|--------|--------|--------|--------|--------|--------|--------|


G|--------|--------|--------|--------|--------|--------|--------|--------|--------|
D|--------|--------|--------|--------|--------|--------|--------|--------|--------|
A|--------|--------|--------|--------|--------|--------|--------|--------|--------|
E|--------|--------|--------|--------|--------|--------|--------|--------|--------|


G|--------|--------|--------|--------|--------|--------|--------|--------|--------|
D|--------|--------|--------|--------|--------|--------|--------|--------|--------|
A|--------|--------|--------|--------|--------|--------|--------|--------|--------|
E|--------|--------|--------|--------|--------|--------|--------|--------|--------|


G|--------|--------|--------|--------|--------|--------|--------|--------|--------|
D|--------|--------|--------|--------|--------|--------|--------|--------|--------|
A|--------|--------|--------|--------|--------|--------|--------|--------|--------|
E|--------|--------|--------|--------|--------|--------|--------|--------|--------|


G|--------|--------|--------|--------|--------|--------|--------|--------|--------|
D|--------|--------|--------|--------|--------|--------|--------|--------|--------|
A|--------|--------|--------|--------|--------|--------|--------|--------|--------|
E|--------|--------|--------|--------|--------|--------|--------|--------|--------|


G|--------|--------|--------|--------|--------|--------|--------|--------|--------|
D|--------|--------|--------|--------|--------|--------|--------|--------|--------|
A|--------|--------|--------|--------|--------|--------|--------|--------|--------|
E|--------|--------|--------|--------|--------|--------|--------|--------|--------|


G|--------|--------|--------|--------|--------|--------|--------|--------|--------|
D|--------|--------|--------|--------|--------|--------|--------|--------|--------|
A|--------|--------|--------|--------|--------|--------|--------|--------|--------|
E|--------|--------|--------|--------|--------|--------|--------|--------|--------|


G|--------|--------|--------|--------|--------|--------|--------|--------|--------|
D|--------|--------|--------|--------|--------|--------|--------|--------|--------|
A|--------|--------|--------|--------|--------|--------|--------|--------|--------|
E|--------|--------|--------|--------|--------|--------|--------|--------|--------|


G|--------|--------|--------|--------|--------|--------|--------|--------|--------|
D|--------|--------|--------|--------|--------|--------|--------|--------|--------|
A|--------|--------|--------|--------|--------|--------|--------|--------|--------|
E|--------|--------|--------|--------|--------|--------|--------|--------|--------|


G|--------|--------|--------|--------|--------|--------|--------|--------|--------|
D|--------|--------|--------|--------|--------|--------|--------|--------|--------|
A|--------|--------|--------|--------|--------|--------|--------|--------|--------|
E|--------|--------|--------|--------|--------|--------|--------|--------|--------|


G|--------|--------|--------|--------|--------|--------|--------|--------|--------|
D|--------|--------|--------|--------|--------|--------|--------|--------|--------|
A|--------|--------|--------|--------|--------|--------|--------|--------|--------|
E|--------|--------|--------|--------|--------|--------|--------|--------|--------|


G|--------|--------|--------|--------|--------|--------|
D|--------|--------|--------|--------|--------|--------|
A|--------|--------|--------|--------|--------|--------|
E|--------|--------|--------|--------|--------|--------|