Menu:

 

Search:

 

slipknot - the blister exists:

 



Title: The Blister Exists
Artist: 
Album: Volume 3:The Subliminal Verses
Author: Slipknot


Track 1: Untitled

C#|---------------------------------|------------------------------|------------------------------|
G#|---------------------------------|------------------------------|------------------------------|
 E|---------------------------------|------------------------------|------------------------------|
 B|-3---1---0-----------0-----------|------0-----------0-----------|------0-----------0-----------|
F#|-3---1---0-----------0-----------|------0-----------0-----------|------0-----------0-----------|
 B|-3---1---0---0---0---0---0---0---|-13---0---0---0---0---0---0---|-13---0---0---0---0---0---0---|


C#|------------------------------|---------------------------------|------------------------------|
G#|------------------------------|---------------------------------|------------------------------|
 E|------------------------------|---------------------------------|------------------------------|
 B|------0-----------0-----------|-3---1---0-----------0-----------|------0-----------0-----------|
F#|------0-----------0-----------|-3---1---0-----------0-----------|------0-----------0-----------|
 B|-13---0---0---0---0---0---13--|-3---1---0---0---0---0---0---0---|-13---0---0---0---0---0---0---|


C#|------------------------------|------------------------------|---------------------------------|
G#|------------------------------|------------------------------|---------------------------------|
 E|------------------------------|------------------------------|---------------------------------|
 B|------0-----------0-----------|------0-----------0-----------|-3---1---0-----------0-----------|
F#|------0-----------0-----------|------0-----------0-----------|-3---1---0-----------0-----------|
 B|-13---0---0---0---0---0---0---|-13---0---0---0---0---0---13--|-3---1---0---0---0---0---0---0---|


C#|------------------------------|------------------------------|------------------------------|
G#|------------------------------|------------------------------|------------------------------|
 E|------------------------------|------------------------------|------------------------------|
 B|------0-----------0-----------|------0-----------0-----------|------0-----------0-----------|
F#|------0-----------0-----------|------0-----------0-----------|------0-----------0-----------|
 B|-13---0---0---0---0---0---0---|-13---0---0---0---0---0---0---|-13---0---0---0---0---0---13--|


C#|---------------------------------|------------------------------|------------------------------|
G#|---------------------------------|------------------------------|------------------------------|
 E|---------------------------------|------------------------------|------------------------------|
 B|-3---1---0-----------0-----------|------0-----------0-----------|------0-----------0-----------|
F#|-3---1---0-----------0-----------|------0-----------0-----------|------0-----------0-----------|
 B|-3---1---0---0---0---0---0---0---|-13---0---0---0---0---0---0---|-13---0---0---0---0---0---0---|


C#|------------------------------|------------------------------|--------|-------------------------------------|
G#|------------------------------|------------------------------|--------|-------------------------------------|
 E|------------------------------|------------------------------|--------|-------------------------------------|
 B|------0-----------0-----------|-3---1---0-----------0--------|--------|-0-----------0-----------------------|
F#|------0-----------0-----------|-3---1---0-----------0--------|--------|-0-----------0-----------------------|
 B|-13---0---0---0---0---0---13--|-3---1---0---0---0---0--------|--------|-0---0---0---0---0---0---1--1--1--1--|


C#|---------------------------------|-------------------------------------|---------------------------------|
G#|---------------------------------|-------------------------------------|---------------------------------|
 E|---------------------------------|-------------------------------------|---------------------------------|
 B|-0-----------0---------------1---|-0-----------0-----------------------|-0-----------0---------------1---|
F#|-0-----------0-------------------|-0-----------0-----------------------|-0-----------0-------------------|
 B|-0---0---0---0---0---0---1-------|-0---0---0---0---0---0---1--1--1--1--|-0---0---0---0---0---0---1-------|


C#|-------------------------------------|---------------------------------|-------------------------------------|
G#|-------------------------------------|---------------------------------|-------------------------------------|
 E|-------------------------------------|---------------------------------|-------------------------------------|
 B|-0-----------0-----------------------|-0-----------0---------------1---|-0-----------0-----------------------|
F#|-0-----------0-----------------------|-0-----------0-------------------|-0-----------0-----------------------|
 B|-0---0---0---0---0---0---1--1--1--1--|-0---0---0---0---0---0---1-------|-0---0---0---0---0---0---1--1--1--1--|


C#|---------------------------------|-------------------------------------|---------------------------------|
G#|---------------------------------|-------------------------------------|---------------------------------|
 E|---------------------------------|-------------------------------------|---------------------------------|
 B|-0-----------0---------------1---|-0-----------0-----------------------|-0-----------0---------------1---|
F#|-0-----------0-------------------|-0-----------0-----------------------|-0-----------0-------------------|
 B|-0---0---0---0---0---0---1-------|-0---0---0---0---0---0---1--1--1--1--|-0---0---0---0---0---0---1-------|


C#|-------------------------------------|---------------------------------|-------------------------------------|
G#|-------------------------------------|---------------------------------|-------------------------------------|
 E|-------------------------------------|---------------------------------|-------------------------------------|
 B|-0-----------0-----------------------|-0-----------0---------------1---|-0-----------0-----------------------|
F#|-0-----------0-----------------------|-0-----------0-------------------|-0-----------0-----------------------|
 B|-0---0---0---0---0---0---1--1--1--1--|-0---0---0---0---0---0---1-------|-0---0---0---0---0---0---1--1--1--1--|


C#|---------------------------------|-------------------------------------|---------------------------------|
G#|---------------------------------|-------------------------------------|---------------------------------|
 E|---------------------------------|-------------------------------------|---------------------------------|
 B|-0-----------0---------------1---|-0-----------0-----------------------|-0-----------0---------------1---|
F#|-0-----------0-------------------|-0-----------0-----------------------|-0-----------0-------------------|
 B|-0---0---0---0---0---0---1-------|-0---0---0---0---0---0---1--1--1--1--|-0---0---0---0---0---0---1-------|


C#|---------------------------|---------------------------|---------------------------|
G#|---------------------------|---------------------------|---------------------------|
 E|---------------------------|---------------------------|---------------------------|
 B|-0----0---1----3---4---3---|-0----0---1----3---4---3---|-0----0---1----3---4---3---|
F#|-0----0---1----3---4---3---|-0----0---1----3---4---3---|-0----0---1----3---4---3---|
 B|-0----0---1----3---4---3---|-0----0---1----3---4---3---|-0----0---1----3---4---3---|


C#|---------------------------|---------------------------|---------------------------|
G#|---------------------------|---------------------------|---------------------------|
 E|---------------------------|---------------------------|---------------------------|
 B|-0----0---1----3---4---3---|-0----0---1----3---4---3---|-0----0---1----3---4---3---|
F#|-0----0---1----3---4---3---|-0----0---1----3---4---3---|-0----0---1----3---4---3---|
 B|-0----0---1----3---4---3---|-0----0---1----3---4---3---|-0----0---1----3---4---3---|


C#|---------------------------|---------------------------|-------------------------------------|
G#|---------------------------|---------------------------|-------------------------------------|
 E|---------------------------|---------------------------|-------------------------------------|
 B|-0----0---1----3---4---3---|-0----0---1----3---4---3---|-0-----------0-----------------------|
F#|-0----0---1----3---4---3---|-0----0---1----3---4---3---|-0-----------0-----------------------|
 B|-0----0---1----3---4---3---|-0----0---1----3---4---3---|-0---0---0---0---0---0---1--1--1--1--|


C#|---------------------------------|-------------------------------------|---------------------------------|
G#|---------------------------------|-------------------------------------|---------------------------------|
 E|---------------------------------|-------------------------------------|---------------------------------|
 B|-0-----------0---------------1---|-0-----------0-----------------------|-0-----------0---------------1---|
F#|-0-----------0-------------------|-0-----------0-----------------------|-0-----------0-------------------|
 B|-0---0---0---0---0---0---1-------|-0---0---0---0---0---0---1--1--1--1--|-0---0---0---0---0---0---1-------|


C#|-------------------------------------|---------------------------------|-------------------------------------|
G#|-------------------------------------|---------------------------------|-------------------------------------|
 E|-------------------------------------|---------------------------------|-------------------------------------|
 B|-0-----------0-----------------------|-0-----------0---------------1---|-0-----------0-----------------------|
F#|-0-----------0-----------------------|-0-----------0-------------------|-0-----------0-----------------------|
 B|-0---0---0---0---0---0---1--1--1--1--|-0---0---0---0---0---0---1-------|-0---0---0---0---0---0---1--1--1--1--|


C#|---------------------------------|-------------------------------------|---------------------------------|
G#|---------------------------------|-------------------------------------|---------------------------------|
 E|---------------------------------|-------------------------------------|---------------------------------|
 B|-0-----------0---------------1---|-0-----------0-----------------------|-0-----------0---------------1---|
F#|-0-----------0-------------------|-0-----------0-----------------------|-0-----------0-------------------|
 B|-0---0---0---0---0---0---1-------|-0---0---0---0---0---0---1--1--1--1--|-0---0---0---0---0---0---1-------|


C#|-------------------------------------|---------------------------------|-------------------------------------|
G#|-------------------------------------|---------------------------------|-------------------------------------|
 E|-------------------------------------|---------------------------------|-------------------------------------|
 B|-0-----------0-----------------------|-0-----------0---------------1---|-0-----------0-----------------------|
F#|-0-----------0-----------------------|-0-----------0-------------------|-0-----------0-----------------------|
 B|-0---0---0---0---0---0---1--1--1--1--|-0---0---0---0---0---0---1-------|-0---0---0---0---0---0---1--1--1--1--|


C#|---------------------------------|-------------------------------------|---------------------------------|
G#|---------------------------------|-------------------------------------|---------------------------------|
 E|---------------------------------|-------------------------------------|---------------------------------|
 B|-0-----------0---------------1---|-0-----------0-----------------------|-0-----------0---------------1---|
F#|-0-----------0-------------------|-0-----------0-----------------------|-0-----------0-------------------|
 B|-0---0---0---0---0---0---1-------|-0---0---0---0---0---0---1--1--1--1--|-0---0---0---0---0---0---1-------|


C#|---------------------------|---------------------------|---------------------------|
G#|---------------------------|---------------------------|---------------------------|
 E|---------------------------|---------------------------|---------------------------|
 B|-0----0---1----3---4---3---|-0----0---1----3---4---3---|-0----0---1----3---4---3---|
F#|-0----0---1----3---4---3---|-0----0---1----3---4---3---|-0----0---1----3---4---3---|
 B|-0----0---1----3---4---3---|-0----0---1----3---4---3---|-0----0---1----3---4---3---|


C#|---------------------------|---------------------------|---------------------------|
G#|---------------------------|---------------------------|---------------------------|
 E|---------------------------|---------------------------|---------------------------|
 B|-0----0---1----3---4---3---|-0----0---1----3---4---3---|-0----0---1----3---4---3---|
F#|-0----0---1----3---4---3---|-0----0---1----3---4---3---|-0----0---1----3---4---3---|
 B|-0----0---1----3---4---3---|-0----0---1----3---4---3---|-0----0---1----3---4---3---|


C#|---------------------------|---------------------------|------------|--------|----------------|
G#|---------------------------|---------------------------|------------|--------|----------------|
 E|---------------------------|---------------------------|------------|--------|----------------|
 B|-0----0---1----3---4---3---|-0----0---1----3---4---3---|-0----------|--------|-0---0----------|
F#|-0----0---1----3---4---3---|-0----0---1----3---4---3---|-0----------|--------|-0---0----------|
 B|-0----0---1----3---4---3---|-0----0---1----3---4---3---|-0----------|--------|-0---0----------|


C#|--------------------|-------------------------------------|---------------------------------|
G#|--------------------|-------------------------------------|---------------------------------|
 E|--------------------|-------------------------------------|---------------------------------|
 B|-------3---1---0----|-0-----------0-----------------------|-0-----------0---------------1---|
F#|-------3---1---0----|-0-----------0-----------------------|-0-----------0-------------------|
 B|-------3---1---0----|-0---0---0---0---0---0---1--1--1--1--|-0---0---0---0---0---0---1-------|


C#|-------------------------------------|---------------------------------|-------------------------------------|
G#|-------------------------------------|---------------------------------|-------------------------------------|
 E|-------------------------------------|---------------------------------|-------------------------------------|
 B|-0-----------0-----------------------|-0-----------0---------------1---|-0-----------0-----------------------|
F#|-0-----------0-----------------------|-0-----------0-------------------|-0-----------0-----------------------|
 B|-0---0---0---0---0---0---1--1--1--1--|-0---0---0---0---0---0---1-------|-0---0---0---0---0---0---1--1--1--1--|


C#|---------------------------------|-------------------------------------|---------------------------------|
G#|---------------------------------|-------------------------------------|---------------------------------|
 E|---------------------------------|-------------------------------------|---------------------------------|
 B|-0-----------0---------------1---|-0-----------0-----------------------|-0-----------0---------------1---|
F#|-0-----------0-------------------|-0-----------0-----------------------|-0-----------0-------------------|
 B|-0---0---0---0---0---0---1-------|-0---0---0---0---0---0---1--1--1--1--|-0---0---0---0---0---0---1-------|


C#|-------------------------------------|---------------------------------|-------------------------------------|
G#|-------------------------------------|---------------------------------|-------------------------------------|
 E|-------------------------------------|---------------------------------|-------------------------------------|
 B|-0-----------0-----------------------|-0-----------0---------------1---|-0-----------0-----------------------|
F#|-0-----------0-----------------------|-0-----------0-------------------|-0-----------0-----------------------|
 B|-0---0---0---0---0---0---1--1--1--1--|-0---0---0---0---0---0---1-------|-0---0---0---0---0---0---1--1--1--1--|


C#|---------------------------------|---------------------------|---------------------------|
G#|---------------------------------|---------------------------|---------------------------|
 E|---------------------------------|---------------------------|---------------------------|
 B|-0-----------0---------------1---|-0----0---1----3---4---3---|-0----0---1----3---4---3---|
F#|-0-----------0-------------------|-0----0---1----3---4---3---|-0----0---1----3---4---3---|
 B|-0---0---0---0---0---0---1-------|-0----0---1----3---4---3---|-0----0---1----3---4---3---|


C#|---------------------------|---------------------------|---------------------------|
G#|---------------------------|---------------------------|---------------------------|
 E|---------------------------|---------------------------|---------------------------|
 B|-0----0---1----3---4---3---|-0----0---1----3---4---3---|-0----0---1----3---4---3---|
F#|-0----0---1----3---4---3---|-0----0---1----3---4---3---|-0----0---1----3---4---3---|
 B|-0----0---1----3---4---3---|-0----0---1----3---4---3---|-0----0---1----3---4---3---|


C#|---------------------------|---------------------------|---------------------------|
G#|---------------------------|---------------------------|---------------------------|
 E|---------------------------|---------------------------|---------------------------|
 B|-0----0---1----3---4---3---|-0----0---1----3---4---3---|-0----0---1----3---4---3---|
F#|-0----0---1----3---4---3---|-0----0---1----3---4---3---|-0----0---1----3---4---3---|
 B|-0----0---1----3---4---3---|-0----0---1----3---4---3---|-0----0---1----3---4---3---|


C#|------------------------|------------------------------|------------------------|
G#|------------------------|------------------------------|------------------------|
 E|------------------------|------------------------------|------------------------|
 B|-2----3---0-----6---0---|-6---0---0---3----3---3---5---|-2----3---0-----6---0---|
F#|-2----3---0-----6---0---|-6---0---0---3----3---3---5---|-2----3---0-----6---0---|
 B|-2----3---0-----6---0---|-6---0---0---3----3---3---5---|-2----3---0-----6---0---|


C#|------------------------------|------------------------|------------------------------|
G#|------------------------------|------------------------|------------------------------|
 E|------------------------------|------------------------|------------------------------|
 B|-6---0---0---3----3---3---5---|-2----3---0-----6---0---|-6---0---0---3----3---3---5---|
F#|-6---0---0---3----3---3---5---|-2----3---0-----6---0---|-6---0---0---3----3---3---5---|
 B|-6---0---0---3----3---3---5---|-2----3---0-----6---0---|-6---0---0---3----3---3---5---|


C#|------------------------|------------------------------|------------------------|
G#|------------------------|------------------------------|------------------------|
 E|------------------------|------------------------------|------------------------|
 B|-2----3---0-----6---0---|-6---0---0---3----3---3---5---|------3---0-----6---0---|
F#|-2----3---0-----6---0---|-6---0---0---3----3---3---5---|------3---0-----6---0---|
 B|-2----3---0-----6---0---|-6---0---0---3----3---3---5---|------3---0-----6---0---|


C#|------------------------------|------------------------|------------------------------|
G#|------------------------------|------------------------|------------------------------|
 E|------------------------------|------------------------|------------------------------|
 B|-6---0---0---3----3---3---5---|-2----3---0-----6---0---|-6---0---0---3----3---3---5---|
F#|-6---0---0---3----3---3---5---|-2----3---0-----6---0---|-6---0---0---3----3---3---5---|
 B|-6---0---0---3----3---3---5---|-2----3---0-----6---0---|-6---0---0---3----3---3---5---|


C#|------------------------|------------------------------|------------------------|
G#|------------------------|------------------------------|------------------------|
 E|------------------------|------------------------------|------------------------|
 B|-2----3---0-----6---0---|-6---0---0---3----3---3---5---|-2----3---0-----6---0---|
F#|-2----3---0-----6---0---|-6---0---0---3----3---3---5---|-2----3---0-----6---0---|
 B|-2----3---0-----6---0---|-6---0---0---3----3---3---5---|-2----3---0-----6---0---|


C#|------------------------------|-----------------|--------|--------|--------|--------|
G#|------------------------------|-----------------|--------|--------|--------|--------|
 E|------------------------------|-----------------|--------|--------|--------|--------|
 B|-6---0---0---3----3---3---5---|-1-----0---------|--------|--------|--------|--------|
F#|-6---0---0---3----3---3---5---|-1-----0---------|--------|--------|--------|--------|
 B|-6---0---0---3----3---3---5---|-1-----0---------|--------|--------|--------|--------|


C#|--------|--------|--------|--------|--------|--------|--------|--------|--------|
G#|--------|--------|--------|--------|--------|--------|--------|--------|--------|
 E|--------|--------|--------|--------|--------|--------|--------|--------|--------|
 B|--------|--------|--------|--------|--------|--------|--------|--------|--------|
F#|--------|--------|--------|--------|--------|--------|--------|--------|--------|
 B|--------|--------|--------|--------|--------|--------|--------|--------|--------|


C#|-----------------|----------------|---------------------------------------|------------------------|
G#|-----------------|----------------|---------------------------------------|------------------------|
 E|-----------------|----------------|---------------------------------------|------------------------|
 B|-1-----0---------|----------------|---------------------------------------|-------------------1----|
F#|-1-----0---------|----------------|---------------------------------------|------------------------|
 B|-1-----0---------|--------0---0---|-1--0--0--1--0--0--0---0-------0---0---|-1---0---------0--------|


C#|-----------------|----------------|---------------------------------------|------------------------|
G#|-----------------|----------------|---------------------------------------|------------------------|
 E|-----------------|----------------|---------------------------------------|------------------------|
 B|-1-----0---------|----------------|---------------------------------------|-------------------1----|
F#|-1-----0---------|----------------|---------------------------------------|------------------------|
 B|-1-----0---------|--------0---0---|-1--0--0--1--0--0--0---0-------0---0---|-1---0---------0--------|


C#|-----------------|----------------|---------------------------------------|------------------------|
G#|-----------------|----------------|---------------------------------------|------------------------|
 E|-----------------|----------------|---------------------------------------|------------------------|
 B|-1-----0---------|----------------|---------------------------------------|-------------------1----|
F#|-1-----0---------|----------------|---------------------------------------|------------------------|
 B|-1-----0---------|--------0---0---|-1--0--0--1--0--0--0---0-------0---0---|-1---0---------0--------|


C#|-----------------|----------------|---------------------------------------|------------------------|
G#|-----------------|----------------|---------------------------------------|------------------------|
 E|-----------------|----------------|---------------------------------------|------------------------|
 B|-1-----0---------|----------------|---------------------------------------|-------------------1----|
F#|-1-----0---------|----------------|---------------------------------------|------------------------|
 B|-1-----0---------|--------0---0---|-1--0--0--1--0--0--0---0-------0---0---|-1---0---------0--------|


C#|-----------------|----------------|---------------------------------------|------------------------|
G#|-----------------|----------------|---------------------------------------|------------------------|
 E|-----------------|----------------|---------------------------------------|------------------------|
 B|-1-----0---------|----------------|---------------------------------------|-------------------1----|
F#|-1-----0---------|----------------|---------------------------------------|------------------------|
 B|-1-----0---------|--------0---0---|-1--0--0--1--0--0--0---0-------0---0---|-1---0---------0--------|


C#|-----------------|----------------|---------------------------------------|------------------------|
G#|-----------------|----------------|---------------------------------------|------------------------|
 E|-----------------|----------------|---------------------------------------|------------------------|
 B|-1-----0---------|----------------|---------------------------------------|-------------------1----|
F#|-1-----0---------|----------------|---------------------------------------|------------------------|
 B|-1-----0---------|--------0---0---|-1--0--0--1--0--0--0---0-------0---0---|-1---0---------0--------|


C#|-----------------|----------------|---------------------------------------|------------------------|
G#|-----------------|----------------|---------------------------------------|------------------------|
 E|-----------------|----------------|---------------------------------------|------------------------|
 B|-1-----0---------|----------------|---------------------------------------|-------------------1----|
F#|-1-----0---------|----------------|---------------------------------------|------------------------|
 B|-1-----0---------|--------0---0---|-1--0--0--1--0--0--0---0-------0---0---|-1---0---------0--------|


C#|-----------------|----------------|---------------------------------------|------------------------|
G#|-----------------|----------------|---------------------------------------|------------------------|
 E|-----------------|----------------|---------------------------------------|------------------------|
 B|-1-----0---------|----------------|---------------------------------------|-------------------1----|
F#|-1-----0---------|----------------|---------------------------------------|------------------------|
 B|-1-----0---------|--------0---0---|-1--0--0--1--0--0--0---0-------0---0---|-1---0---------0--------|


C#|---------------------------|---------------------------|---------------------------|
G#|---------------------------|---------------------------|---------------------------|
 E|---------------------------|---------------------------|---------------------------|
 B|-0----0---1----3---4---3---|-0----0---1----3---4---3---|-0----0---1----3---4---3---|
F#|-0----0---1----3---4---3---|-0----0---1----3---4---3---|-0----0---1----3---4---3---|
 B|-0----0---1----3---4---3---|-0----0---1----3---4---3---|-0----0---1----3---4---3---|


C#|---------------------------|---------------------------|---------------------------|
G#|---------------------------|---------------------------|---------------------------|
 E|---------------------------|---------------------------|---------------------------|
 B|-0----0---1----3---4---3---|-0----0---1----3---4---3---|-0----0---1----3---4---3---|
F#|-0----0---1----3---4---3---|-0----0---1----3---4---3---|-0----0---1----3---4---3---|
 B|-0----0---1----3---4---3---|-0----0---1----3---4---3---|-0----0---1----3---4---3---|


C#|---------------------------|---------------------------|---------------------------|
G#|---------------------------|---------------------------|---------------------------|
 E|---------------------------|---------------------------|---------------------------|
 B|-0----0---1----3---4---3---|-0----0---1----3---4---3---|-0----0---1----3---4---3---|
F#|-0----0---1----3---4---3---|-0----0---1----3---4---3---|-0----0---1----3---4---3---|
 B|-0----0---1----3---4---3---|-0----0---1----3---4---3---|-0----0---1----3---4---3---|


C#|---------------------------|---------------------------|---------------------------|
G#|---------------------------|---------------------------|---------------------------|
 E|---------------------------|---------------------------|---------------------------|
 B|-0----0---1----3---4---3---|-0----0---1----3---4---3---|-0----0---1----3---4---3---|
F#|-0----0---1----3---4---3---|-0----0---1----3---4---3---|-0----0---1----3---4---3---|
 B|-0----0---1----3---4---3---|-0----0---1----3---4---3---|-0----0---1----3---4---3---|


C#|---------------------------|---------------------------|---------------------------|
G#|---------------------------|---------------------------|---------------------------|
 E|---------------------------|---------------------------|---------------------------|
 B|-0----0---1----3---4---3---|-0----0---1----3---4---3---|-0----0---1----3---4---3---|
F#|-0----0---1----3---4---3---|-0----0---1----3---4---3---|-0----0---1----3---4---3---|
 B|-0----0---1----3---4---3---|-0----0---1----3---4---3---|-0----0---1----3---4---3---|


C#|---------------------------|------------------------|------------------------------|
G#|---------------------------|------------------------|------------------------------|
 E|---------------------------|------------------------|------------------------------|
 B|-0----0---1----3---4---3---|-2----3---0-----6---0---|-6---0---0---3----3---3---5---|
F#|-0----0---1----3---4---3---|-2----3---0-----6---0---|-6---0---0---3----3---3---5---|
 B|-0----0---1----3---4---3---|-2----3---0-----6---0---|-6---0---0---3----3---3---5---|


C#|------------------------|------------------------------|------------------------|
G#|------------------------|------------------------------|------------------------|
 E|------------------------|------------------------------|------------------------|
 B|-2----3---0-----6---0---|-6---0---0---3----3---3---5---|-2----3---0-----6---0---|
F#|-2----3---0-----6---0---|-6---0---0---3----3---3---5---|-2----3---0-----6---0---|
 B|-2----3---0-----6---0---|-6---0---0---3----3---3---5---|-2----3---0-----6---0---|


C#|------------------------------|------------------------|------------------------------|
G#|------------------------------|------------------------|------------------------------|
 E|------------------------------|------------------------|------------------------------|
 B|-6---0---0---3----3---3---5---|-2----3---0-----6---0---|-6---0---0---3----3---3---5---|
F#|-6---0---0---3----3---3---5---|-2----3---0-----6---0---|-6---0---0---3----3---3---5---|
 B|-6---0---0---3----3---3---5---|-2----3---0-----6---0---|-6---0---0---3----3---3---5---|


C#|------------------------|------------------------------|------------------------|
G#|------------------------|------------------------------|------------------------|
 E|------------------------|------------------------------|------------------------|
 B|------3---0-----6---0---|-6---0---0---3----3---3---5---|-2----3---0-----6---0---|
F#|------3---0-----6---0---|-6---0---0---3----3---3---5---|-2----3---0-----6---0---|
 B|------3---0-----6---0---|-6---0---0---3----3---3---5---|-2----3---0-----6---0---|


C#|------------------------------|------------------------|------------------------------|
G#|------------------------------|------------------------|------------------------------|
 E|------------------------------|------------------------|------------------------------|
 B|-6---0---0---3----3---3---5---|-2----3---0-----6---0---|-6---0---0---3----3---3---5---|
F#|-6---0---0---3----3---3---5---|-2----3---0-----6---0---|-6---0---0---3----3---3---5---|
 B|-6---0---0---3----3---3---5---|-2----3---0-----6---0---|-6---0---0---3----3---3---5---|


C#|------------------------|------------------------------|------------------------|
G#|------------------------|------------------------------|------------------------|
 E|------------------------|------------------------------|------------------------|
 B|-2----3---0-----6---0---|-6---0---0---3----3---3---5---|------3---0-----6---0---|
F#|-2----3---0-----6---0---|-6---0---0---3----3---3---5---|------3---0-----6---0---|
 B|-2----3---0-----6---0---|-6---0---0---3----3---3---5---|------3---0-----6---0---|


C#|------------------------------|------------------------|------------------------------|
G#|------------------------------|------------------------|------------------------------|
 E|------------------------------|------------------------|------------------------------|
 B|-6---0---0---3----3---3---5---|-2----3---0-----6---0---|-6---0---0---3----3---3---5---|
F#|-6---0---0---3----3---3---5---|-2----3---0-----6---0---|-6---0---0---3----3---3---5---|
 B|-6---0---0---3----3---3---5---|-2----3---0-----6---0---|-6---0---0---3----3---3---5---|


C#|------------------------|------------------------------|------------------------|
G#|------------------------|------------------------------|------------------------|
 E|------------------------|------------------------------|------------------------|
 B|-2----3---0-----6---0---|-6---0---0---3----3---3---5---|-2----3---0-----6---0---|
F#|-2----3---0-----6---0---|-6---0---0---3----3---3---5---|-2----3---0-----6---0---|
 B|-2----3---0-----6---0---|-6---0---0---3----3---3---5---|-2----3---0-----6---0---|


C#|-------------------------------|------------------------|------------------------------|
G#|-------------------------------|------------------------|------------------------------|
 E|-------------------------------|------------------------|------------------------------|
 B|-6---0---0---3----3----3-------|-2----3---0-----6---0---|-6---0---0---3----3---3---5---|
F#|-6---0---0---3----3----3-------|-2----3---0-----6---0---|-6---0---0---3----3---3---5---|
 B|-6---0---0---3----3----3-------|-2----3---0-----6---0---|-6---0---0---3----3---3---5---|


C#|------------------------|------------------------------|------------------------|
G#|------------------------|------------------------------|------------------------|
 E|------------------------|------------------------------|------------------------|
 B|-2----3---0-----6---0---|-6---0---0---3----3---3---5---|-2----3---0-----6---0---|
F#|-2----3---0-----6---0---|-6---0---0---3----3---3---5---|-2----3---0-----6---0---|
 B|-2----3---0-----6---0---|-6---0---0---3----3---3---5---|-2----3---0-----6---0---|


C#|------------------------------|------------------------|------------------------------|
G#|------------------------------|------------------------|------------------------------|
 E|------------------------------|------------------------|------------------------------|
 B|-6---0---0---3----3---3---5---|-2----3---0-----6---0---|-6---0---0---3----3---3---5---|
F#|-6---0---0---3----3---3---5---|-2----3---0-----6---0---|-6---0---0---3----3---3---5---|
 B|-6---0---0---3----3---3---5---|-2----3---0-----6---0---|-6---0---0---3----3---3---5---|


C#|-----------------|----------------|---------------------------------------|------------------------|
G#|-----------------|----------------|---------------------------------------|-------------------8----|
 E|-----------------|----------------|---------------------------------------|------------------------|
 B|-1-----0---------|----------------|---------------------------------------|------------------------|
F#|-1-----0---------|----------------|---------------------------------------|------------------------|
 B|-1-----0---------|--------0---0---|-1--0--0--1--0--0--0---0-------0---0---|-1---0---------0--------|


C#|-----------------|----------------|---------------------------------------|------------------------|
G#|-----------------|----------------|---------------------------------------|-------------------8----|
 E|-----------------|----------------|---------------------------------------|------------------------|
 B|-1-----0---------|----------------|---------------------------------------|------------------------|
F#|-1-----0---------|----------------|---------------------------------------|------------------------|
 B|-1-----0---------|--------0---0---|-1--0--0--1--0--0--0---0-------0---0---|-1---0---------0--------|


C#|-----------------|----------------|---------------------------------------|------------------------|
G#|-----------------|----------------|---------------------------------------|-------------------8----|
 E|-----------------|----------------|---------------------------------------|------------------------|
 B|-1-----0---------|----------------|---------------------------------------|------------------------|
F#|-1-----0---------|----------------|---------------------------------------|------------------------|
 B|-1-----0---------|--------0---0---|-1--0--0--1--0--0--0---0-------0---0---|-1---0---------0--------|


C#|-----------------|----------------|---------------------------------------|------------------------|
G#|-----------------|----------------|---------------------------------------|-------------------8----|
 E|-----------------|----------------|---------------------------------------|------------------------|
 B|-1-----0---------|----------------|---------------------------------------|------------------------|
F#|-1-----0---------|----------------|---------------------------------------|------------------------|
 B|-1-----0---------|--------0---0---|-1--0--0--1--0--0--0---0-------0---0---|-1---0---------0--------|


C#|-------------|--------|--------|--------|--------|--------|--------|--------|
G#|-------------|--------|--------|--------|--------|--------|--------|--------|
 E|-------------|--------|--------|--------|--------|--------|--------|--------|
 B|-1-----0-----|-0------|-0------|-0------|-0------|-0------|-0------|-0------|
F#|-1-----0-----|-0------|-0------|-0------|-0------|-0------|-0------|-0------|
 B|-1-----0-----|-0------|-0------|-0------|-0------|-0------|-0------|-0------|





Track 2: Untitled

C#|------------------------------|------------------------------|------------------------------|
G#|------------------------------|------------------------------|------------------------------|
 E|------------------------------|------------------------------|------------------------------|
 B|------0-----------0-----------|------0-----------0-----------|------0-----------0-----------|
F#|------0-----------0-----------|------0-----------0-----------|------0-----------0-----------|
 B|-13---0---0---0---0---0---0---|-13---0---0---0---0---0---0---|-13---0---0---0---0---0---0---|


C#|------------------------------|------------------------------|------------------------------|
G#|------------------------------|------------------------------|------------------------------|
 E|------------------------------|------------------------------|------------------------------|
 B|------0-----------0-----------|------0-----------0-----------|------0-----------0-----------|
F#|------0-----------0-----------|------0-----------0-----------|------0-----------0-----------|
 B|-13---0---0---0---0---0---13--|-13---0---0---0---0---0---0---|-13---0---0---0---0---0---0---|


C#|------------------------------|------------------------------|------------------------------|
G#|------------------------------|------------------------------|------------------------------|
 E|------------------------------|------------------------------|------------------------------|
 B|------0-----------0-----------|------0-----------0-----------|------0-----------0-----------|
F#|------0-----------0-----------|------0-----------0-----------|------0-----------0-----------|
 B|-13---0---0---0---0---0---0---|-13---0---0---0---0---0---13--|-13---0---0---0---0---0---0---|


C#|------------------------------|------------------------------|------------------------------|
G#|------------------------------|------------------------------|------------------------------|
 E|------------------------------|------------------------------|------------------------------|
 B|------0-----------0-----------|------0-----------0-----------|------0-----------0-----------|
F#|------0-----------0-----------|------0-----------0-----------|------0-----------0-----------|
 B|-13---0---0---0---0---0---0---|-13---0---0---0---0---0---0---|-13---0---0---0---0---0---13--|


C#|------------------------------|------------------------------|------------------------------|
G#|------------------------------|------------------------------|------------------------------|
 E|------------------------------|------------------------------|------------------------------|
 B|------0-----------0-----------|------0-----------0-----------|------0-----------0-----------|
F#|------0-----------0-----------|------0-----------0-----------|------0-----------0-----------|
 B|-13---0---0---0---0---0---0---|-13---0---0---0---0---0---0---|-13---0---0---0---0---0---0---|


C#|------------------------------|--------|--------|--------|--------|--------|--------|
G#|------------------------------|--------|--------|--------|--------|--------|--------|
 E|------------------------------|--------|--------|--------|--------|--------|--------|
 B|------0-----------0-----------|--------|--------|--------|--------|--------|--------|
F#|------0-----------0-----------|--------|--------|--------|--------|--------|--------|
 B|-13---0---0---0---0---0---13--|--------|--------|--------|--------|--------|--------|


C#|--------|--------|--------|--------|--------|--------|--------|--------|--------|
G#|--------|--------|--------|--------|--------|--------|--------|--------|--------|
 E|--------|--------|--------|--------|--------|--------|--------|--------|--------|
 B|--------|--------|--------|--------|--------|--------|--------|--------|--------|
F#|--------|--------|--------|--------|--------|--------|--------|--------|--------|
 B|--------|--------|--------|--------|--------|--------|--------|--------|--------|


C#|--------|--------|--------|--------|--------|--------|--------|--------|--------|
G#|--------|--------|--------|--------|--------|--------|--------|--------|--------|
 E|--------|--------|--------|--------|--------|--------|--------|--------|--------|
 B|--------|--------|--------|--------|--------|--------|--------|--------|--------|
F#|--------|--------|--------|--------|--------|--------|--------|--------|--------|
 B|--------|--------|--------|--------|--------|--------|--------|--------|--------|


C#|--------|--------|-------------10---|-10----11--10----------|-------------10---|
G#|--------|--------|------------------|---------------11--9---|------------------|
 E|--------|--------|-8-----7----------|-----------------------|-8-----7----------|
 B|--------|--------|------------------|-----------------------|------------------|
F#|--------|--------|------------------|-----------------------|------------------|
 B|--------|--------|------------------|-----------------------|------------------|


C#|-10-----------------7-9-109-7--------------------|-------------10---|-10----11--10----------|
G#|--------------7-9-10----------10-9--7------------|------------------|---------------11--9---|
 E|-----7--8--10--------------------------10-8--7---|-8-----7----------|-----------------------|
 B|-------------------------------------------------|------------------|-----------------------|
F#|-------------------------------------------------|------------------|-----------------------|
 B|-------------------------------------------------|------------------|-----------------------|


C#|-------------10---|-10-----------------7-9-109-7--------------------|-------------10---|
G#|------------------|--------------7-9-10----------10-9--7------------|------------------|
 E|-8-----7----------|-----7--8--10--------------------------10-8--7---|-8-----7----------|
 B|------------------|-------------------------------------------------|------------------|
F#|------------------|-------------------------------------------------|------------------|
 B|------------------|-------------------------------------------------|------------------|


C#|-10----11--10----------|-------------10---|-10-----------------7-9-109-7--------------------|
G#|---------------11--9---|------------------|--------------7-9-10----------10-9--7------------|
 E|-----------------------|-8-----7----------|-----7--8--10--------------------------10-8--7---|
 B|-----------------------|------------------|-------------------------------------------------|
F#|-----------------------|------------------|-------------------------------------------------|
 B|-----------------------|------------------|-------------------------------------------------|


C#|-------------10---|-10----11--10----------|-------------10---|-10-----------------7-9-109-7--------------------|
G#|------------------|---------------11--9---|------------------|--------------7-9-10----------10-9--7------------|
 E|-8-----7----------|-----------------------|-8-----7----------|-----7--8--10--------------------------10-8--7---|
 B|------------------|-----------------------|------------------|-------------------------------------------------|
F#|------------------|-----------------------|------------------|-------------------------------------------------|
 B|------------------|-----------------------|------------------|-------------------------------------------------|


C#|--------|--------|--------|--------|--------|--------|--------|--------|-------------10---|
G#|--------|--------|--------|--------|--------|--------|--------|--------|------------------|
 E|--------|--------|--------|--------|--------|--------|--------|--------|-8-----7----------|
 B|--------|--------|--------|--------|--------|--------|--------|--------|------------------|
F#|--------|--------|--------|--------|--------|--------|--------|--------|------------------|
 B|--------|--------|--------|--------|--------|--------|--------|--------|------------------|


C#|-10----11--10----------|-------------10---|-10----17----|--------|--------|--------|
G#|---------------11--9---|------------------|-------------|--------|--------|--------|
 E|-----------------------|-8-----7----------|-------------|--------|--------|--------|
 B|-----------------------|------------------|-------------|--------|--------|--------|
F#|-----------------------|------------------|-------------|--------|--------|--------|
 B|-----------------------|------------------|-------------|--------|--------|--------|


C#|--------|--------|--------|--------|--------|-------------10---|-10----11--10----------|
G#|--------|--------|--------|--------|--------|------------------|---------------11--9---|
 E|--------|--------|--------|--------|--------|-8-----7----------|-----------------------|
 B|--------|--------|--------|--------|--------|------------------|-----------------------|
F#|--------|--------|--------|--------|--------|------------------|-----------------------|
 B|--------|--------|--------|--------|--------|------------------|-----------------------|


C#|-------------10---|-10----17----|--------|--------|--------|--------|----------------|
G#|------------------|-------------|--------|--------|--------|--------|-10-----8---10--|
 E|-8-----7----------|-------------|--------|--------|--------|--------|----------------|
 B|------------------|-------------|--------|--------|--------|--------|----------------|
F#|------------------|-------------|--------|--------|--------|--------|----------------|
 B|------------------|-------------|--------|--------|--------|--------|----------------|


C#|--------|---------------------------------|---------------------------------|--------|
G#|-8------|---------------------------------|---------------------------------|--------|
 E|--------|-5---0---5---0---5---0---5---0---|-7---0---7---0---7---0---7---0---|--------|
 B|--------|---------------------------------|---------------------------------|--------|
F#|--------|---------------------------------|---------------------------------|--------|
 B|--------|---------------------------------|---------------------------------|--------|


C#|--------|--------|--------|--------|--------|--------|--------|--------|--------|
G#|--------|--------|--------|--------|--------|--------|--------|--------|--------|
 E|--------|--------|--------|--------|--------|--------|--------|--------|--------|
 B|--------|--------|--------|--------|--------|--------|--------|--------|--------|
F#|--------|--------|--------|--------|--------|--------|--------|--------|--------|
 B|--------|--------|--------|--------|--------|--------|--------|--------|--------|


C#|--------|--------|--------|--------|--------|--------|--------|--------|--------|
G#|--------|--------|--------|--------|--------|--------|--------|--------|--------|
 E|--------|--------|--------|--------|--------|--------|--------|--------|--------|
 B|--------|--------|--------|--------|--------|--------|--------|--------|--------|
F#|--------|--------|--------|--------|--------|--------|--------|--------|--------|
 B|--------|--------|--------|--------|--------|--------|--------|--------|--------|


C#|--------|--------|--------|--------|--------|--------|--------|--------|--------|
G#|--------|--------|--------|--------|--------|--------|--------|--------|--------|
 E|--------|--------|--------|--------|--------|--------|--------|--------|--------|
 B|--------|--------|--------|--------|--------|--------|--------|--------|--------|
F#|--------|--------|--------|--------|--------|--------|--------|--------|--------|
 B|--------|--------|--------|--------|--------|--------|--------|--------|--------|


C#|--------|--------|--------|--------|--------|--------|--------|--------|--------|
G#|--------|--------|--------|--------|--------|--------|--------|--------|--------|
 E|--------|--------|--------|--------|--------|--------|--------|--------|--------|
 B|--------|--------|--------|--------|--------|--------|--------|--------|--------|
F#|--------|--------|--------|--------|--------|--------|--------|--------|--------|
 B|--------|--------|--------|--------|--------|--------|--------|--------|--------|


C#|--------|--------|--------|--------|--------|--------|--------|--------|--------|
G#|--------|--------|--------|--------|--------|--------|--------|--------|--------|
 E|--------|--------|--------|--------|--------|--------|--------|--------|--------|
 B|--------|--------|--------|--------|--------|--------|--------|--------|--------|
F#|--------|--------|--------|--------|--------|--------|--------|--------|--------|
 B|--------|--------|--------|--------|--------|--------|--------|--------|--------|


C#|-------------10---|-10----11--10----------|-------------10---|-10-----------------7-9-109-7--------------------|
G#|------------------|---------------11--9---|------------------|--------------7-9-10----------10-9--7------------|
 E|-8-----7----------|-----------------------|-8-----7----------|-----7--8--10--------------------------10-8--7---|
 B|------------------|-----------------------|------------------|-------------------------------------------------|
F#|------------------|-----------------------|------------------|-------------------------------------------------|
 B|------------------|-----------------------|------------------|-------------------------------------------------|


C#|-------------10---|-10----11--10----------|-------------10---|-10-----------------7-9-109-7--------------------|
G#|------------------|---------------11--9---|------------------|--------------7-9-10----------10-9--7------------|
 E|-8-----7----------|-----------------------|-8-----7----------|-----7--8--10--------------------------10-8--7---|
 B|------------------|-----------------------|------------------|-------------------------------------------------|
F#|------------------|-----------------------|------------------|-------------------------------------------------|
 B|------------------|-----------------------|------------------|-------------------------------------------------|


C#|-------------10---|-10----11--10----------|-------------10---|-10-----------------7-9-109-7--------------------|
G#|------------------|---------------11--9---|------------------|--------------7-9-10----------10-9--7------------|
 E|-8-----7----------|-----------------------|-8-----7----------|-----7--8--10--------------------------10-8--7---|
 B|------------------|-----------------------|------------------|-------------------------------------------------|
F#|------------------|-----------------------|------------------|-------------------------------------------------|
 B|------------------|-----------------------|------------------|-------------------------------------------------|


C#|-------------10---|-10----11--10----------|-------------10---|-10-----------------7-9-109-7--------------------|
G#|------------------|---------------11--9---|------------------|--------------7-9-10----------10-9--7------------|
 E|-8-----7----------|-----------------------|-8-----7----------|-----7--8--10--------------------------10-8--7---|
 B|------------------|-----------------------|------------------|-------------------------------------------------|
F#|------------------|-----------------------|------------------|-------------------------------------------------|
 B|------------------|-----------------------|------------------|-------------------------------------------------|


C#|--------|--------|--------|--------|--------|--------|--------|--------|----------------|
G#|--------|--------|--------|--------|--------|--------|--------|--------|-10-----8---10--|
 E|--------|--------|--------|--------|--------|--------|--------|--------|----------------|
 B|--------|--------|--------|--------|--------|--------|--------|--------|----------------|
F#|--------|--------|--------|--------|--------|--------|--------|--------|----------------|
 B|--------|--------|--------|--------|--------|--------|--------|--------|----------------|


C#|--------|---------------------------------|---------------------------------|----------------|
G#|-8------|---------------------------------|---------------------------------|-10-----8---10--|
 E|--------|-5---0---5---0---5---0---5---0---|-7---0---7---0---7---0---7---0---|----------------|
 B|--------|---------------------------------|---------------------------------|----------------|
F#|--------|---------------------------------|---------------------------------|----------------|
 B|--------|---------------------------------|---------------------------------|----------------|


C#|--------|---------------------------------|---------------------------------|--------|
G#|-8------|---------------------------------|---------------------------------|--------|
 E|--------|-5---0---5---0---5---0---5---0---|-7---0---7---0---7---0---7---0---|--------|
 B|--------|---------------------------------|---------------------------------|--------|
F#|--------|---------------------------------|---------------------------------|--------|
 B|--------|---------------------------------|---------------------------------|--------|


C#|--------|--------|--------|--------|--------|--------|--------|--------|--------|
G#|--------|--------|--------|--------|--------|--------|--------|--------|--------|
 E|--------|--------|--------|--------|--------|--------|--------|--------|--------|
 B|--------|--------|--------|--------|--------|--------|--------|--------|--------|
F#|--------|--------|--------|--------|--------|--------|--------|--------|--------|
 B|--------|--------|--------|--------|--------|--------|--------|--------|--------|


C#|--------|--------|--------|--------|--------|--------|--------|--------|--------|
G#|--------|--------|--------|--------|--------|--------|--------|--------|--------|
 E|--------|--------|--------|--------|--------|--------|--------|--------|--------|
 B|--------|--------|--------|--------|--------|--------|--------|--------|--------|
F#|--------|--------|--------|--------|--------|--------|--------|--------|--------|
 B|--------|--------|--------|--------|--------|--------|--------|--------|--------|


C#|--------|--------|--------|--------|--------|--------|--------|--------|--------|
G#|--------|--------|--------|--------|--------|--------|--------|--------|--------|
 E|--------|--------|--------|--------|--------|--------|--------|--------|--------|
 B|--------|--------|--------|--------|--------|--------|--------|--------|--------|
F#|--------|--------|--------|--------|--------|--------|--------|--------|--------|
 B|--------|--------|--------|--------|--------|--------|--------|--------|--------|


C#|--------|--------|--------|--------|--------|--------|--------|--------|--------|
G#|--------|--------|--------|--------|--------|--------|--------|--------|--------|
 E|--------|--------|--------|--------|--------|--------|--------|--------|--------|
 B|--------|--------|--------|--------|--------|--------|--------|--------|--------|
F#|--------|--------|--------|--------|--------|--------|--------|--------|--------|
 B|--------|--------|--------|--------|--------|--------|--------|--------|--------|


C#|--------|--------|--------|--------|--------|--------|--------|--------|--------|
G#|--------|--------|--------|--------|--------|--------|--------|--------|--------|
 E|--------|--------|--------|--------|--------|--------|--------|--------|--------|
 B|--------|--------|--------|--------|--------|--------|--------|--------|--------|
F#|--------|--------|--------|--------|--------|--------|--------|--------|--------|
 B|--------|--------|--------|--------|--------|--------|--------|--------|--------|


C#|--------|--------|--------|--------|--------|--------|--------|--------|--------|
G#|--------|--------|--------|--------|--------|--------|--------|--------|--------|
 E|--------|--------|--------|--------|--------|--------|--------|--------|--------|
 B|--------|--------|--------|--------|--------|--------|--------|--------|--------|
F#|--------|--------|--------|--------|--------|--------|--------|--------|--------|
 B|--------|--------|--------|--------|--------|--------|--------|--------|--------|


C#|--------|
G#|--------|
 E|--------|
 B|--------|
F#|--------|
 B|--------|





Track 3: Untitled

G|--------|--------|--------|--------|--------|--------|--------|--------|--------|
D|--------|--------|--------|--------|--------|--------|--------|--------|--------|
A|--------|--------|--------|--------|--------|--------|--------|--------|--------|
E|--------|--------|--------|--------|--------|--------|--------|--------|--------|


G|--------|--------|--------|--------|--------|--------|--------|--------|--------|
D|--------|--------|--------|--------|--------|--------|--------|--------|--------|
A|--------|--------|--------|--------|--------|--------|--------|--------|--------|
E|--------|--------|--------|--------|--------|--------|--------|--------|--------|


G|--------|--------|--------|--------|--------|--------|--------|--------|--------|
D|--------|--------|--------|--------|--------|--------|--------|--------|--------|
A|--------|--------|--------|--------|--------|--------|--------|--------|--------|
E|--------|--------|--------|--------|--------|--------|--------|--------|--------|


G|--------|--------|--------|--------|--------|--------|--------|--------|--------|
D|--------|--------|--------|--------|--------|--------|--------|--------|--------|
A|--------|--------|--------|--------|--------|--------|--------|--------|--------|
E|--------|--------|--------|--------|--------|--------|--------|--------|--------|


G|--------|--------|--------|--------|--------|--------|--------|--------|--------|
D|--------|--------|--------|--------|--------|--------|--------|--------|--------|
A|--------|--------|--------|--------|--------|--------|--------|--------|--------|
E|--------|--------|--------|--------|--------|--------|--------|--------|--------|


G|--------|--------|--------|--------|--------|--------|--------|--------|--------|
D|--------|--------|--------|--------|--------|--------|--------|--------|--------|
A|--------|--------|--------|--------|--------|--------|--------|--------|--------|
E|--------|--------|--------|--------|--------|--------|--------|--------|--------|


G|--------|--------|--------|--------|--------|--------|--------|--------|--------|
D|--------|--------|--------|--------|--------|--------|--------|--------|--------|
A|--------|--------|--------|--------|--------|--------|--------|--------|--------|
E|--------|--------|--------|--------|--------|--------|--------|--------|--------|


G|--------|--------|--------|--------|--------|--------|--------|--------|--------|
D|--------|--------|--------|--------|--------|--------|--------|--------|--------|
A|--------|--------|--------|--------|--------|--------|--------|--------|--------|
E|--------|--------|--------|--------|--------|--------|--------|--------|--------|


G|--------|--------|--------|--------|--------|--------|--------|--------|--------|
D|--------|--------|--------|--------|--------|--------|--------|--------|--------|
A|--------|--------|--------|--------|--------|--------|--------|--------|--------|
E|--------|--------|--------|--------|--------|--------|--------|--------|--------|


G|--------|--------|--------|--------|--------|--------|--------|--------|--------|
D|--------|--------|--------|--------|--------|--------|--------|--------|--------|
A|--------|--------|--------|--------|--------|--------|--------|--------|--------|
E|--------|--------|--------|--------|--------|--------|--------|--------|--------|


G|--------|--------|--------|--------|--------|--------|--------|--------|--------|
D|--------|--------|--------|--------|--------|--------|--------|--------|--------|
A|--------|--------|--------|--------|--------|--------|--------|--------|--------|
E|--------|--------|--------|--------|--------|--------|--------|--------|--------|


G|--------|--------|--------|--------|--------|--------|--------|--------|--------|
D|--------|--------|--------|--------|--------|--------|--------|--------|--------|
A|--------|--------|--------|--------|--------|--------|--------|--------|--------|
E|--------|--------|--------|--------|--------|--------|--------|--------|--------|


G|--------|--------|--------|--------|--------|--------|--------|--------|--------|
D|--------|--------|--------|--------|--------|--------|--------|--------|--------|
A|--------|--------|--------|--------|--------|--------|--------|--------|--------|
E|--------|--------|--------|--------|--------|--------|--------|--------|--------|


G|--------|--------|--------|--------|--------|--------|--------|--------|--------|
D|--------|--------|--------|--------|--------|--------|--------|--------|--------|
A|--------|--------|--------|--------|--------|--------|--------|--------|--------|
E|--------|--------|--------|--------|--------|--------|--------|--------|--------|


G|--------|--------|--------|--------|--------|--------|--------|--------|--------|
D|--------|--------|--------|--------|--------|--------|--------|--------|--------|
A|--------|--------|--------|--------|--------|--------|--------|--------|--------|
E|--------|--------|--------|--------|--------|--------|--------|--------|--------|


G|--------|--------|--------|--------|--------|--------|--------|--------|--------|
D|--------|--------|--------|--------|--------|--------|--------|--------|--------|
A|--------|--------|--------|--------|--------|--------|--------|--------|--------|
E|--------|--------|--------|--------|--------|--------|--------|--------|--------|


G|--------|--------|--------|--------|--------|--------|--------|--------|--------|
D|--------|--------|--------|--------|--------|--------|--------|--------|--------|
A|--------|--------|--------|--------|--------|--------|--------|--------|--------|
E|--------|--------|--------|--------|--------|--------|--------|--------|--------|


G|--------|--------|--------|--------|--------|--------|--------|--------|--------|
D|--------|--------|--------|--------|--------|--------|--------|--------|--------|
A|--------|--------|--------|--------|--------|--------|--------|--------|--------|
E|--------|--------|--------|--------|--------|--------|--------|--------|--------|


G|--------|--------|--------|--------|--------|--------|--------|--------|--------|
D|--------|--------|--------|--------|--------|--------|--------|--------|--------|
A|--------|--------|--------|--------|--------|--------|--------|--------|--------|
E|--------|--------|--------|--------|--------|--------|--------|--------|--------|


G|--------|--------|--------|--------|--------|--------|--------|--------|--------|
D|--------|--------|--------|--------|--------|--------|--------|--------|--------|
A|--------|--------|--------|--------|--------|--------|--------|--------|--------|
E|--------|--------|--------|--------|--------|--------|--------|--------|--------|


G|--------|--------|--------|--------|--------|--------|--------|--------|--------|
D|--------|--------|--------|--------|--------|--------|--------|--------|--------|
A|--------|--------|--------|--------|--------|--------|--------|--------|--------|
E|--------|--------|--------|--------|--------|--------|--------|--------|--------|


G|--------|--------|--------|--------|--------|--------|--------|--------|--------|
D|--------|--------|--------|--------|--------|--------|--------|--------|--------|
A|--------|--------|--------|--------|--------|--------|--------|--------|--------|
E|--------|--------|--------|--------|--------|--------|--------|--------|--------|


G|--------|--------|--------|--------|--------|--------|--------|--------|--------|
D|--------|--------|--------|--------|--------|--------|--------|--------|--------|
A|--------|--------|--------|--------|--------|--------|--------|--------|--------|
E|--------|--------|--------|--------|--------|--------|--------|--------|--------|


G|--------|--------|--------|--------|--------|--------|--------|--------|--------|
D|--------|--------|--------|--------|--------|--------|--------|--------|--------|
A|--------|--------|--------|--------|--------|--------|--------|--------|--------|
E|--------|--------|--------|--------|--------|--------|--------|--------|--------|


G|--------|--------|--------|--------|--------|--------|--------|--------|
D|--------|--------|--------|--------|--------|--------|--------|--------|
A|--------|--------|--------|--------|--------|--------|--------|--------|
E|--------|--------|--------|--------|--------|--------|--------|--------|