Menu:

 

Search:

 

slipknot - tattered and torn:

 



Title: Tattered and Torn
Artist: 
Album: Slipknot
Author: Slipknot


Track 1: Distorted Guitar

C#|--------|--------|--------|--------|--------|--------|-18-17-18-------------17-18-17-18----------------|
G#|--------|--------|--------|--------|--------|--------|----------19-20-19-20-------------16-17-16-17-16-|
 E|--------|--------|--------|--------|--------|--------|-------------------------------------------------|
 B|--------|--------|--------|--------|--------|--------|-------------------------------------------------|
F#|--------|--------|--------|--------|--------|--------|-------------------------------------------------|
 B|--------|--------|--------|--------|--------|--------|-------------------------------------------------|


C#|-18-17-18-------------17-18-17-18----------------|-18-17-18-------------17-18-17-18----------------|
G#|----------19-20-19-20-------------16-17-16-17-16-|----------19-20-19-20-------------16-17-16-17-16-|
 E|-------------------------------------------------|-------------------------------------------------|
 B|-------------------------------------------------|-------------------------------------------------|
F#|-------------------------------------------------|-------------------------------------------------|
 B|-------------------------------------------------|-------------------------------------------------|


C#|-18-17-18-------------17-18-17-18----------------|--------|--------|--------|-------------|
G#|----------19-20-19-20-------------16-17-16-17-16-|-16-----|--------|--------|-2------2----|
 E|-------------------------------------------------|--------|--------|--------|-------------|
 B|-------------------------------------------------|--------|--------|--------|-------------|
F#|-------------------------------------------------|--------|--------|--------|-------------|
 B|-------------------------------------------------|--------|--------|--------|-------------|


C#|-18-17-18-------------17-18-17-18----------------|-18-17-18-------------17-18-17-18----------------|
G#|----------19-20-19-20-------------16-17-16-17-16-|----------19-20-19-20-------------16-17-16-17-16-|
 E|-------------------------------------------------|-------------------------------------------------|
 B|-------------------------------------------------|-------------------------------------------------|
F#|-------------------------------------------------|-------------------------------------------------|
 B|-------------------------------------------------|-------------------------------------------------|


C#|-18-17-18-------------17-18-17-18----------------|-18-17-18-------------17-18-17-18----------------|
G#|----------19-20-19-20-------------16-17-16-17-16-|----------19-20-19-20-------------16-17-16-17-16-|
 E|-------------------------------------------------|-------------------------------------------------|
 B|-------------------------------------------------|-------------------------------------------------|
F#|-------------------------------------------------|-------------------------------------------------|
 B|-------------------------------------------------|-------------------------------------------------|


C#|-18----18--------|-18----18--------|-18----18--------|-18----18--------|-18-17-18-------------17-18-17-18----------------|
G#|-----------------|-----------------|-----------------|-----------------|----------19-20-19-20-------------16-17-16-17-16-|
 E|-----------------|-----------------|-----------------|-----------------|-------------------------------------------------|
 B|-----------------|-----------------|-----------------|-----------------|-------------------------------------------------|
F#|-----------------|-----------------|-----------------|-----------------|-------------------------------------------------|
 B|-----------------|-----------------|-----------------|-----------------|-------------------------------------------------|


C#|-18-17-18-------------17-18-17-18----------------|-18-17-18-------------17-18-17-18----------------|
G#|----------19-20-19-20-------------16-17-16-17-16-|----------19-20-19-20-------------16-17-16-17-16-|
 E|-------------------------------------------------|-------------------------------------------------|
 B|-------------------------------------------------|-------------------------------------------------|
F#|-------------------------------------------------|-------------------------------------------------|
 B|-------------------------------------------------|-------------------------------------------------|


C#|-18-17-18-------------17-18-17-18----------------|-18----18--------|-18----18--------|
G#|----------19-20-19-20-------------16-17-16-17-16-|-----------------|-----------------|
 E|-------------------------------------------------|-----------------|-----------------|
 B|-------------------------------------------------|-----------------|-----------------|
F#|-------------------------------------------------|-----------------|-----------------|
 B|-------------------------------------------------|-----------------|-----------------|


C#|-18----18--------|-18----18--------|-18-17-18-------------17-18-17-18----------------|
G#|-----------------|-----------------|----------19-20-19-20-------------16-17-16-17-16-|
 E|-----------------|-----------------|-------------------------------------------------|
 B|-----------------|-----------------|-------------------------------------------------|
F#|-----------------|-----------------|-------------------------------------------------|
 B|-----------------|-----------------|-------------------------------------------------|


C#|-18-17-18-------------17-18-17-18----------------|-18-17-18-------------17-18-17-18----------------|
G#|----------19-20-19-20-------------16-17-16-17-16-|----------19-20-19-20-------------16-17-16-17-16-|
 E|-------------------------------------------------|-------------------------------------------------|
 B|-------------------------------------------------|-------------------------------------------------|
F#|-------------------------------------------------|-------------------------------------------------|
 B|-------------------------------------------------|-------------------------------------------------|


C#|-18-17-18-------------17-18-17-18----------------|-18----18--------|-18----18--------|
G#|----------19-20-19-20-------------16-17-16-17-16-|-----------------|-----------------|
 E|-------------------------------------------------|-----------------|-----------------|
 B|-------------------------------------------------|-----------------|-----------------|
F#|-------------------------------------------------|-----------------|-----------------|
 B|-------------------------------------------------|-----------------|-----------------|


C#|-18----18--------|-18----18--------|-18-17-18-------------17-18-17-18----------------|
G#|-----------------|-----------------|----------19-20-19-20-------------16-17-16-17-16-|
 E|-----------------|-----------------|-------------------------------------------------|
 B|-----------------|-----------------|-------------------------------------------------|
F#|-----------------|-----------------|-------------------------------------------------|
 B|-----------------|-----------------|-------------------------------------------------|


C#|-18-17-18-------------17-18-17-18----------------|-18-17-18-------------17-18-17-18----------------|
G#|----------19-20-19-20-------------16-17-16-17-16-|----------19-20-19-20-------------16-17-16-17-16-|
 E|-------------------------------------------------|-------------------------------------------------|
 B|-------------------------------------------------|-------------------------------------------------|
F#|-------------------------------------------------|-------------------------------------------------|
 B|-------------------------------------------------|-------------------------------------------------|


C#|-18-17-18-------------17-18-17-18----------------|-18----18--------|-18----18--------|
G#|----------19-20-19-20-------------16-17-16-17-16-|-----------------|-----------------|
 E|-------------------------------------------------|-----------------|-----------------|
 B|-------------------------------------------------|-----------------|-----------------|
F#|-------------------------------------------------|-----------------|-----------------|
 B|-------------------------------------------------|-----------------|-----------------|


C#|-18----18--------|-18----18--------|-18-17-18-------------17-18-17-18----------------|
G#|-----------------|-----------------|----------19-20-19-20-------------16-17-16-17-16-|
 E|-----------------|-----------------|-------------------------------------------------|
 B|-----------------|-----------------|-------------------------------------------------|
F#|-----------------|-----------------|-------------------------------------------------|
 B|-----------------|-----------------|-------------------------------------------------|


C#|-18-17-18-------------17-18-17-18----------------|-18-17-18-------------17-18-17-18----------------|
G#|----------19-20-19-20-------------16-17-16-17-16-|----------19-20-19-20-------------16-17-16-17-16-|
 E|-------------------------------------------------|-------------------------------------------------|
 B|-------------------------------------------------|-------------------------------------------------|
F#|-------------------------------------------------|-------------------------------------------------|
 B|-------------------------------------------------|-------------------------------------------------|


C#|-18-17-18---------------|-----------------------------------------|-----------------------------------------|
G#|----------19-19---------|-----------------------------------------|-----------------------------------------|
 E|------------------------|-----------------------------------------|-----------------------------------------|
 B|------------------------|-----------------------------------------|-----------------------------------------|
F#|------------------------|-0--0---0--1--0---0--3--0---0--1--0--4---|-0--0---0--1--0---0--3--0---0--1--0--4---|
 B|------------------------|-0--0---0--1--0---0--3--0---0--1--0--4---|-0--0---0--1--0---0--3--0---0--1--0--4---|


C#|-----------------------------------------|-----------------------------------------|
G#|-----------------------------------------|-----------------------------------------|
 E|-----------------------------------------|-----------------------------------------|
 B|-----------------------------------------|-----------------------------------------|
F#|-0--0---0--1--0---0--3--0---0--1--0--4---|-0--0---0--1--0---0--3--0---0--1--0--4---|
 B|-0--0---0--1--0---0--3--0---0--1--0--4---|-0--0---0--1--0---0--3--0---0--1--0--4---|


C#|-----------------------------------------------|-----------------------------------------------|
G#|-----------------------------------------------|-----------------------------------------------|
 E|-----------------------------------------------|-----------------------------------------------|
 B|-----------------------------------------------|-----------------------------------------------|
F#|-0--0--0--0--1--0--0--0--3--0--0--0--1--0--4---|-0--0--0--0--1--0--0--0--3--0--0--0--1--0--4---|
 B|-0--0--0--0--1--0--0--0--3--0--0--0--1--0--4---|-0--0--0--0--1--0--0--0--3--0--0--0--1--0--4---|


C#|-----------------------------------------------|-----------------------------------------------|
G#|-----------------------------------------------|-----------------------------------------------|
 E|-----------------------------------------------|-----------------------------------------------|
 B|-----------------------------------------------|-----------------------------------------------|
F#|-0--0--0--0--1--0--0--0--3--0--0--0--1--0--4---|-0--0--0--0--1--0--0--0--3--0--0--0--1--0--4---|
 B|-0--0--0--0--1--0--0--0--3--0--0--0--1--0--4---|-0--0--0--0--1--0--0--0--3--0--0--0--1--0--4---|





Track 2: Bass

 E|--------|--------|--------|--------|--------|--------|--------|--------|--------|
 B|--------|--------|--------|--------|--------|--------|--------|--------|--------|
F#|--------|--------|--------|--------|--------|--------|--------|--------|--------|
 B|--------|--------|--------|--------|--------|--------|--------|--------|--------|


 E|--------|-------------------------------------------|-------------------------------------------|
 B|--------|-------------------------------------------|-------------------------------------------|
F#|--------|-------------------------------------------|-------------------------------------------|
 B|--------|-1--0---0--1--0---1--3--0---1--0--1--0--1--|-1--0---0--1--0---1--3--0---1--0--1--0--1--|


 E|-------------------------------------------|-------------------------------------------|
 B|-------------------------------------------|-------------------------------------------|
F#|-------------------------------------------|-------------------------------------------|
 B|-1--0---0--1--0---1--3--0---1--0--1--0--1--|-1--0---0--1--0---1--3--0---1--0--1--0--1--|


 E|-------------------------------------------|-------------------------------------------|
 B|-------------------------------------------|-------------------------------------------|
F#|-------------------------------------------|-------------------------------------------|
 B|-1--0---0--1--0---1--3--0---1--0--1--0--1--|-1--0---0--1--0---1--3--0---1--0--1--0--1--|


 E|-------------------------------------------|-------------------------------------------|
 B|-------------------------------------------|-------------------------------------------|
F#|-------------------------------------------|-------------------------------------------|
 B|-1--0---0--1--0---1--3--0---1--0--1--0--1--|-1--0---0--1--0---1--3--0---1--0--1--0--1--|


 E|-------------------------------------------|-------------------------------------------|
 B|-------------------------------------------|-------------------------------------------|
F#|-------------------------------------------|-------------------------------------------|
 B|-1--0---0--1--0---1--3--0---1--0--1--0--1--|-1--0---0--1--0---1--3--0---1--0--1--0--1--|


 E|-------------------------------------------|-------------------------------------------|
 B|-------------------------------------------|-------------------------------------------|
F#|-------------------------------------------|-------------------------------------------|
 B|-1--0---0--1--0---1--3--0---1--0--1--0--1--|-1--0---0--1--0---1--3--0---1--0--1--0--1--|


 E|-------------------------------------------|-------------------------------------------|
 B|-------------------------------------------|-------------------------------------------|
F#|-------------------------------------------|-------------------------------------------|
 B|-1--0---0--1--0---1--3--0---1--0--1--0--1--|-1--0---0--1--0---1--3--0---1--0--1--0--1--|


 E|-------------------------------------------|-------------------------------------------|
 B|-------------------------------------------|-------------------------------------------|
F#|-------------------------------------------|-------------------------------------------|
 B|-1--0---0--1--0---1--3--0---1--0--1--0--1--|-1--0---0--1--0---1--3--0---1--0--1--0--1--|


 E|-------------------------------------------|-------------------------------------------|
 B|-------------------------------------------|-------------------------------------------|
F#|-------------------------------------------|-------------------------------------------|
 B|-1--0---0--1--0---1--3--0---1--0--1--0--1--|-1--0---0--1--0---1--3--0---1--0--1--0--1--|


 E|-------------------------------------------|-------------------------------------------|
 B|-------------------------------------------|-------------------------------------------|
F#|-------------------------------------------|-------------------------------------------|
 B|-1--0---0--1--0---1--3--0---1--0--1--0--1--|-1--0---0--1--0---1--3--0---1--0--1--0--1--|


 E|-------------------------------------------|-------------------------------------------|
 B|-------------------------------------------|-------------------------------------------|
F#|-------------------------------------------|-------------------------------------------|
 B|-1--0---0--1--0---1--3--0---1--0--1--0--1--|-1--0---0--1--0---1--3--0---1--0--1--0--1--|


 E|-------------------------------------------|-------------------------------------------|
 B|-------------------------------------------|-------------------------------------------|
F#|-------------------------------------------|-------------------------------------------|
 B|-1--0---0--1--0---1--3--0---1--0--1--0--1--|-1--0---0--1--0---1--3--0---1--0--1--0--1--|


 E|-------------------------------------------|-------------------------------------------|
 B|-------------------------------------------|-------------------------------------------|
F#|-------------------------------------------|-------------------------------------------|
 B|-1--0---0--1--0---1--3--0---1--0--1--0--1--|-1--0---0--1--0---1--3--0---1--0--1--0--1--|


 E|-------------------------------------------|-------------------------------------------|
 B|-------------------------------------------|-------------------------------------------|
F#|-------------------------------------------|-------------------------------------------|
 B|-1--0---0--1--0---1--3--0---1--0--1--0--1--|-1--0---0--1--0---1--3--0---1--0--1--0--1--|


 E|-------------------------------------------|-------------------------------------------|
 B|-------------------------------------------|-------------------------------------------|
F#|-------------------------------------------|-------------------------------------------|
 B|-1--0---0--1--0---1--3--0---1--0--1--0--1--|-1--0---0--1--0---1--3--0---1--0--1--0--1--|


 E|-------------------------------------------|-------------------------------------------|
 B|-------------------------------------------|-------------------------------------------|
F#|-------------------------------------------|-------------------------------------------|
 B|-1--0---0--1--0---1--3--0---1--0--1--0--1--|-1--0---0--1--0---1--3--0---1--0--1--0--1--|


 E|-------------------------------------------|-------------------------------------------|
 B|-------------------------------------------|-------------------------------------------|
F#|-------------------------------------------|-------------------------------------------|
 B|-1--0---0--1--0---1--3--0---1--0--1--0--1--|-1--0---0--1--0---1--3--0---1--0--1--0--1--|


 E|-------------------------------------------|-------------------------------------------|
 B|-------------------------------------------|-------------------------------------------|
F#|-------------------------------------------|-------------------------------------------|
 B|-1--0---0--1--0---1--3--0---1--0--1--0--1--|-1--0---0--1--0---1--3--0---1--0--1--0--1--|


 E|-------------------------------------------|-------------------------------------------|
 B|-------------------------------------------|-------------------------------------------|
F#|-------------------------------------------|-------------------------------------------|
 B|-1--0---0--1--0---1--3--0---1--0--1--0--1--|-1--0---0--1--0---1--3--0---1--0--1--0--1--|


 E|-------------------------------------------|-------------------------------------------|
 B|-------------------------------------------|-------------------------------------------|
F#|-------------------------------------------|-------------------------------------------|
 B|-1--0---0--1--0---1--3--0---1--0--1--0--1--|-1--0---0--1--0---1--3--0---1--0--1--0--1--|


 E|-----------------------------------------|-----------------------------------------|
 B|-----------------------------------------|-----------------------------------------|
F#|-----------------------------------------|-----------------------------------------|
 B|-0--0---0--1--0---0--3--0---0--1--0--4---|-0--0---0--1--0---0--3--0---0--1--0--4---|


 E|-----------------------------------------|-----------------------------------------|
 B|-----------------------------------------|-----------------------------------------|
F#|-----------------------------------------|-----------------------------------------|
 B|-0--0---0--1--0---0--3--0---0--1--0--4---|-0--0---0--1--0---0--3--0---0--1--0--4---|


 E|-----------------------------------------------|-----------------------------------------------|
 B|-----------------------------------------------|-----------------------------------------------|
F#|-----------------------------------------------|-----------------------------------------------|
 B|-0--0--0--0--1--0--0--0--3--0--0--0--1--0--4---|-0--0--0--0--1--0--0--0--3--0--0--0--1--0--4---|


 E|-----------------------------------------------|-----------------------------------------------|
 B|-----------------------------------------------|-----------------------------------------------|
F#|-----------------------------------------------|-----------------------------------------------|
 B|-0--0--0--0--1--0--0--0--3--0--0--0--1--0--4---|-0--0--0--0--1--0--0--0--3--0--0--0--1--0--4---|