Menu:

 

Search:

 

slipknot - scream:

 



Title: Scream
Artist: 
Album: Volume 3: The Subliminal Verses Japnanese Release
Author: Slipknot


Track 1: Mick

C#|------------------------------|------------------------------|------------------------------|
G#|------------------------------|------------------------------|------------------------------|
 E|------------------------------|------------------------------|------------------------------|
 B|-3---2--------3---2---3---4---|-3---2--------7---6---7---8---|-3---2--------3---2---3---4---|
F#|-3---2---4----3---2---3---4---|-3---2---5----7---6---7---8---|-3---2---4----3---2---3---4---|
 B|-3---2--------3---2---3---4---|-3---2--------7---6---7---8---|-3---2--------3---2---3---4---|


C#|------------------------------|------------------------------|------------------------------|
G#|------------------------------|------------------------------|------------------------------|
 E|------------------------------|------------------------------|------------------------------|
 B|-3---2--------7---6---7---8---|-3---2--------3---2---3---4---|-3---2--------7---6---7---8---|
F#|-3---2---5----7---6---7---8---|-3---2---4----3---2---3---4---|-3---2---5----7---6---7---8---|
 B|-3---2--------7---6---7---8---|-3---2--------3---2---3---4---|-3---2--------7---6---7---8---|


C#|------------------------------|------------------------------|------------------------------|
G#|------------------------------|------------------------------|------------------------------|
 E|------------------------------|------------------------------|------------------------------|
 B|-3---2--------3---2---3---4---|-3---2--------7---6---7---8---|-3---2--------3---2---3---4---|
F#|-3---2---4----3---2---3---4---|-3---2---5----7---6---7---8---|-3---2---4----3---2---3---4---|
 B|-3---2--------3---2---3---4---|-3---2--------7---6---7---8---|-3---2--------3---2---3---4---|


C#|------------------------------|------------------------------|------------------------------|
G#|------------------------------|------------------------------|------------------------------|
 E|------------------------------|------------------------------|------------------------------|
 B|-3---2--------7---6---7---8---|-3---2--------3---2---3---4---|-3---2--------7---6---7---8---|
F#|-3---2---5----7---6---7---8---|-3---2---4----3---2---3---4---|-3---2---5----7---6---7---8---|
 B|-3---2--------7---6---7---8---|-3---2--------3---2---3---4---|-3---2--------7---6---7---8---|


C#|------------------------------|------------------------------|------------------------------|
G#|------------------------------|------------------------------|------------------------------|
 E|------------------------------|------------------------------|------------------------------|
 B|-3---2--------3---2---3---4---|-3---2--------7---6---7---8---|-3---2--------3---2---3---4---|
F#|-3---2---4----3---2---3---4---|-3---2---5----7---6---7---8---|-3---2---4----3---2---3---4---|
 B|-3---2--------3---2---3---4---|-3---2--------7---6---7---8---|-3---2--------3---2---3---4---|


C#|------------------------------|-----------------------------------------|-----------------------------------------|
G#|------------------------------|-----------------------------------------|-----------------------------------------|
 E|------------------------------|-----------------------------------------|-----------------------------------------|
 B|-3---2--------7---6---7---8---|-----------------------------------------|-----------------------------------------|
F#|-3---2---5----7---6---7---8---|-----------------------------------------|-----------------------------------------|
 B|-3---2--------7---6---7---8---|-0--3--6--0---3--6--0---3--6--0---3--6---|-0--3--6--0---3--6--0---3--6--0---3--6---|


C#|-----------------------------------------|--------------------------------------|
G#|-----------------------------------------|--------------------------------------|
 E|-----------------------------------------|--------------------------------------|
 B|-----------------------------------------|-----------------------------6---3----|
F#|-----------------------------------------|-----------------------------6---3----|
 B|-0--3--6--0---0--3--0---3--6--0---3--6---|-0--3--6--0---3--3--3--0--0--6---3----|


C#|-----------------------------------------|-----------------------------------------|
G#|-----------------------------------------|-----------------------------------------|
 E|-----------------------------------------|-----------------------------------------|
 B|-----------------------------------------|-----------------------------------------|
F#|-----------------------------------------|-----------------------------------------|
 B|-0--3--6--0---3--6--0---3--6--0---3--6---|-0--3--6--0---3--6--0---3--6--0---3--6---|


C#|-----------------------------------------|--------------------------------------|
G#|-----------------------------------------|--------------------------------------|
 E|-----------------------------------------|--------------------------------------|
 B|-----------------------------------------|-----------------------------6---3----|
F#|-----------------------------------------|-----------------------------6---3----|
 B|-0--3--6--0---0--3--0---3--6--0---3--6---|-0--3--6--0---3--3--3--0--0--6---3----|


C#|---------------------------------------------|---------------------------------------------|
G#|---------------------------------------------|---------------------------------------------|
 E|---------------------------------------------|---------------------------------------------|
 B|---------------------------------------------|---------------------------------------------|
F#|---------------------------------------------|---------------------------------------------|
 B|-3--0--0--0------0--0--0--0------0--3--0--6--|-3--0--0--0------0--0--0--0------0--3--0--6--|


C#|---------------------------------------------|-------------------------------------------|
G#|---------------------------------------------|-------------------------------------------|
 E|---------------------------------------------|-------------------------------------------|
 B|---------------------------------------------|-----------------------------------3---6---|
F#|---------------------------------------------|-----------------------------0--0--3---6---|
 B|-3--0--0--0------0--0--0--0------0--3--0--6--|-3--0--0--0------0--0--0--0--0--0--3---6---|


C#|---------------------------------------------|---------------------------------------------|
G#|---------------------------------------------|---------------------------------------------|
 E|---------------------------------------------|---------------------------------------------|
 B|---------------------------------------------|---------------------------------------------|
F#|---------------------------------------------|---------------------------------------------|
 B|-3--0--0--0------0--0--0--0------0--3--0--6--|-3--0--0--0------0--0--0--0------0--3--0--6--|


C#|---------------------------------------------|-------------------------------------------|
G#|---------------------------------------------|-------------------------------------------|
 E|---------------------------------------------|-------------------------------------------|
 B|---------------------------------------------|-----------------------------------3---6---|
F#|---------------------------------------------|-----------------------------0--0--3---6---|
 B|-3--0--0--0------0--0--0--0------0--3--0--6--|-3--0--0--0------0--0--0--0--0--0--3---6---|


C#|---------------------------------------------|---------------------------------------------|
G#|---------------------------------------------|---------------------------------------------|
 E|---------------------------------------------|---------------------------------------------|
 B|---------------------------------------------|---------------------------------------------|
F#|---------------------------------------------|---------------------------------------------|
 B|-3--0--0--0------0--0--0--0------0--3--0--6--|-3--0--0--0------0--0--0--0------0--3--0--6--|


C#|---------------------------------------------|-------------------------------------------|
G#|---------------------------------------------|-------------------------------------------|
 E|---------------------------------------------|-------------------------------------------|
 B|---------------------------------------------|-----------------------------------3---6---|
F#|---------------------------------------------|-----------------------------0--0--3---6---|
 B|-3--0--0--0------0--0--0--0------0--3--0--6--|-3--0--0--0------0--0--0--0--0--0--3---6---|


C#|---------------------------------------------|---------------------------------------------|
G#|---------------------------------------------|---------------------------------------------|
 E|---------------------------------------------|---------------------------------------------|
 B|---------------------------------------------|---------------------------------------------|
F#|---------------------------------------------|---------------------------------------------|
 B|-3--0--0--0------0--0--0--0------0--3--0--6--|-3--0--0--0------0--0--0--0------0--3--0--6--|


C#|---------------------------------------------|-------------------------------------------|
G#|---------------------------------------------|-------------------------------------------|
 E|---------------------------------------------|-------------------------------------------|
 B|---------------------------------------------|-----------------------------------3---6---|
F#|---------------------------------------------|-----------------------------0--0--3---6---|
 B|-3--0--0--0------0--0--0--0------0--3--0--6--|-3--0--0--0------0--0--0--0--0--0--3---6---|


C#|-----------------------------------------|----------------|-----------------------------------------|
G#|-----------------------------------------|----------------|-----------------------------------------|
 E|-----------------------------------------|-5-----5--8-----|-----------------------------------------|
 B|-----------------------------------------|----------------|-----------------------------------------|
F#|-----------------------------------------|-3-----3--6-----|-----------------------------------------|
 B|-0--3--6--0---3--6--0---3--6--0---3--6---|----------------|-0--3--6--0---3--6--0---3--6--0---3--6---|


C#|----------------|-----------------------------------------|----------------|-----------------------------------------|
G#|----------------|-----------------------------------------|----------------|-----------------------------------------|
 E|-5-----5--8-----|-----------------------------------------|-5-----5--8-----|-----------------------------------------|
 B|----------------|-----------------------------------------|----------------|-----------------------------------------|
F#|-3-----3--6-----|-----------------------------------------|-3-----3--6-----|-----------------------------------------|
 B|----------------|-0--3--6--0---3--6--0---3--6--0---3--6---|----------------|-0--3--6--0---3--6--0---3--6--0---3--6---|


C#|----------------|---------------------------------------------|---------------------------------------------|
G#|----------------|---------------------------------------------|---------------------------------------------|
 E|-5-----5--8-----|---------------------------------------------|---------------------------------------------|
 B|----------------|---------------------------------------------|---------------------------------------------|
F#|-3-----3--6-----|---------------------------------------------|---------------------------------------------|
 B|----------------|-3--0--0--0------0--0--0--0------0--3--0--6--|-3--0--0--0------0--0--0--0------0--3--0--6--|


C#|---------------------------------------------|-----------------------------------------|
G#|---------------------------------------------|-----------------------------------------|
 E|---------------------------------------------|-----------------------------------------|
 B|---------------------------------------------|---------------------------------3---6---|
F#|---------------------------------------------|---------------------------------3---6---|
 B|-3--0--0--0------0--0--0--0------0--3--0--6--|-3--0--0--0------0--0--0--0------3---6---|


C#|---------------------------------------------|---------------------------------------------|
G#|---------------------------------------------|---------------------------------------------|
 E|---------------------------------------------|---------------------------------------------|
 B|---------------------------------------------|---------------------------------------------|
F#|---------------------------------------------|---------------------------------------------|
 B|-3--0--0--0------0--0--0--0------0--3--0--6--|-3--0--0--0------0--0--0--0------0--3--0--6--|


C#|---------------------------------------------|-------------------------------------------|
G#|---------------------------------------------|-------------------------------------------|
 E|---------------------------------------------|-------------------------------------------|
 B|---------------------------------------------|-----------------------------------3---6---|
F#|---------------------------------------------|-----------------------------0--0--3---6---|
 B|-3--0--0--0------0--0--0--0------0--3--0--6--|-3--0--0--0------0--0--0--0--0--0--3---6---|


C#|---------------------------------------------|---------------------------------------------|
G#|---------------------------------------------|---------------------------------------------|
 E|---------------------------------------------|---------------------------------------------|
 B|---------------------------------------------|---------------------------------------------|
F#|---------------------------------------------|---------------------------------------------|
 B|-3--0--0--0------0--0--0--0------0--3--0--6--|-3--0--0--0------0--0--0--0------0--3--0--6--|


C#|---------------------------------------------|-------------------------------------------|
G#|---------------------------------------------|-------------------------------------------|
 E|---------------------------------------------|-------------------------------------------|
 B|---------------------------------------------|-----------------------------------3---6---|
F#|---------------------------------------------|-----------------------------0--0--3---6---|
 B|-3--0--0--0------0--0--0--0------0--3--0--6--|-3--0--0--0------0--0--0--0--0--0--3---6---|


C#|-----------------------------------------|----------------|-----------------------------------------|
G#|-----------------------------------------|----------------|-----------------------------------------|
 E|-----------------------------------------|-5-----5--8-----|-----------------------------------------|
 B|-----------------------------------------|----------------|-----------------------------------------|
F#|-----------------------------------------|-3-----3--6-----|-----------------------------------------|
 B|-0--3--6--0---3--6--0---3--6--0---3--6---|----------------|-0--3--6--0---3--6--0---3--6--0---3--6---|


C#|----------------|-----------------------------------------|----------------|-----------------------------------------|
G#|----------------|-----------------------------------------|----------------|-----------------------------------------|
 E|-5-----5--8-----|-----------------------------------------|-5-----5--8-----|-----------------------------------------|
 B|----------------|-----------------------------------------|----------------|-----------------------------------------|
F#|-3-----3--6-----|-----------------------------------------|-3-----3--6-----|-----------------------------------------|
 B|----------------|-0--3--6--0---3--6--0---3--6--0---3--6---|----------------|-0--3--6--0---3--6--0---3--6--0---3--6---|


C#|----------------|-----------------------|-----------------|--------------------|
G#|----------------|-----------------------|-----------------|--------------------|
 E|-5-----5--8-----|-------------10----9---|-------7---------|---------10----9----|
 B|----------------|-10--10--10------------|-------------10--|-10--10-------------|
F#|-3-----3--6-----|-10--10--10--8-----7---|-------5-----10--|-10--10--8-----7----|
 B|----------------|-10--10--10------------|-------------10--|-10--10-------------|


C#|--------------------|-----------------|-----------------------|-------------|-----------------------|
G#|--------------------|-----------------|-----------------------|-------------|-----------------------|
 E|------7-------------|-----10----9-----|-----7-----------------|-10----9-----|-7-----------------10--|
 B|------------10--10--|-10--------------|-----------10--10--10--|-------------|-------10--10--10------|
F#|------5-----10--10--|-10--8-----7-----|-----5-----10--10--10--|-8-----7-----|-5-----10--10--10--8---|
 B|------------10--10--|-10--------------|-----------10--10--10--|-------------|-------10--10--10------|


C#|-----------------|------------------------|-----------------|------------------------|
G#|-----------------|------------------------|-----------------|------------------------|
 E|-------9-----7---|-------------------10---|------9-----7----|------------------10----|
 B|-----------------|-------10--10--10-------|-----------------|------10--10--10--------|
F#|-------7-----5---|-------10--10--10--8----|------7-----5----|------10--10--10--8-----|
 B|-----------------|-------10--10--10-------|-----------------|------10--10--10--------|


C#|-----------------|-----------------------|-------------|-------------------------------------------------|
G#|-----------------|-----------------------|-------------|-------------------------------------------------|
 E|-----9-----7-----|-----------------10----|-9-----7-----|-------9--9--------9--9--10-10-7--7--9--9--5--5--|
 B|-----------------|-----10--10--10--------|-------------|-7--7--------7--7--------------------------------|
F#|-----7-----5-----|-----10--10--10--8-----|-7-----5-----|-------------------------------------------------|
 B|-----------------|-----10--10--10--------|-------------|-------------------------------------------------|


C#|-------------------------------------------------|-------------------------------------------------|
G#|-------------------------------------------------|-------------------------------------------------|
 E|-------9--9--------9--9--7--7--5--5--------------|-------9--9--------9--9--10-10-7--7--9--9--5--5--|
 B|-6--6--------6--6--------------------9--9--6--6--|-7--7--------7--7--------------------------------|
F#|-------------------------------------------------|-------------------------------------------------|
 B|-------------------------------------------------|-------------------------------------------------|


C#|-------------------------------------------------|-------------------------------------------------|
G#|-------------------------------------------------|-------------------------------------------------|
 E|-------9--9--------9--9--7--7--5--5--------------|-------9--9--------9--9--10-10-7--7--9--9--5--5--|
 B|-6--6--------6--6--------------------9--9--6--6--|-7--7--------7--7--------------------------------|
F#|-------------------------------------------------|-------------------------------------------------|
 B|-------------------------------------------------|-------------------------------------------------|


C#|-------------------------------------------------|-------------------------------------------------|
G#|-------------------------------------------------|-------------------------------------------------|
 E|-------9--9--------9--9--7--7--5--5--------------|-------9--9--------9--9--10-10-7--7--9--9--5--5--|
 B|-6--6--------6--6--------------------9--9--6--6--|-7--7--------7--7--------------------------------|
F#|-------------------------------------------------|-------------------------------------------------|
 B|-------------------------------------------------|-------------------------------------------------|


C#|-------------------------------------------------|-------------------------------------------------|
G#|-------------------------------------------------|-------------------------------------------------|
 E|-------9--9--------9--9--7--7--5--5--------------|-------9--9--------9--9--10-10-7--7--9--9--5--5--|
 B|-6--6--------6--6--------------------9--9--6--6--|-7--7--------7--7--------------------------------|
F#|-------------------------------------------------|-------------------------------------------------|
 B|-------------------------------------------------|-------------------------------------------------|


C#|-------------------------------------------------|-------------------------------------------------|
G#|-------------------------------------------------|-------------------------------------------------|
 E|-------9--9--------9--9--7--7--5--5--------------|-------9--9--------9--9--10-10-7--7--9--9--5--5--|
 B|-6--6--------6--6--------------------9--9--6--6--|-7--7--------7--7--------------------------------|
F#|-------------------------------------------------|-------------------------------------------------|
 B|-------------------------------------------------|-------------------------------------------------|


C#|-------------------------------------------------|-----12------12--13--10--12--8---|
G#|-------------------------------------------------|-10------10----------------------|
 E|-------9--9--------9--9--7--7--5--5--------------|---------------------------------|
 B|-6--6--------6--6--------------------9--9--6--6--|---------------------------------|
F#|-------------------------------------------------|---------------------------------|
 B|-------------------------------------------------|---------------------------------|


C#|-----12------12--10--8-----------|-----12------12--13--10--12--8---|-----12------12--10--8-----------|
G#|-9-------9---------------12--9---|-10------10----------------------|-9-------9---------------12--9---|
 E|---------------------------------|---------------------------------|---------------------------------|
 B|---------------------------------|---------------------------------|---------------------------------|
F#|---------------------------------|---------------------------------|---------------------------------|
 B|---------------------------------|---------------------------------|---------------------------------|


C#|-----12------12--13--10--12--8---|-----12------12--10--8-----------|-----12------12--13--10--12--8---|
G#|-10------10----------------------|-9-------9---------------12--9---|-10------10----------------------|
 E|---------------------------------|---------------------------------|---------------------------------|
 B|---------------------------------|---------------------------------|---------------------------------|
F#|---------------------------------|---------------------------------|---------------------------------|
 B|---------------------------------|---------------------------------|---------------------------------|


C#|-----12------12--10--8-----------|------------------------------|------------------------------|
G#|-9-------9---------------12--9---|------------------------------|------------------------------|
 E|---------------------------------|------------------------------|------------------------------|
 B|---------------------------------|-3---2--------3---2---3---4---|-3---2--------7---6---7---8---|
F#|---------------------------------|-3---2--------3---2---3---4---|-3---2--------7---6---7---8---|
 B|---------------------------------|-3---2---3----3---2---3---4---|-3---2---6----7---6---7---8---|


C#|------------------------------|------------------------------|------------------------------|
G#|------------------------------|------------------------------|------------------------------|
 E|------------------------------|------------------------------|------------------------------|
 B|-3---2--------3---2---3---4---|-3---2--------7---6---7---8---|-3---2--------3---2---3---4---|
F#|-3---2--------3---2---3---4---|-3---2--------7---6---7---8---|-3---2--------3---2---3---4---|
 B|-3---2---3----3---2---3---4---|-3---2---6----7---6---7---8---|-3---2---3----3---2---3---4---|


C#|------------------------------|------------------------------|------------------------------|
G#|------------------------------|------------------------------|------------------------------|
 E|------------------------------|------------------------------|------------------------------|
 B|-3---2--------7---6---7---8---|-3---2--------3---2---3---4---|-3---2--------7---6---7---8---|
F#|-3---2--------7---6---7---8---|-3---2--------3---2---3---4---|-3---2--------7---6---7---8---|
 B|-3---2---6----7---6---7---8---|-3---2---3----3---2---3---4---|-3---2---6----7---6---7---8---|


C#|--------|-----------------------|-----------------|--------------------|--------------------|
G#|--------|-----------------------|-----------------|--------------------|--------------------|
 E|--------|-------------10----9---|-------7---------|---------10----9----|------7-------------|
 B|-8------|-10--10--10------------|-------------10--|-10--10-------------|------------10--10--|
F#|-8------|-10--10--10--8-----7---|-------5-----10--|-10--10--8-----7----|------5-----10--10--|
 B|-8------|-10--10--10------------|-------------10--|-10--10-------------|------------10--10--|


C#|-----------------|-----------------------|-------------|-----------------------|
G#|-----------------|-----------------------|-------------|-----------------------|
 E|-----10----9-----|-----7-----------------|-10----9-----|-7-----------------10--|
 B|-10--------------|-----------10--10--10--|-------------|-------10--10--10------|
F#|-10--8-----7-----|-----5-----10--10--10--|-8-----7-----|-5-----10--10--10--8---|
 B|-10--------------|-----------10--10--10--|-------------|-------10--10--10------|


C#|-----------------|------------------------|-----------------|------------------------|
G#|-----------------|------------------------|-----------------|------------------------|
 E|-------9-----7---|-------------------10---|------12----14---|------------------10----|
 B|-----------------|-------10--10--10-------|-----------------|------10--10--10--------|
F#|-------7-----5---|-------10--10--10--8----|------10----12---|------10--10--10--8-----|
 B|-----------------|-------10--10--10-------|-----------------|------10--10--10--------|


C#|-----------------|-----------------------|-------------|---------------------------------------------|
G#|-----------------|-----------------------|-------------|---------------------------------------------|
 E|-----12----14----|-----------------14----|-12----7-----|---------------------------------------------|
 B|-----------------|-----10--10--10--------|-------------|---------------------------------------------|
F#|-----10----12----|-----10--10--10--12----|-10----5-----|---------------------------------------------|
 B|-----------------|-----10--10--10--------|-------------|-3--0--0--0------0--0--0--0------0--3--0--6--|


C#|---------------------------------------------|---------------------------------------------|
G#|---------------------------------------------|---------------------------------------------|
 E|---------------------------------------------|---------------------------------------------|
 B|---------------------------------------------|---------------------------------------------|
F#|---------------------------------------------|---------------------------------------------|
 B|-3--0--0--0------0--0--0--0------0--3--0--6--|-3--0--0--0------0--0--0--0------0--3--0--6--|


C#|-------------------------------------------|-------------------------------------------|
G#|-------------------------------------------|-------------------------------------------|
 E|-------------------------------------------|-------------------------------------------|
 B|-----------------------------------3---6---|-----------------------------------3---6---|
F#|-----------------------------0--0--3---6---|-----------------------------0--0--3---6---|
 B|-3--0--0--0------0--0--0--0--0--0--3---6---|-3--0--0--0------0--0--0--0--0--0--3---6---|


C#|-------------------------------------------|-------------------------------------------|
G#|-------------------------------------------|-------------------------------------------|
 E|-------------------------------------------|-------------------------------------------|
 B|-----------------------------------3---6---|-----------------------------------3---6---|
F#|-----------------------------0--0--3---6---|-----------------------------0--0--3---6---|
 B|-3--0--0--0------0--0--0--0--0--0--3---6---|-3--0--0--0------0--0--0--0--0--0--3---6---|


C#|-------------------------------------------|
G#|-------------------------------------------|
 E|-------------------------------------------|
 B|-----------------------------------3---6---|
F#|-----------------------------0--0--3---6---|
 B|-3--0--0--0------0--0--0--0--0--0--3---6---|





Track 2: Jim

C#|------------------------------|------------------------------|------------------------------|
G#|------------------------------|------------------------------|------------------------------|
 E|------------------------------|------------------------------|------------------------------|
 B|-3---2--------3---2---3---4---|-3---2--------7---6---7---8---|-3---2--------3---2---3---4---|
F#|-3---2--------3---2---3---4---|-3---2--------7---6---7---8---|-3---2--------3---2---3---4---|
 B|-3---2--------3---2---3---4---|-3---2--------7---6---7---8---|-3---2--------3---2---3---4---|


C#|------------------------------|------------------------------|------------------------------|
G#|------------------------------|------------------------------|------------------------------|
 E|------------------------------|------------------------------|------------------------------|
 B|-3---2--------7---6---7---8---|-3---2--------3---2---3---4---|-3---2--------7---6---7---8---|
F#|-3---2--------7---6---7---8---|-3---2--------3---2---3---4---|-3---2--------7---6---7---8---|
 B|-3---2--------7---6---7---8---|-3---2--------3---2---3---4---|-3---2--------7---6---7---8---|


C#|------------------------------|------------------------------|------------------------------|
G#|------------------------------|------------------------------|------------------------------|
 E|------------------------------|------------------------------|------------------------------|
 B|-3---2--------3---2---3---4---|-3---2--------7---6---7---8---|-3---2--------3---2---3---4---|
F#|-3---2--------3---2---3---4---|-3---2--------7---6---7---8---|-3---2--------3---2---3---4---|
 B|-3---2--------3---2---3---4---|-3---2--------7---6---7---8---|-3---2---4----3---2---3---4---|


C#|------------------------------|------------------------------|------------------------------|
G#|------------------------------|------------------------------|------------------------------|
 E|------------------------------|------------------------------|------------------------------|
 B|-3---2--------7---6---7---8---|-3---2--------3---2---3---4---|-3---2--------7---6---7---8---|
F#|-3---2--------7---6---7---8---|-3---2--------3---2---3---4---|-3---2--------7---6---7---8---|
 B|-3---2---5----7---6---7---8---|-3---2---4----3---2---3---4---|-3---2---5----7---6---7---8---|


C#|------------------------------|------------------------------|------------------------------|
G#|------------------------------|------------------------------|------------------------------|
 E|------------------------------|------------------------------|------------------------------|
 B|-3---2--------3---2---3---4---|-3---2--------7---6---7---8---|-3---2--------3---2---3---4---|
F#|-3---2--------3---2---3---4---|-3---2--------7---6---7---8---|-3---2--------3---2---3---4---|
 B|-3---2---4----3---2---3---4---|-3---2---5----7---6---7---8---|-3---2---4----3---2---3---4---|


C#|------------------------------|-----------------------------------------|-----------------------------------------|
G#|------------------------------|-----------------------------------------|-----------------------------------------|
 E|------------------------------|-----------------------------------------|-----------------------------------------|
 B|-3---2--------7---6---7---8---|-----------------------------------------|-----------------------------------------|
F#|-3---2--------7---6---7---8---|-----------------------------------------|-----------------------------------------|
 B|-3---2---5----7---6---7---8---|-0--3--6--0---3--6--0---3--6--0---3--6---|-0--3--6--0---3--6--0---3--6--0---3--6---|


C#|-----------------------------------------|--------------------------------------|
G#|-----------------------------------------|--------------------------------------|
 E|-----------------------------------------|-----------------------------8---5----|
 B|-----------------------------------------|-----------------------------6---3----|
F#|-----------------------------------------|-----------------------------6---3----|
 B|-0--3--6--0---3--6--0---3--6--0---3--6---|-0--3--6--0---3--3--3--0--0--6---3----|


C#|-----------------------------------------|-----------------------------------------|
G#|-----------------------------------------|-----------------------------------------|
 E|-----------------------------------------|-----------------------------------------|
 B|-----------------------------------------|-----------------------------------------|
F#|-----------------------------------------|-----------------------------------------|
 B|-0--3--6--0---3--6--0---3--6--0---3--6---|-0--3--6--0---3--6--0---3--6--0---3--6---|


C#|-----------------------------------------|--------------------------------------|
G#|-----------------------------------------|--------------------------------------|
 E|-----------------------------------------|-----------------------------8---5----|
 B|-----------------------------------------|-----------------------------6---3----|
F#|-----------------------------------------|-----------------------------6---3----|
 B|-0--3--6--0---3--6--0---3--6--0---3--6---|-0--3--6--0---3--3--3--0--0--6---3----|


C#|--------|--------|--------|--------|--------|--------|--------|--------|--------|
G#|--------|--------|--------|--------|--------|--------|--------|--------|--------|
 E|--------|--------|--------|--------|--------|--------|--------|--------|--------|
 B|--------|--------|--------|--------|--------|--------|--------|--------|--------|
F#|--------|--------|--------|--------|--------|--------|--------|--------|--------|
 B|--------|--------|--------|--------|--------|--------|--------|--------|--------|


C#|--------|--------|--------|--------|--------|--------|--------|-----------------------------------------|
G#|--------|--------|--------|--------|--------|--------|--------|-----------------------------------------|
 E|--------|--------|--------|--------|--------|--------|--------|-----------------------------------------|
 B|--------|--------|--------|--------|--------|--------|--------|-----------------------------------------|
F#|--------|--------|--------|--------|--------|--------|--------|-----------------------------------------|
 B|--------|--------|--------|--------|--------|--------|--------|-0--3--6--0---3--6--0---3--6--0---3--6---|


C#|----------------|-----------------------------------------|----------------|-----------------------------------------|
G#|----------------|-----------------------------------------|----------------|-----------------------------------------|
 E|----------------|-----------------------------------------|----------------|-----------------------------------------|
 B|-3-----3--6-----|-----------------------------------------|-3-----3--6-----|-----------------------------------------|
F#|-3-----3--6-----|-----------------------------------------|-3-----3--6-----|-----------------------------------------|
 B|-3-----3--6-----|-0--3--6--0---3--6--0---3--6--0---3--6---|-3-----3--6-----|-0--3--6--0---3--6--0---3--6--0---3--6---|


C#|----------------|-----------------------------------------|----------------|---------------------------------------------|
G#|----------------|-----------------------------------------|----------------|---------------------------------------------|
 E|----------------|-----------------------------------------|----------------|---------------------------------------------|
 B|-3-----3--6-----|-----------------------------------------|-3-----3--6-----|---------------------------------------------|
F#|-3-----3--6-----|-----------------------------------------|-3-----3--6-----|---------------------------------------------|
 B|-3-----3--6-----|-0--3--6--0---3--6--0---3--6--0---3--6---|-3-----3--6-----|-3--0--0--0------0--0--0--0------0--3--0--6--|


C#|---------------------------------------------|---------------------------------------------|
G#|---------------------------------------------|---------------------------------------------|
 E|---------------------------------------------|---------------------------------------------|
 B|---------------------------------------------|---------------------------------------------|
F#|---------------------------------------------|---------------------------------------------|
 B|-3--0--0--0------0--0--0--0------0--3--0--6--|-3--0--0--0------0--0--0--0------0--3--0--6--|


C#|--------------------------------------|--------|--------|--------|--------|--------|
G#|--------------------------------------|--------|--------|--------|--------|--------|
 E|--------------------------------------|--------|--------|--------|--------|--------|
 B|--------------------------------------|--------|--------|--------|--------|--------|
F#|--------------------------------------|--------|--------|--------|--------|--------|
 B|-3--0--0--0------0--0--0--0-----------|--------|--------|--------|--------|--------|


C#|--------|--------|--------|-----------------------------------------|----------------|
G#|--------|--------|--------|-----------------------------------------|----------------|
 E|--------|--------|--------|-----------------------------------------|----------------|
 B|--------|--------|--------|-----------------------------------------|-3-----3--6-----|
F#|--------|--------|--------|-----------------------------------------|-3-----3--6-----|
 B|--------|--------|--------|-0--3--6--0---3--6--0---3--6--0---3--6---|-3-----3--6-----|


C#|-----------------------------------------|----------------|-----------------------------------------|
G#|-----------------------------------------|----------------|-----------------------------------------|
 E|-----------------------------------------|----------------|-----------------------------------------|
 B|-----------------------------------------|-3-----3--6-----|-----------------------------------------|
F#|-----------------------------------------|-3-----3--6-----|-----------------------------------------|
 B|-0--3--6--0---3--6--0---3--6--0---3--6---|-3-----3--6-----|-0--3--6--0---3--6--0---3--6--0---3--6---|


C#|----------------|-----------------------------------------|----------------|--------|
G#|----------------|-----------------------------------------|----------------|--------|
 E|----------------|-----------------------------------------|----------------|--------|
 B|-3-----3--6-----|-----------------------------------------|-3-----3--6-----|--------|
F#|-3-----3--6-----|-----------------------------------------|-3-----3--6-----|--------|
 B|-3-----3--6-----|-0--3--6--0---3--6--0---3--6--0---3--6---|-3-----3--6-----|--------|


C#|--------|--------|--------|--------|--------|--------|--------|--------|--------|
G#|--------|--------|--------|--------|--------|--------|--------|--------|--------|
 E|--------|--------|--------|--------|--------|--------|--------|--------|--------|
 B|--------|--------|--------|--------|--------|--------|--------|--------|--------|
F#|--------|--------|--------|--------|--------|--------|--------|--------|--------|
 B|--------|--------|--------|--------|--------|--------|--------|--------|--------|


C#|--------|--------|--------|--------|--------|---------------------------------|
G#|--------|--------|--------|--------|--------|---------------------------------|
 E|--------|--------|--------|--------|--------|---------------------------------|
 B|--------|--------|--------|--------|--------|---------------------------------|
F#|--------|--------|--------|--------|--------|---------------------------------|
 B|--------|--------|--------|--------|--------|-0---0---0---0---0---0---0---0---|


C#|---------------------------------|--------------------|-------------|-------------|
G#|---------------------------------|--------------------|-------------|-------------|
 E|---------------------------------|--------------------|-------------|-------------|
 B|---------------------------------|--------------------|-------------|-------------|
F#|---------------------------------|-12----12---12--17--|-17-----15---|-12----12----|
 B|-0---0---0---0---0---0---0---0---|-12----12---12--17--|-17-----15---|-12----12----|


C#|--------|--------|-------------|-------------------------------------------------|
G#|--------|--------|-------------|-------------------------------------------------|
 E|--------|--------|-------------|-------16-16-------16-16-17-17-14-14-16-16-12-12-|
 B|--------|--------|-------------|-14-14-------14-14-------------------------------|
F#|-15-----|-22-----|-22----22----|-------------------------------------------------|
 B|-15-----|-22-----|-22----22----|-------------------------------------------------|


C#|-------------------------------------------------|-------------------------------------------------|
G#|-------------------------------------------------|-------------------------------------------------|
 E|-------16-16-------16-16-14-14-12-12-------------|-------16-16-------16-16-17-17-14-14-16-16-12-12-|
 B|-13-13-------13-13-------------------16-16-13-13-|-14-14-------14-14-------------------------------|
F#|-------------------------------------------------|-------------------------------------------------|
 B|-------------------------------------------------|-------------------------------------------------|


C#|-------------------------------------------------|---------------------------|---------------------------|
G#|-------------------------------------------------|---------------------------|---------------------------|
 E|-------16-16-------16-16-14-14-12-12-------------|---------------------------|---------------------------|
 B|-13-13-------13-13-------------------16-16-13-13-|-3---2--------3---2--------|-----------7---6---7---8---|
F#|-------------------------------------------------|-3---2--------3---2--------|-----------7---6---7---8---|
 B|-------------------------------------------------|-3---2---3----3---2--------|------6----7---6---7---8---|


C#|---------------------------|---------------------------|---------------------------|
G#|---------------------------|---------------------------|---------------------------|
 E|---------------------------|---------------------------|---------------------------|
 B|-3---2--------3---2--------|-----------7---6---7---8---|-3---2--------3---2--------|
F#|-3---2--------3---2--------|-----------7---6---7---8---|-3---2--------3---2--------|
 B|-3---2---3----3---2--------|------6----7---6---7---8---|-3---2---3----3---2--------|


C#|---------------------------|------------------------------|------------------------------|
G#|---------------------------|------------------------------|------------------------------|
 E|---------------------------|------------------------------|------------------------------|
 B|-----------7---6---7---8---|-3---2--------3---2---3---4---|-3---2--------7---6---7---8---|
F#|-----------7---6---7---8---|-3---2--------3---2---3---4---|-3---2--------7---6---7---8---|
 B|------6----7---6---7---8---|-3---2---3----3---2---3---4---|-3---2---6----7---6---7---8---|


C#|--------|--------|--------|--------|--------|--------|--------|--------|--------|
G#|--------|--------|--------|--------|--------|--------|--------|--------|--------|
 E|--------|--------|--------|--------|--------|--------|--------|--------|--------|
 B|--------|--------|--------|--------|--------|--------|--------|--------|--------|
F#|--------|--------|--------|--------|--------|--------|--------|--------|--------|
 B|--------|--------|--------|--------|--------|--------|--------|--------|--------|


C#|--------|--------|--------|--------|--------|--------|--------|--------|--------|
G#|--------|--------|--------|--------|--------|--------|--------|--------|--------|
 E|--------|--------|--------|--------|--------|--------|--------|--------|--------|
 B|--------|--------|--------|--------|--------|--------|--------|--------|--------|
F#|--------|--------|--------|--------|--------|--------|--------|--------|--------|
 B|--------|--------|--------|--------|--------|--------|--------|--------|--------|


C#|--------|--------|--------|--------|--------|--------|--------|--------|--------|
G#|--------|--------|--------|--------|--------|--------|--------|--------|--------|
 E|--------|--------|--------|--------|--------|--------|--------|--------|--------|
 B|--------|--------|--------|--------|--------|--------|--------|--------|--------|
F#|--------|--------|--------|--------|--------|--------|--------|--------|--------|
 B|--------|--------|--------|--------|--------|--------|--------|--------|--------|


C#|--------|--------|--------|--------|--------|
G#|--------|--------|--------|--------|--------|
 E|--------|--------|--------|--------|--------|
 B|--------|--------|--------|--------|--------|
F#|--------|--------|--------|--------|--------|
 B|--------|--------|--------|--------|--------|





Track 3: Paul

 E|------------------------------|------------------------------|------------------------------|
 B|------------------------------|------------------------------|------------------------------|
F#|------------------------------|------------------------------|------------------------------|
 B|-3---2--------3---2---3---4---|-3---2--------7---6---7---8---|-3---2--------3---2---3---4---|


 E|------------------------------|------------------------------|------------------------------|
 B|------------------------------|------------------------------|------------------------------|
F#|------------------------------|------------------------------|------------------------------|
 B|-3---2--------7---6---7---8---|-3---2--------3---2---3---4---|-3---2--------7---6---7---8---|


 E|------------------------------|------------------------------|------------------------------|
 B|------------------------------|------------------------------|------------------------------|
F#|------------------------------|------------------------------|------------------------------|
 B|-3---2--------3---2---3---4---|-3---2--------7---6---7---8---|-3---2---4----3---2---3---4---|


 E|------------------------------|------------------------------|------------------------------|
 B|------------------------------|------------------------------|------------------------------|
F#|------------------------------|------------------------------|------------------------------|
 B|-3---2---5----7---6---7---8---|-3---2---4----3---2---3---4---|-3---2---5----7---6---7---8---|


 E|------------------------------|------------------------------|------------------------------|
 B|------------------------------|------------------------------|------------------------------|
F#|------------------------------|------------------------------|------------------------------|
 B|-3---2---4----3---2---3---4---|-3---2---5----7---6---7---8---|-3---2---4----3---2---3---4---|


 E|------------------------------|-----------------------------------------|-----------------------------------------|
 B|------------------------------|-----------------------------------------|-----------------------------------------|
F#|------------------------------|-----------------------------------------|-----------------------------------------|
 B|-3---2---5----7---6---7---8---|-0--3--6--0---3--6--0---3--6--0---3--6---|-0--3--6--0---3--6--0---3--6--0---3--6---|


 E|-----------------------------------------|--------------------------------------|
 B|-----------------------------------------|--------------------------------------|
F#|-----------------------------------------|--------------------------------------|
 B|-0--3--6--0---3--6--0---3--6--0---3--6---|-0--3--6--0---0--3--3--0--0--6---3----|


 E|-----------------------------------------|-----------------------------------------|
 B|-----------------------------------------|-----------------------------------------|
F#|-----------------------------------------|-----------------------------------------|
 B|-0--3--6--0---3--6--0---3--6--0---3--6---|-0--3--6--0---3--6--0---3--6--0---3--6---|


 E|-----------------------------------------|--------------------------------------|
 B|-----------------------------------------|--------------------------------------|
F#|-----------------------------------------|--------------------------------------|
 B|-0--3--6--0---3--6--0---3--6--0---3--6---|-0--3--6--0---0--3--3--0--0--6---3----|


 E|---------------------------------------------|---------------------------------------------|
 B|---------------------------------------------|---------------------------------------------|
F#|---------------------------------------------|---------------------------------------------|
 B|-3--0--0--0------0--0--0--0------0--3--0--6--|-3--0--0--0------0--0--0--0------0--3--0--6--|


 E|---------------------------------------------|-------------------------------------------|
 B|---------------------------------------------|-------------------------------------------|
F#|---------------------------------------------|-------------------------------------------|
 B|-3--0--0--0------0--0--0--0------0--3--0--6--|-3--0--0--0------0--0--0--0--0--0--3---6---|


 E|---------------------------------------------|---------------------------------------------|
 B|---------------------------------------------|---------------------------------------------|
F#|---------------------------------------------|---------------------------------------------|
 B|-3--0--0--0------0--0--0--0------0--3--0--6--|-3--0--0--0------0--0--0--0------0--3--0--6--|


 E|---------------------------------------------|-------------------------------------------|
 B|---------------------------------------------|-------------------------------------------|
F#|---------------------------------------------|-------------------------------------------|
 B|-3--0--0--0------0--0--0--0------0--3--0--6--|-3--0--0--0------0--0--0--0--0--0--3---6---|


 E|---------------------------------------------|---------------------------------------------|
 B|---------------------------------------------|---------------------------------------------|
F#|---------------------------------------------|---------------------------------------------|
 B|-3--0--0--0------0--0--0--0------0--3--0--6--|-3--0--0--0------0--0--0--0------0--3--0--6--|


 E|---------------------------------------------|-------------------------------------------|
 B|---------------------------------------------|-------------------------------------------|
F#|---------------------------------------------|-------------------------------------------|
 B|-3--0--0--0------0--0--0--0------0--3--0--6--|-3--0--0--0------0--0--0--0--0--0--3---6---|


 E|---------------------------------------------|---------------------------------------------|
 B|---------------------------------------------|---------------------------------------------|
F#|---------------------------------------------|---------------------------------------------|
 B|-3--0--0--0------0--0--0--0------0--3--0--6--|-3--0--0--0------0--0--0--0------0--3--0--6--|


 E|---------------------------------------------|-------------------------------------------|
 B|---------------------------------------------|-------------------------------------------|
F#|---------------------------------------------|-------------------------------------------|
 B|-3--0--0--0------0--0--0--0------0--3--0--6--|-3--0--0--0------0--0--0--0--0--0--3---6---|


 E|-----------------------------------------|----------------|-----------------------------------------|
 B|-----------------------------------------|----------------|-----------------------------------------|
F#|-----------------------------------------|-3-----3--6-----|-----------------------------------------|
 B|-0--3--6--0---3--6--0---3--6--0---3--6---|----------------|-0--3--6--0---3--6--0---3--6--0---3--6---|


 E|----------------|-----------------------------------------|----------------|-----------------------------------------|
 B|----------------|-----------------------------------------|----------------|-----------------------------------------|
F#|-3-----3--6-----|-----------------------------------------|-3-----3--6-----|-----------------------------------------|
 B|----------------|-0--3--6--0---3--6--0---3--6--0---3--6---|----------------|-0--3--6--0---3--6--0---3--6--0---3--6---|


 E|----------------|---------------------------------------------|---------------------------------------------|
 B|----------------|---------------------------------------------|---------------------------------------------|
F#|-3-----3--6-----|---------------------------------------------|---------------------------------------------|
 B|----------------|-3--0--0--0------0--0--0--0------0--3--0--6--|-3--0--0--0------0--0--0--0------0--3--0--6--|


 E|---------------------------------------------|--------------------------------------|
 B|---------------------------------------------|--------------------------------------|
F#|---------------------------------------------|--------------------------------------|
 B|-3--0--0--0------0--0--0--0------0--3--0--6--|-3--0--0--0------0--0--0--0-----------|


 E|---------------------------------------------|---------------------------------------------|
 B|---------------------------------------------|---------------------------------------------|
F#|---------------------------------------------|---------------------------------------------|
 B|-3--0--0--0------0--0--0--0------0--3--0--6--|-3--0--0--0------0--0--0--0------0--3--0--6--|


 E|---------------------------------------------|-------------------------------------------|
 B|---------------------------------------------|-------------------------------------------|
F#|---------------------------------------------|-------------------------------------------|
 B|-3--0--0--0------0--0--0--0------0--3--0--6--|-3--0--0--0------0--0--0--0--0--0--3---6---|


 E|---------------------------------------------|---------------------------------------------|
 B|---------------------------------------------|---------------------------------------------|
F#|---------------------------------------------|---------------------------------------------|
 B|-3--0--0--0------0--0--0--0------0--3--0--6--|-3--0--0--0------0--0--0--0------0--3--0--6--|


 E|---------------------------------------------|-------------------------------------------|
 B|---------------------------------------------|-------------------------------------------|
F#|---------------------------------------------|-------------------------------------------|
 B|-3--0--0--0------0--0--0--0------0--3--0--6--|-3--0--0--0------0--0--0--0--0--0--3---6---|


 E|-----------------------------------------|----------------|-----------------------------------------|
 B|-----------------------------------------|----------------|-----------------------------------------|
F#|-----------------------------------------|-3-----3--6-----|-----------------------------------------|
 B|-0--3--6--0---3--6--0---3--6--0---3--6---|----------------|-0--3--6--0---3--6--0---3--6--0---3--6---|


 E|----------------|-----------------------------------------|----------------|-----------------------------------------|
 B|----------------|-----------------------------------------|----------------|-----------------------------------------|
F#|-3-----3--6-----|-----------------------------------------|-3-----3--6-----|-----------------------------------------|
 B|----------------|-0--3--6--0---3--6--0---3--6--0---3--6---|----------------|-0--3--6--0---3--6--0---3--6--0---3--6---|


 E|----------------|---------------------------|------------------------|------------------------|
 B|----------------|---------------------------|------------------------|------------------------|
F#|-3-----3--6-----|---------------------------|------------------------|------------------------|
 B|----------------|-10--10--10--3----3----2---|-----2----0----0----10--|-10--10--3----3----2----|


 E|------------------------|------------------------|---------------------------|---------------------|
 B|------------------------|------------------------|---------------------------|---------------------|
F#|------------------------|------------------------|---------------------------|---------------------|
 B|-2----0----0----10--10--|-10--3----3----2----2---|-----0----0----10--10--10--|-3----3----2----2----|


 E|---------------------------|------------------------|---------------------------|
 B|---------------------------|------------------------|---------------------------|
F#|---------------------------|------------------------|---------------------------|
 B|-0----0----10--10--10--3---|-----3----2----2----0---|-----0----10--10--10--3----|


 E|---------------------|---------------------------|------------------------|---------------------------|
 B|---------------------|---------------------------|------------------------|---------------------------|
F#|---------------------|---------------------------|------------------------|---------------------------|
 B|-3----2----2----0----|-0----10--10--10--3----3---|-----2----2----0----0---|-----10--10--10--3----3----|


 E|---------------------|--------|--------|--------------------|-------------|--------------------|
 B|---------------------|--------|--------|--------------------|-------------|--------------------|
F#|---------------------|--------|--------|--------------------|-------------|--------------------|
 B|-2----2----0----0----|--------|--------|-0-----0----0---5---|-5------3----|-0-----0----0---3---|


 E|-------------|--------|--------|---------------------------------|---------------------------------|
 B|-------------|--------|--------|---------------------------------|---------------------------------|
F#|-------------|--------|--------|---------7---5---8---5---7---3---|---------7---7---5---3-----------|
 B|-3------3----|-10-----|-10-----|-7---7---------------------------|-6---6-------------------9---6---|


 E|---------------------------------|---------------------------------|---------------------------|
 B|---------------------------------|---------------------------------|---------------------------|
F#|---------7---5---8---5---7---3---|---------7---7---5---3-----------|---------------------------|
 B|-7---7---------------------------|-6---6-------------------9---6---|-3---2---3----3---2--------|


 E|---------------------------|---------------------------|---------------------------|
 B|---------------------------|---------------------------|---------------------------|
F#|---------------------------|---------------------------|---------------------------|
 B|------6----7---6---7---8---|-3---2---3----3---2--------|------6----7---6---7---8---|


 E|---------------------------|---------------------------|------------------------------|
 B|---------------------------|---------------------------|------------------------------|
F#|---------------------------|---------------------------|------------------------------|
 B|-3---2---3----3---2--------|------6----7---6---7---8---|-3---2---3----3---2---3---4---|


 E|------------------------------|------------------------------|------------------------------|
 B|------------------------------|------------------------------|------------------------------|
F#|------------------------------|------------------------------|------------------------------|
 B|-3---2---6----7---6---7---8---|-3---2---3----3---2---3---4---|-3---2---6----7---6---7---8---|


 E|------------------------------|------------------------------|------------------------------|
 B|------------------------------|------------------------------|------------------------------|
F#|------------------------------|------------------------------|------------------------------|
 B|-3---2---3----3---2---3---4---|-3---2---6----7---6---7---8---|-3---2---3----3---2---3---4---|


 E|------------------------------|------------------------------|------------------------------|
 B|------------------------------|------------------------------|------------------------------|
F#|------------------------------|------------------------------|------------------------------|
 B|-3---2---6----7---6---7---8---|-3---2---3----3---2---3---4---|-3---2---6----7---6---7---8---|


 E|--------|---------------------------|------------------------|------------------------|
 B|--------|---------------------------|------------------------|------------------------|
F#|--------|---------------------------|------------------------|------------------------|
 B|-8------|-10--10--10--3----3----2---|-----2----0----0----10--|-10--10--3----3----2----|


 E|------------------------|------------------------|---------------------------|---------------------|
 B|------------------------|------------------------|---------------------------|---------------------|
F#|------------------------|------------------------|---------------------------|---------------------|
 B|-2----0----0----10--10--|-10--3----3----2----2---|-----0----0----10--10--10--|-3----3----2----2----|


 E|---------------------------|------------------------|---------------------------|
 B|---------------------------|------------------------|---------------------------|
F#|---------------------------|------------------------|---------------------------|
 B|-0----0----10--10--10--3---|-----3----2----2----0---|-----0----10--10--10--3----|


 E|---------------------|---------------------------|------------------------|---------------------------|
 B|---------------------|---------------------------|------------------------|---------------------------|
F#|---------------------|---------------------------|------------------------|---------------------------|
 B|-3----5----5----7----|-7----10--10--10--3----3---|-----5----5----7----7---|-----10--10--10--7----7----|


 E|---------------------|---------------------------------------------|---------------------------------------------|
 B|---------------------|---------------------------------------------|---------------------------------------------|
F#|---------------------|---------------------------------------------|---------------------------------------------|
 B|-5----5----0----0----|-3--0--0--0------0--0--0--0------0--3--0--6--|-3--0--0--0------0--0--0--0------0--3--0--6--|


 E|---------------------------------------------|-------------------------------------------|
 B|---------------------------------------------|-------------------------------------------|
F#|---------------------------------------------|-------------------------------------------|
 B|-3--0--0--0------0--0--0--0------0--3--0--6--|-3--0--0--0------0--0--0--0--0--0--3---6---|


 E|-------------------------------------------|-------------------------------------------|
 B|-------------------------------------------|-------------------------------------------|
F#|-------------------------------------------|-------------------------------------------|
 B|-3--0--0--0------0--0--0--0--0--0--3---6---|-3--0--0--0------0--0--0--0--0--0--3---6---|


 E|-------------------------------------------|-------------------------------------------|
 B|-------------------------------------------|-------------------------------------------|
F#|-------------------------------------------|-------------------------------------------|
 B|-3--0--0--0------0--0--0--0--0--0--3---6---|-3--0--0--0------0--0--0--0--0--0--3---6---|