Menu:

 

Search:

 

slipknot - scissors:

 



Title: Scissors
Artist: 
Album: Slipknot
Author: Slipknot


Track 1: Guitar 1

C#|--------|--------|--------|--------|-8------8--8-----8------8------8---------|-8------8--8-----8------8------8---------|
G#|--------|--------|--------|--------|-0---0--0--0--0--0---0--0---0--0---0--0--|-0---0--0--0--0--0---0--0---0--0---0--0--|
 E|--------|--------|--------|--------|-9---9--9--9--9--9---9--9---9--9---9--9--|-9---9--9--9--9--9---9--9---9--9---9--9--|
 B|--------|--------|--------|--------|-9---9--9--9--9--9---9--9---9--9---9--9--|-9---9--9--9--9--9---9--9---9--9---9--9--|
F#|--------|--------|--------|--------|-7---7--7--7--7--7---7--7---7--7---7--7--|-7---7--7--7--7--7---7--7---7--7---7--7--|
F#|--------|--------|--------|--------|-----------------------------------------|-----------------------------------------|


C#|-8------8--8-----8------8------8---------|-8------8--8-----8------8------8---------|
G#|-0---0--0--0--0--0---0--0---0--0---0--0--|-0---0--0--0--0--0---0--0---0--0---0--0--|
 E|-9---9--9--9--9--9---9--9---9--9---9--9--|-9---9--9--9--9--9---9--9---9--9---9--9--|
 B|-9---9--9--9--9--9---9--9---9--9---9--9--|-9---9--9--9--9--9---9--9---9--9---9--9--|
F#|-7---7--7--7--7--7---7--7---7--7---7--7--|-7---7--7--7--7--7---7--7---7--7---7--7--|
F#|-----------------------------------------|-----------------------------------------|


C#|-8------8--8-----8------8------8---------|-8------8--8-----8------8------8---------|
G#|-0---0--0--0--0--0---0--0---0--0---0--0--|-0---0--0--0--0--0---0--0---0--0---0--0--|
 E|-9---9--9--9--9--9---9--9---9--9---9--9--|-9---9--9--9--9--9---9--9---9--9---9--9--|
 B|-9---9--9--9--9--9---9--9---9--9---9--9--|-9---9--9--9--9--9---9--9---9--9---9--9--|
F#|-7---7--7--7--7--7---7--7---7--7---7--7--|-7---7--7--7--7--7---7--7---7--7---7--7--|
F#|-----------------------------------------|-----------------------------------------|


C#|-8------8--8-----8------8------8---------|-8------8--8-----8------8------8---------|
G#|-0---0--0--0--0--0---0--0---0--0---0--0--|-0---0--0--0--0--0---0--0---0--0---0--0--|
 E|-9---9--9--9--9--9---9--9---9--9---9--9--|-9---9--9--9--9--9---9--9---9--9---9--9--|
 B|-9---9--9--9--9--9---9--9---9--9---9--9--|-9---9--9--9--9--9---9--9---9--9---9--9--|
F#|-7---7--7--7--7--7---7--7---7--7---7--7--|-7---7--7--7--7--7---7--7---7--7---7--7--|
F#|-----------------------------------------|-----------------------------------------|


C#|-8------8--8-----8------8------8---------|-8------8--8-----8------8------8---------|
G#|-0---0--0--0--0--0---0--0---0--0---0--0--|-0---0--0--0--0--0---0--0---0--0---0--0--|
 E|-9---9--9--9--9--9---9--9---9--9---9--9--|-9---9--9--9--9--9---9--9---9--9---9--9--|
 B|-9---9--9--9--9--9---9--9---9--9---9--9--|-9---9--9--9--9--9---9--9---9--9---9--9--|
F#|-7---7--7--7--7--7---7--7---7--7---7--7--|-7---7--7--7--7--7---7--7---7--7---7--7--|
F#|-----------------------------------------|-----------------------------------------|


C#|-8------8--8-----8------8------8---------|-8------8--8-----8------8------8---------|
G#|-0---0--0--0--0--0---0--0---0--0---0--0--|-0---0--0--0--0--0---0--0---0--0---0--0--|
 E|-9---9--9--9--9--9---9--9---9--9---9--9--|-9---9--9--9--9--9---9--9---9--9---9--9--|
 B|-9---9--9--9--9--9---9--9---9--9---9--9--|-9---9--9--9--9--9---9--9---9--9---9--9--|
F#|-7---7--7--7--7--7---7--7---7--7---7--7--|-7---7--7--7--7--7---7--7---7--7---7--7--|
F#|-----------------------------------------|-----------------------------------------|


C#|-8------8--8-----8------8------8---------|-8------8--8-----8------8------8---------|
G#|-0---0--0--0--0--0---0--0---0--0---0--0--|-0---0--0--0--0--0---0--0---0--0---0--0--|
 E|-9---9--9--9--9--9---9--9---9--9---9--9--|-9---9--9--9--9--9---9--9---9--9---9--9--|
 B|-9---9--9--9--9--9---9--9---9--9---9--9--|-9---9--9--9--9--9---9--9---9--9---9--9--|
F#|-7---7--7--7--7--7---7--7---7--7---7--7--|-7---7--7--7--7--7---7--7---7--7---7--7--|
F#|-----------------------------------------|-----------------------------------------|


C#|-8------8--8-----8------8------8---------|-8------8--8-----8------8------8---------|
G#|-0---0--0--0--0--0---0--0---0--0---0--0--|-0---0--0--0--0--0---0--0---0--0---0--0--|
 E|-9---9--9--9--9--9---9--9---9--9---9--9--|-9---9--9--9--9--9---9--9---9--9---9--9--|
 B|-9---9--9--9--9--9---9--9---9--9---9--9--|-9---9--9--9--9--9---9--9---9--9---9--9--|
F#|-7---7--7--7--7--7---7--7---7--7---7--7--|-7---7--7--7--7--7---7--7---7--7---7--7--|
F#|-----------------------------------------|-----------------------------------------|


C#|-8------8--8-----8------8------8---------|-8------8--8-----8------8------8---------|
G#|-0---0--0--0--0--0---0--0---0--0---0--0--|-0---0--0--0--0--0---0--0---0--0---0--0--|
 E|-9---9--9--9--9--9---9--9---9--9---9--9--|-9---9--9--9--9--9---9--9---9--9---9--9--|
 B|-9---9--9--9--9--9---9--9---9--9---9--9--|-9---9--9--9--9--9---9--9---9--9---9--9--|
F#|-7---7--7--7--7--7---7--7---7--7---7--7--|-7---7--7--7--7--7---7--7---7--7---7--7--|
F#|-----------------------------------------|-----------------------------------------|


C#|-8------8--8-----8------8------8---------|-8------8--8-----8------8------8---------|
G#|-0---0--0--0--0--0---0--0---0--0---0--0--|-0---0--0--0--0--0---0--0---0--0---0--0--|
 E|-9---9--9--9--9--9---9--9---9--9---9--9--|-9---9--9--9--9--9---9--9---9--9---9--9--|
 B|-9---9--9--9--9--9---9--9---9--9---9--9--|-9---9--9--9--9--9---9--9---9--9---9--9--|
F#|-7---7--7--7--7--7---7--7---7--7---7--7--|-7---7--7--7--7--7---7--7---7--7---7--7--|
F#|-----------------------------------------|-----------------------------------------|


C#|-8------8--8-----8------8------8---------|-8------8--8-----8------8------8---------|
G#|-0---0--0--0--0--0---0--0---0--0---0--0--|-0---0--0--0--0--0---0--0---0--0---0--0--|
 E|-9---9--9--9--9--9---9--9---9--9---9--9--|-9---9--9--9--9--9---9--9---9--9---9--9--|
 B|-9---9--9--9--9--9---9--9---9--9---9--9--|-9---9--9--9--9--9---9--9---9--9---9--9--|
F#|-7---7--7--7--7--7---7--7---7--7---7--7--|-7---7--7--7--7--7---7--7---7--7---7--7--|
F#|-----------------------------------------|-----------------------------------------|


C#|-8------8--8-----8------8------8---------|-8------8--8-----8------8------8---------|
G#|-0---0--0--0--0--0---0--0---0--0---0--0--|-0---0--0--0--0--0---0--0---0--0---0--0--|
 E|-9---9--9--9--9--9---9--9---9--9---9--9--|-9---9--9--9--9--9---9--9---9--9---9--9--|
 B|-9---9--9--9--9--9---9--9---9--9---9--9--|-9---9--9--9--9--9---9--9---9--9---9--9--|
F#|-7---7--7--7--7--7---7--7---7--7---7--7--|-7---7--7--7--7--7---7--7---7--7---7--7--|
F#|-----------------------------------------|-----------------------------------------|


C#|-8------|-8------|--------|--------|--------|--------|--------|--------|--------|
G#|-0------|-0------|--------|--------|--------|--------|--------|--------|--------|
 E|-9------|-9------|--------|--------|--------|--------|--------|--------|--------|
 B|-9------|-9------|--------|--------|--------|--------|--------|--------|--------|
F#|-7------|-7------|--------|--------|--------|--------|--------|--------|--------|
F#|--------|--------|--------|--------|--------|--------|--------|--------|--------|


C#|--------|--------|--------|-8------8--8-----8------8------8---------|-8------8--8-----8------8------8---------|
G#|--------|--------|--------|-0---0--0--0--0--0---0--0---0--0---0--0--|-0---0--0--0--0--0---0--0---0--0---0--0--|
 E|--------|--------|--------|-9---9--9--9--9--9---9--9---9--9---9--9--|-9---9--9--9--9--9---9--9---9--9---9--9--|
 B|--------|--------|--------|-9---9--9--9--9--9---9--9---9--9---9--9--|-9---9--9--9--9--9---9--9---9--9---9--9--|
F#|--------|--------|--------|-7---7--7--7--7--7---7--7---7--7---7--7--|-7---7--7--7--7--7---7--7---7--7---7--7--|
F#|--------|--------|--------|-----------------------------------------|-----------------------------------------|


C#|-8------8--8-----8------8------8---------|-8------8--8-----8------8------8---------|
G#|-0---0--0--0--0--0---0--0---0--0---0--0--|-0---0--0--0--0--0---0--0---0--0---0--0--|
 E|-9---9--9--9--9--9---9--9---9--9---9--9--|-9---9--9--9--9--9---9--9---9--9---9--9--|
 B|-9---9--9--9--9--9---9--9---9--9---9--9--|-9---9--9--9--9--9---9--9---9--9---9--9--|
F#|-7---7--7--7--7--7---7--7---7--7---7--7--|-7---7--7--7--7--7---7--7---7--7---7--7--|
F#|-----------------------------------------|-----------------------------------------|


C#|-8------8--8-----8------8------6----|-8------8--8-----8------8------8---------|
G#|-0---0--0--0--0--0---0--0------9----|-0---0--0--0--0--0---0--0---0--0---0--0--|
 E|-9---9--9--9--9--9---9--9-----------|-9---9--9--9--9--9---9--9---9--9---9--9--|
 B|-9---9--9--9--9--9---9--9-----------|-9---9--9--9--9--9---9--9---9--9---9--9--|
F#|-7---7--7--7--7--7---7--7-----------|-7---7--7--7--7--7---7--7---7--7---7--7--|
F#|------------------------------------|-----------------------------------------|


C#|-8------8--8-----8------8------6----|-8------8--8-----8------8------8---------|
G#|-0---0--0--0--0--0---0--0------9----|-0---0--0--0--0--0---0--0---0--0---0--0--|
 E|-9---9--9--9--9--9---9--9-----------|-9---9--9--9--9--9---9--9---9--9---9--9--|
 B|-9---9--9--9--9--9---9--9-----------|-9---9--9--9--9--9---9--9---9--9---9--9--|
F#|-7---7--7--7--7--7---7--7-----------|-7---7--7--7--7--7---7--7---7--7---7--7--|
F#|------------------------------------|-----------------------------------------|


C#|-----------------------------------------|-----------------------------------------|
G#|-----------------------------------------|-----------------------------------------|
 E|-----------------------------------------|-----------------------------------------|
 B|-----------------------------------------|-----------------------------------------|
F#|-0--4--3--1--4--3--1--5---0--5---0--1----|-0--4--3--1--4--3--1--5---0--5---0--1----|
F#|-0--4--3--1--4--3--1--5---0--5---0--1----|-0--4--3--1--4--3--1--5---0--5---0--1----|


C#|-----------------------------------------|-----------------------------------------|
G#|-----------------------------------------|-----------------------------------------|
 E|-----------------------------------------|-----------------------------------------|
 B|-----------------------------------------|-----------------------------------------|
F#|-0--4--3--1--4--3--1--5---0--5---0--1----|-0--4--3--1--4--3--1--5---0--5---0--1----|
F#|-0--4--3--1--4--3--1--5---0--5---0--1----|-0--4--3--1--4--3--1--5---0--5---0--1----|


C#|-----------------------------------------|-----------------------------------------|
G#|-----------------------------------------|-----------------------------------------|
 E|-----------------------------------------|-----------------------------------------|
 B|-----------------------------------------|-----------------------------------------|
F#|-0--4--3--1--4--3--1--5---0--5---0--1----|-0--4--3--1--4--3--1--5---0--5---0--1----|
F#|-0--4--3--1--4--3--1--5---0--5---0--1----|-0--4--3--1--4--3--1--5---0--5---0--1----|


C#|-----------------------------------------|-----------------------------------------|
G#|-----------------------------------------|-----------------------------------------|
 E|-----------------------------------------|-----------------------------------------|
 B|-----------------------------------------|-----------------------------------------|
F#|-0--4--3--1--4--3--1--5---0--5---0--1----|-0--4--3--1--4--3--1--5---0--5---0--1----|
F#|-0--4--3--1--4--3--1--5---0--5---0--1----|-0--4--3--1--4--3--1--5---0--5---0--1----|


C#|-8------8--8-----8------8------8---------|-8------8--8-----8------8------8---------|
G#|-0---0--0--0--0--0---0--0---0--0---0--0--|-0---0--0--0--0--0---0--0---0--0---0--0--|
 E|-9---9--9--9--9--9---9--9---9--9---9--9--|-9---9--9--9--9--9---9--9---9--9---9--9--|
 B|-9---9--9--9--9--9---9--9---9--9---9--9--|-9---9--9--9--9--9---9--9---9--9---9--9--|
F#|-7---7--7--7--7--7---7--7---7--7---7--7--|-7---7--7--7--7--7---7--7---7--7---7--7--|
F#|-----------------------------------------|-----------------------------------------|


C#|-8------8--8-----8------8------8---------|-8------8--8-----8------8------8---------|
G#|-0---0--0--0--0--0---0--0---0--0---0--0--|-0---0--0--0--0--0---0--0---0--0---0--0--|
 E|-9---9--9--9--9--9---9--9---9--9---9--9--|-9---9--9--9--9--9---9--9---9--9---9--9--|
 B|-9---9--9--9--9--9---9--9---9--9---9--9--|-9---9--9--9--9--9---9--9---9--9---9--9--|
F#|-7---7--7--7--7--7---7--7---7--7---7--7--|-7---7--7--7--7--7---7--7---7--7---7--7--|
F#|-----------------------------------------|-----------------------------------------|


C#|-------------------------------------------|-------------------------------------------|
G#|-------------------------------------------|-------------------------------------------|
 E|-------------------------------------------|-------------------------------------------|
 B|-------------------------------------------|-------------------------------------------|
F#|-0--4--3--1--4--3--1--5--5--0--5---0--1----|-0--4--3--1--4--3--1--5--5--0--5---0--1----|
F#|-0--4--3--1--4--3--1--5--5--0--5---0--1----|-0--4--3--1--4--3--1--5--5--0--5---0--1----|


C#|-------------------------------------------|-------------------------------------------|
G#|-------------------------------------------|-------------------------------------------|
 E|-------------------------------------------|-------------------------------------------|
 B|-------------------------------------------|-------------------------------------------|
F#|-0--4--3--1--4--3--1--5--5--0--5---0--1----|-0--4--3--1--4--3--1--5--5--0--5---0--1----|
F#|-0--4--3--1--4--3--1--5--5--0--5---0--1----|-0--4--3--1--4--3--1--5--5--0--5---0--1----|


C#|----------------------------|----------------------------|----------------------------|
G#|----------------------------|----------------------------|----------------------------|
 E|----------------------------|----------------------------|----------------------------|
 B|----------------------------|----------------------------|----------------------------|
F#|-1-1-1--1--1--1-------------|-1-1-1--1--1--1-------------|-1-1-1--1--1--1-------------|
F#|-1-1-1--1--1--1-------------|-1-1-1--1--1--1-------------|-1-1-1--1--1--1-------------|


C#|----------------------------|--------|--------|--------|--------|---------------------------------------|
G#|----------------------------|--------|--------|--------|--------|---------------------------------------|
 E|----------------------------|--------|--------|--------|--------|---------------------------------------|
 B|----------------------------|--------|--------|--------|--------|---------------------------------------|
F#|-1-1-1--1--1--1-------------|--------|--------|--------|--------|-0--1---0--0---0--1---0--0---0--0------|
F#|-1-1-1--1--1--1-------------|--------|--------|--------|--------|-0--1---0--0---0--1---0--0---0--0------|


C#|---------------------------------------|---------------------------------------|
G#|---------------------------------------|---------------------------------------|
 E|---------------------------------------|---------------------------------------|
 B|---------------------------------------|---------------------------------------|
F#|-0--1---0--0---0--1---0--0---0--0------|-0--1---0--0---0--1---0--0---0--0------|
F#|-0--1---0--0---0--1---0--0---0--0------|-0--1---0--0---0--1---0--0---0--0------|


C#|---------------------------------------|-8------8--8-----8------8------8---------|
G#|---------------------------------------|-0---0--0--0--0--0---0--0---0--0---0--0--|
 E|---------------------------------------|-9---9--9--9--9--9---9--9---9--9---9--9--|
 B|---------------------------------------|-9---9--9--9--9--9---9--9---9--9---9--9--|
F#|-0--1---0--0---0--1---0--0---0--0------|-7---7--7--7--7--7---7--7---7--7---7--7--|
F#|-0--1---0--0---0--1---0--0---0--0------|-----------------------------------------|


C#|-8------8--8-----8------8------8---------|-----------------------------------------|
G#|-0---0--0--0--0--0---0--0---0--0---0--0--|-----------------------------------------|
 E|-9---9--9--9--9--9---9--9---9--9---9--9--|-----------------------------------------|
 B|-9---9--9--9--9--9---9--9---9--9---9--9--|-----------------------------------------|
F#|-7---7--7--7--7--7---7--7---7--7---7--7--|-0--1---0--0---0--1--1--0--0---0--0------|
F#|-----------------------------------------|-0--1---0--0---0--1--1--0--0---0--0------|


C#|-----------------------------------------|-----------------------------------------|
G#|-----------------------------------------|-----------------------------------------|
 E|-----------------------------------------|-----------------------------------------|
 B|-----------------------------------------|-----------------------------------------|
F#|-0--1---0--0---0--1--1--0--0---0--0------|-0--1---0--0---0--1--1--0--0---0--0------|
F#|-0--1---0--0---0--1--1--0--0---0--0------|-0--1---0--0---0--1--1--0--0---0--0------|


C#|-----------------------------------------|-----------------------------------------|
G#|-----------------------------------------|-----------------------------------------|
 E|-----------------------------------------|-----------------------------------------|
 B|-----------------------------------------|-----------------------------------------|
F#|-0--1---0--0---0--1--1--0--0---0--0------|-0--1---0--0---0--1--1--0--0---0--0------|
F#|-0--1---0--0---0--1--1--0--0---0--0------|-0--1---0--0---0--1--1--0--0---0--0------|


C#|-----------------------------------------|-----------------------------------------|
G#|-----------------------------------------|-----------------------------------------|
 E|-----------------------------------------|-----------------------------------------|
 B|-----------------------------------------|-----------------------------------------|
F#|-0--1---0--0---0--1--1--0--0---0--0------|-0--1---0--0---0--1--1--0--0---0--0------|
F#|-0--1---0--0---0--1--1--0--0---0--0------|-0--1---0--0---0--1--1--0--0---0--0------|


C#|-----------------------------------------|-----------------------|-----------------------|
G#|-----------------------------------------|-----------------------|-----------------------|
 E|-----------------------------------------|-----------------------|-----------------------|
 B|-----------------------------------------|-----------------------|-----------------------|
F#|-0--1---0--0---0--1--1--0--0---0--0------|-0--1----1---0---0-----|-0--1----1---0---0-----|
F#|-0--1---0--0---0--1--1--0--0---0--0------|-0--1----1---0---0-----|-0--1----1---0---0-----|


C#|-----------------------|-----------------------|---------------------------|---------------------------|
G#|-----------------------|-----------------------|---------------------------|---------------------------|
 E|-----------------------|-----------------------|---------------------------|---------------------------|
 B|-----------------------|-----------------------|---------------------------|---------------------------|
F#|-0--7----7---0---0-----|-0--7----7---0---0-----|-0--1----1---0---0---------|-0--1----1---0---0---------|
F#|-0--7----7---0---0-----|-0--7----7---0---0-----|-0--1----1---0---0---------|-0--1----1---0---0---------|


C#|---------------------------|---------------------------|---------------------------|
G#|---------------------------|---------------------------|---------------------------|
 E|---------------------------|---------------------------|---------------------------|
 B|---------------------------|---------------------------|---------------------------|
F#|-0--1----1---0---0---------|-0--1----1---0---0---------|-0--1----1---0---0---------|
F#|-0--1----1---0---0---------|-0--1----1---0---0---------|-0--1----1---0---0---------|


C#|---------------------------|---------------------------|---------------------------|
G#|---------------------------|---------------------------|---------------------------|
 E|---------------------------|---------------------------|---------------------------|
 B|---------------------------|---------------------------|---------------------------|
F#|-0--1----1---0---0---------|-0--1----1---0---0---------|-0--1----1---0---0----0----|
F#|-0--1----1---0---0---------|-0--1----1---0---0---------|-0--1----1---0---0----0----|


C#|-------------|-------------|-----------------|-------------|--------|--------|--------|
G#|-------------|-------------|-----------------|-------------|--------|--------|--------|
 E|-------------|-------------|-----------------|-------------|--------|--------|--------|
 B|-------------|-------------|-----------0-----|-------------|--------|--------|--------|
F#|-0-----0-----|-0----0------|-0-----0---0-----|-0-----0-----|-0------|-0------|-0------|
F#|-0-----0-----|-0----0------|-0-----0---0-----|-0-----0-----|--------|--------|--------|


C#|--------|---------------------------|---------------------------|---------------------------|
G#|--------|---------------------------|---------------------------|---------------------------|
 E|--------|---------------------------|---------------------------|---------------------------|
 B|--------|---------------------------|---------------------------|---------------------------|
F#|-0------|-0---0----0---0----0---0---|-0---0----0---0----0---0---|-0---0----0---0----0---0---|
F#|--------|-----0----0---0----0---0---|-0---0----0---0----0---0---|-0---0----0---0----0---0---|


C#|---------------------------|---------------------------|---------------------------|
G#|---------------------------|---------------------------|---------------------------|
 E|---------------------------|---------------------------|---------------------------|
 B|---------------------------|---------------------------|---------------------------|
F#|-0---0----0---0----0---0---|-0---0----0---0----0---0---|-0---0----0---0----0---0---|
F#|-0---0----0---0----0---0---|-0---0----0---0----0---0---|-0---0----0---0----0---0---|


C#|---------------------------|---------------------------|---------------------------|
G#|---------------------------|---------------------------|---------------------------|
 E|---------------------------|---------------------------|---------------------------|
 B|---------------------------|---------------------------|---------------------------|
F#|-0---0----0---0----0---0---|-0---0----0---0----0---0---|-0---0----0---0----0---0---|
F#|-0---0----0---0----0---0---|-0---0----0---0----0---0---|-0---0----0---0----0---0---|


C#|---------------------------|---------------------------|---------------------------|
G#|---------------------------|---------------------------|---------------------------|
 E|---------------------------|---------------------------|---------------------------|
 B|---------------------------|---------------------------|---------------------------|
F#|-0---0----0---0----0---0---|-0---0----0---0----0---0---|-0---0----0---0----0---0---|
F#|-0---0----0---0----0---0---|-0---0----0---0----0---0---|-0---0----0---0----0---0---|


C#|---------------------------|---------------------------|---------------------------|
G#|---------------------------|---------------------------|---------------------------|
 E|---------------------------|---------------------------|---------------------------|
 B|---------------------------|---------------------------|---------------------------|
F#|-0---0----0---0----0---0---|-0---0----0---0----0---0---|-0---0----0---0----0---0---|
F#|-0---0----0---0----0---0---|-0---0----0---0----0---0---|-0---0----0---0----0---0---|


C#|---------------------------|---------------------------|---------------------------|
G#|---------------------------|---------------------------|---------------------------|
 E|---------------------------|---------------------------|---------------------------|
 B|---------------------------|---------------------------|---------------------------|
F#|-0---0----0---0----0---0---|-0---0----0---0----0---0---|-0---0----0---0----0---0---|
F#|-0---0----0---0----0---0---|-0---0----0---0----0---0---|-0---0----0---0----0---0---|


C#|---------------------------|---------------------------|---------------------------|
G#|---------------------------|---------------------------|---------------------------|
 E|---------------------------|---------------------------|---------------------------|
 B|---------------------------|---------------------------|---------------------------|
F#|-0---0----0---0----0---0---|-0---0----0---0----0---0---|-0---0----0---0----0---0---|
F#|-0---0----0---0----0---0---|-0---0----0---0----0---0---|-0---0----0---0----0---0---|


C#|---------------------------|---------------------------|---------------------------|
G#|---------------------------|---------------------------|---------------------------|
 E|---------------------------|---------------------------|---------------------------|
 B|---------------------------|---------------------------|---------------------------|
F#|-0---0----0---0----0---0---|-0---0----0---0----0---0---|-0---0----0---0----0---0---|
F#|-0---0----0---0----0---0---|-0---0----0---0----0---0---|-0---0----0---0----0---0---|


C#|---------------------------|---------------------------|---------------------------|
G#|---------------------------|---------------------------|---------------------------|
 E|---------------------------|---------------------------|---------------------------|
 B|---------------------------|---------------------------|---------------------------|
F#|-0---0----0---0----0---0---|-0---0----0---0----0---0---|-0---0----0---0----0---0---|
F#|-0---0----0---0----0---0---|-0---0----0---0----0---0---|-0---0----0---0----0---0---|


C#|---------------------------|---------------------------|---------------------------|
G#|---------------------------|---------------------------|---------------------------|
 E|---------------------------|---------------------------|---------------------------|
 B|---------------------------|---------------------------|---------------------------|
F#|-0---0----0---0----0---0---|-0---0----0---0----0---0---|-0---0----0---0----0---0---|
F#|-0---0----0---0----0---0---|-0---0----0---0----0---0---|-0---0----0---0----0---0---|


C#|---------------------------|---------------------------|---------------------------|
G#|---------------------------|---------------------------|---------------------------|
 E|---------------------------|---------------------------|---------------------------|
 B|---------------------------|---------------------------|---------------------------|
F#|-0---0----0---0----0---0---|-0---0----0---0----0---0---|-0---0----0---0----0---0---|
F#|-0---0----0---0----0---0---|-0---0----0---0----0---0---|-0---0----0---0----0---0---|


C#|---------------------------|---------------------------|---------------------------|
G#|---------------------------|---------------------------|---------------------------|
 E|---------------------------|---------------------------|---------------------------|
 B|---------------------------|---------------------------|---------------------------|
F#|-0---0----0---0----0---0---|-0---0----0---0----0---0---|-0---0----0---0----0---0---|
F#|-0---0----0---0----0---0---|-0---0----0---0----0---0---|-0---0----0---0----0---0---|


C#|---------------------------|---------------------------|---------------------------|
G#|---------------------------|---------------------------|---------------------------|
 E|---------------------------|---------------------------|---------------------------|
 B|---------------------------|---------------------------|---------------------------|
F#|-0---0----0---0----0---0---|-0---0----0---0----0---0---|-0---0----0---0----0---0---|
F#|-0---0----0---0----0---0---|-0---0----0---0----0---0---|-0---0----0---0----0---0---|


C#|---------------------------|---------------------------|---------------------------|
G#|---------------------------|---------------------------|---------------------------|
 E|---------------------------|---------------------------|---------------------------|
 B|---------------------------|---------------------------|---------------------------|
F#|-0---0----0---0----0---0---|-0---0----0---0----0---0---|-0---0----0---0----0---0---|
F#|-0---0----0---0----0---0---|-0---0----0---0----0---0---|-0---0----0---0----0---0---|


C#|---------------------------|---------------------------|----------------------------|
G#|---------------------------|---------------------------|----------------------------|
 E|---------------------------|---------------------------|----------------------------|
 B|---------------------------|---------------------------|----------------------------|
F#|-0---0----0---0----0---0---|-0---0----0---0----0---0---|-0----0---0---0---0---------|
F#|-0---0----0---0----0---0---|-0---0----0---0----0---0---|------0---0---0---0---------|


C#|--------|--------|--------|--------|--------|--------|--------|--------|--------|
G#|--------|--------|--------|--------|--------|--------|--------|--------|--------|
 E|--------|--------|--------|--------|--------|--------|--------|--------|--------|
 B|--------|--------|--------|--------|--------|--------|--------|--------|--------|
F#|--------|--------|--------|--------|--------|--------|--------|--------|--------|
F#|--------|--------|--------|--------|--------|--------|--------|--------|--------|


C#|--------|--------|--------|--------|--------|--------|----------------------------|
G#|--------|--------|--------|--------|--------|--------|----------------------------|
 E|--------|--------|--------|--------|--------|--------|----------------------------|
 B|--------|--------|--------|--------|--------|--------|----------------------------|
F#|--------|--------|--------|--------|--------|--------|-0--0-------0---------0--0--|
F#|--------|--------|--------|--------|--------|--------|-0--0-------0---------0--0--|


C#|----------------------------|-------------------------------|----------------------|
G#|----------------------------|-------------------------------|----------------------|
 E|----------------------------|-------------------------------|----------------------|
 B|----------------------------|-------------------------------|----------------------|
F#|-0--0-------0---------0--0--|-0--0-------0---0----0---0--0--|-0--0-------0---------|
F#|-0--0-------0---------0--0--|-0--0-------0---0----0---0--0--|-0--0-------0---------|





Track 2: Guitar 2

C#|--------|--------|--------|--------|--------|--------|--------|--------|-----------------------------------------------|
G#|--------|--------|--------|--------|--------|--------|--------|--------|-----------------------------------------------|
 E|--------|--------|--------|--------|--------|--------|--------|--------|-----------------------------------------------|
 B|--------|--------|--------|--------|--------|--------|--------|--------|-----------------------------------------------|
F#|--------|--------|--------|--------|--------|--------|--------|--------|-----------------------------------------------|
F#|--------|--------|--------|--------|--------|--------|--------|--------|-0--0--0--0--0--0--0--0--0--0--0--0--0---0--0--|


C#|-----------------------------------------------|-----------------------------------------------|
G#|-----------------------------------------------|-----------------------------------------------|
 E|-----------------------------------------------|-----------------------------------------------|
 B|-----------------------------------------------|-----------------------------------------------|
F#|-----------------------------------------------|-----------------------------------------------|
F#|-0--0--0--0--0--0--0--0--0--0--0--0--0---0--0--|-0--0--0--0--0--0--0--0--0--0--0--0--0---0--0--|


C#|-----------------------------------------------|-----------------------------------------------|
G#|-----------------------------------------------|-----------------------------------------------|
 E|-----------------------------------------------|-----------------------------------------------|
 B|-----------------------------------------------|-----------------------------------------------|
F#|-----------------------------------------------|-----------------------------------------------|
F#|-0--0--0--0--0--0--0--0--0--0--0--0--0---0--0--|-0--0--0--0--0--0--0--0--0--0--0--0--0---0--0--|


C#|-----------------------------------------------|-----------------------------------------------|
G#|-----------------------------------------------|-----------------------------------------------|
 E|-----------------------------------------------|-----------------------------------------------|
 B|-----------------------------------------------|-----------------------------------------------|
F#|-----------------------------------------------|-----------------------------------------------|
F#|-0--0--0--0--0--0--0--0--0--0--0--0--0---0--0--|-0--0--0--0--0--0--0--0--0--0--0--0--0---0--0--|


C#|-----------------------------------------------|-----------------------------------------------|
G#|-----------------------------------------------|-----------------------------------------------|
 E|-----------------------------------------------|-----------------------------------------------|
 B|-----------------------------------------------|-----------------------------------------------|
F#|-----------------------------------------------|-----------------------------------------------|
F#|-0--0--0--0--0--0--0--0--0--0--0--0--0---0--0--|-0--0--0--0--0--0--0--0--0--0--0--0--0---0--0--|


C#|-----------------------------------------------|-----------------------------------------------|
G#|-----------------------------------------------|-----------------------------------------------|
 E|-----------------------------------------------|-----------------------------------------------|
 B|-----------------------------------------------|-----------------------------------------------|
F#|-----------------------------------------------|-----------------------------------------------|
F#|-0--0--0--0--0--0--0--0--0--0--0--0--0---0--0--|-0--0--0--0--0--0--0--0--0--0--0--0--0---0--0--|


C#|-----------------------------------------------|-----------------------------------------------|
G#|-----------------------------------------------|-----------------------------------------------|
 E|-----------------------------------------------|-----------------------------------------------|
 B|-----------------------------------------------|-----------------------------------------------|
F#|-----------------------------------------------|-----------------------------------------------|
F#|-0--0--0--0--0--0--0--0--0--0--0--0--0---0--0--|-0--0--0--0--0--0--0--0--0--0--0--0--0---0--0--|


C#|-----------------------------------------------|-----------------------------------------------|
G#|-----------------------------------------------|-----------------------------------------------|
 E|-----------------------------------------------|-----------------------------------------------|
 B|-----------------------------------------------|-----------------------------------------------|
F#|-----------------------------------------------|-----------------------------------------------|
F#|-0--0--0--0--0--0--0--0--0--0--0--0--0---0--0--|-0--0--0--0--0--0--0--0--0--0--0--0--0---0--0--|


C#|-----------------------------------------------|-----------------------------------------------|
G#|-----------------------------------------------|-----------------------------------------------|
 E|-----------------------------------------------|-----------------------------------------------|
 B|-----------------------------------------------|-----------------------------------------------|
F#|-----------------------------------------------|-----------------------------------------------|
F#|-0--0--0--0--0--0--0--0--0--0--0--0--0---0--0--|-0--0--0--0--0--0--0--0--0--0--0--0--0---0--0--|


C#|-----------------------------------------------|-----------------------------------------------|
G#|-----------------------------------------------|-----------------------------------------------|
 E|-----------------------------------------------|-----------------------------------------------|
 B|-----------------------------------------------|-----------------------------------------------|
F#|-----------------------------------------------|-----------------------------------------------|
F#|-0--0--0--0--0--0--0--0--0--0--0--0--0---0--0--|-0--0--0--0--0--0--0--0--0--0--0--0--0---0--0--|


C#|-----------------------------------------------|-------------------------------------------------|
G#|-----------------------------------------------|-------------------------------------------------|
 E|-----------------------------------------------|-4--4--4--4--4--4--4--4--4--4--4--4--4--4--4--4--|
 B|-----------------------------------------------|-------------------------------------------------|
F#|-----------------------------------------------|-------------------------------------------------|
F#|-0--0--0--0--0--0--0--0--0--0--0--0--0---0--0--|-------------------------------------------------|


C#|-------------------------------------------------|-------------------------------------------------|
G#|-------------------------------------------------|-------------------------------------------------|
 E|-4--4--4--4--4--4--4--4--4--4--4--4--4--4--4--4--|-4--4--4--4--4--4--4--4--4--4--4--4--4--4--4--4--|
 B|-------------------------------------------------|-------------------------------------------------|
F#|-------------------------------------------------|-------------------------------------------------|
F#|-------------------------------------------------|-------------------------------------------------|


C#|-------------------------------------------------|-----------------------------------------------|
G#|-------------------------------------------------|-----------------------------------------------|
 E|-4--4--4--4--4--4--4--4--4--4--4--4--4--4--4--4--|-4---4--4--4--4--4--4--4--4--4--4--4--4--4--4--|
 B|-------------------------------------------------|-----------------------------------------------|
F#|-------------------------------------------------|-----------------------------------------------|
F#|-------------------------------------------------|-----------------------------------------------|


C#|-------------------------------------------------|-------------------------------------------------|
G#|-------------------------------------------------|-------------------------------------------------|
 E|-4--4--4--4--4--4--4--4--4--4--4--4--4--4--4--4--|-4--4--4--4--4--4--4--4--4--4--4--4--4--4--4--4--|
 B|-------------------------------------------------|-------------------------------------------------|
F#|-------------------------------------------------|-------------------------------------------------|
F#|-------------------------------------------------|-------------------------------------------------|


C#|-------------------------------------------------|-------------------------------------------------|
G#|-------------------------------------------------|-------------------------------------------------|
 E|-4--4--4--4--4--4--4--4--4--4--4--4--4--4--4--4--|-4--4--4--4--4--4--4--4--4--4--4--4--4--4--4--4--|
 B|-------------------------------------------------|-------------------------------------------------|
F#|-------------------------------------------------|-------------------------------------------------|
F#|-------------------------------------------------|-------------------------------------------------|


C#|-------------------------------------------------|-------------------------------------------------|
G#|-------------------------------------------------|-------------------------------------------------|
 E|-4--4--4--4--4--4--4--4--4--4--4--4--4--4--4--4--|-4--4--4--4--4--4--4--4--4--4--4--4--4--4--4--4--|
 B|-------------------------------------------------|-------------------------------------------------|
F#|-------------------------------------------------|-------------------------------------------------|
F#|-------------------------------------------------|-------------------------------------------------|


C#|-------------------------0--0--0--0-------|----------------------|----------------------|
G#|-0--0--0--0--0--0--0--0-------------------|----------------------|----------------------|
 E|------------------------------------------|----------------------|----------------------|
 B|------------------------------------------|----------------------|----------------------|
F#|------------------------------------------|-0--1----1--0-----0---|-0--1----1--0-----0---|
F#|-------------------------------------12---|-0--1----1--0-----0---|-0--1----1--0-----0---|


C#|----------------------|----------------------|-----------------------|-----------------------|
G#|----------------------|----------------------|-----------------------|-----------------------|
 E|----------------------|----------------------|-----------------------|-----------------------|
 B|----------------------|----------------------|-----------------------|-----------------------|
F#|-0--1----1--0-----0---|-0--1----1--0-----0---|-0--1----1--0----------|-0--1----1--0----------|
F#|-0--1----1--0-----0---|-0--1----1--0-----0---|-0--1----1--0----------|-0--1----1--0----------|


C#|-----------------------|-----------------------|--------|--------|--------|--------|
G#|-----------------------|-----------------------|--------|--------|--------|--------|
 E|-----------------------|-----------------------|--------|--------|--------|--------|
 B|-----------------------|-----------------------|--------|--------|--------|--------|
F#|-0--1----1--0----------|-0--1----1--0----------|--------|--------|--------|--------|
F#|-0--1----1--0----------|-0--1----1--0----------|--------|--------|--------|--------|


C#|--------|--------|--------|--------|-7--7--7--7--7--7--7--7--7--7--7--7--7--7--7--7--|
G#|--------|--------|--------|--------|-10-10-10-10-10-10-10-10-10-10-10-10-10-10-10-10-|
 E|--------|--------|--------|--------|-------------------------------------------------|
 B|--------|--------|--------|--------|-------------------------------------------------|
F#|--------|--------|--------|--------|-------------------------------------------------|
F#|--------|--------|--------|--------|-------------------------------------------------|


C#|-7--7--7--7--7--7--7--7--7--7--7--7--7--7--7--7--|-7--7--7--7--7--7--7--7--7--7--7--7--7--7--7--7--|
G#|-10-10-10-10-10-10-10-10-10-10-10-10-10-10-10-10-|-10-10-10-10-10-10-10-10-10-10-10-10-10-10-10-10-|
 E|-------------------------------------------------|-------------------------------------------------|
 B|-------------------------------------------------|-------------------------------------------------|
F#|-------------------------------------------------|-------------------------------------------------|
F#|-------------------------------------------------|-------------------------------------------------|


C#|-7--7--7--7--7--7--7--7--7--7--7--7--7--7--7--7--|--------|--------|--------|--------|
G#|-10-10-10-10-10-10-10-10-10-10-10-10-10-10-10-10-|--------|--------|--------|--------|
 E|-------------------------------------------------|--------|--------|--------|--------|
 B|-------------------------------------------------|--------|--------|--------|--------|
F#|-------------------------------------------------|--------|--------|--------|--------|
F#|-------------------------------------------------|--------|--------|--------|--------|


C#|--------|--------|--------|--------|--------|--------|--------|--------|---------------------------------------|
G#|--------|--------|--------|--------|--------|--------|--------|--------|---------------------------------------|
 E|--------|--------|--------|--------|--------|--------|--------|--------|---------------------------------------|
 B|--------|--------|--------|--------|--------|--------|--------|--------|---------------------------------------|
F#|--------|--------|--------|--------|--------|--------|--------|--------|-0--1---0--0---0--1---0--0---0--0------|
F#|--------|--------|--------|--------|--------|--------|--------|--------|-0--1---0--0---0--1---0--0---0--0------|


C#|---------------------------------------|---------------------------------------|
G#|---------------------------------------|---------------------------------------|
 E|---------------------------------------|---------------------------------------|
 B|---------------------------------------|---------------------------------------|
F#|-0--1---0--0---0--1---0--0---0--0------|-0--1---0--0---0--1---0--0---0--0------|
F#|-0--1---0--0---0--1---0--0---0--0------|-0--1---0--0---0--1---0--0---0--0------|


C#|---------------------------------------|-----------------------------------------|
G#|---------------------------------------|-----------------------------------------|
 E|---------------------------------------|-----------------------------------------|
 B|---------------------------------------|-----------------------------------------|
F#|-0--1---0--0---0--1---0--0---0--0------|-0--1---0--0---0--1--1--0--0---0--0------|
F#|-0--1---0--0---0--1---0--0---0--0------|-0--1---0--0---0--1--1--0--0---0--0------|


C#|-----------------------------------------|-----------------------------------------|
G#|-----------------------------------------|-----------------------------------------|
 E|-----------------------------------------|-----------------------------------------|
 B|-----------------------------------------|-----------------------------------------|
F#|-0--1---0--0---0--1--1--0--0---0--0------|-0--1---0--0---0--1--1--0--0---0--0------|
F#|-0--1---0--0---0--1--1--0--0---0--0------|-0--1---0--0---0--1--1--0--0---0--0------|


C#|-----------------------------------------|-----------------------------------------|
G#|-----------------------------------------|-----------------------------------------|
 E|-----------------------------------------|-----------------------------------------|
 B|-----------------------------------------|-----------------------------------------|
F#|-0--1---0--0---0--1--1--0--0---0--0------|-0--1---0--0---0--1--1--0--0---0--0------|
F#|-0--1---0--0---0--1--1--0--0---0--0------|-0--1---0--0---0--1--1--0--0---0--0------|


C#|-----------------------------------------|-----------------------------------------|
G#|-----------------------------------------|-----------------------------------------|
 E|-----------------------------------------|-----------------------------------------|
 B|-----------------------------------------|-----------------------------------------|
F#|-0--1---0--0---0--1--1--0--0---0--0------|-0--1---0--0---0--1--1--0--0---0--0------|
F#|-0--1---0--0---0--1--1--0--0---0--0------|-0--1---0--0---0--1--1--0--0---0--0------|


C#|-----------------------------------------|-----------------------------------------|
G#|-----------------------------------------|-----------------------------------------|
 E|-----------------------------------------|-----------------------------------------|
 B|-----------------------------------------|-----------------------------------------|
F#|-0--1---0--0---0--1--1--0--0---0--0------|-0--1---0--0---0--1--1--0--0---0--0------|
F#|-0--1---0--0---0--1--1--0--0---0--0------|-0--1---0--0---0--1--1--0--0---0--0------|


C#|-----------------------------------------|--------|--------|--------|--------|--------|
G#|-----------------------------------------|--------|--------|--------|--------|--------|
 E|-----------------------------------------|--------|--------|--------|--------|--------|
 B|-----------------------------------------|--------|--------|--------|--------|--------|
F#|-0--1---0--0---0--1--1--0--0---0--0------|--------|--------|--------|--------|--------|
F#|-0--1---0--0---0--1--1--0--0---0--0------|--------|--------|--------|--------|--------|


C#|--------|--------|--------|--------|--------|--------|-----------------------|--------|
G#|--------|--------|--------|--------|--------|--------|-----------------------|--------|
 E|--------|--------|--------|--------|--------|--------|-----------------------|--------|
 B|--------|--------|--------|--------|--------|--------|-----------------------|--------|
F#|--------|--------|--------|--------|--------|--------|-0--1----1---0---0-----|-0------|
F#|--------|--------|--------|--------|--------|--------|-0--1----1---0---0-----|-0------|


C#|-------------|--------|-------------|--------|--------|--------|--------|--------|
G#|-------------|--------|-------------|--------|--------|--------|--------|--------|
 E|--------0----|-0------|-0-----0-----|-0------|-0------|-0------|-0------|-0------|
 B|-------------|--------|-------------|--------|--------|--------|--------|--------|
F#|-0------0----|-0------|-0-----------|--------|--------|--------|--------|--------|
F#|-0------0----|-0------|-0-----------|--------|--------|--------|--------|--------|


C#|--------|--------|--------|-----------------|-------------|--------|---------------------------|
G#|--------|--------|--------|-----------------|-------------|--------|-20----22--0---0--0--0--0--|
 E|-0------|-0------|-0------|-0---------------|--------0----|-0------|-----------0---0--0--0--0--|
 B|--------|--------|--------|-------0---0-----|-0-----------|--------|---------------------------|
F#|--------|--------|--------|-----------------|-------------|--------|---------------------------|
F#|--------|--------|--------|-----------------|-------------|--------|---------------------------|


C#|---------------------------|---------------------------|---------------------------|
G#|-20----22--0---0--0--0--0--|-20----22--0---0--0--0--0--|-20----22--0---0--0--0--0--|
 E|-----------0---0--0--0--0--|-----------0---0--0--0--0--|-----------0---0--0--0--0--|
 B|---------------------------|---------------------------|---------------------------|
F#|---------------------------|---------------------------|---------------------------|
F#|---------------------------|---------------------------|---------------------------|


C#|---------22---22--20-------|---------22---22--20-------|---------22---22--20-------|
G#|-20--22----------------0---|-20--22----------------0---|-20--22----------------0---|
 E|-----------------------0---|-----------------------0---|-----------------------0---|
 B|---------------------------|---------------------------|---------------------------|
F#|---------------------------|---------------------------|---------------------------|
F#|---------------------------|---------------------------|---------------------------|


C#|---------22---22--20-------|----------------------------------------|-------------------14---15--17--|
G#|-20--22----------------0---|----------------------------------------|--------------------------------|
 E|-----------------------0---|----------------------------------------|--------------------------------|
 B|---------------------------|----------------------------0--0--0--0--|--------------------------------|
F#|---------------------------|-0----0---0--0--0--0--0--0--0--0--0--0--|-0----0---0--0--0---------------|
F#|---------------------------|-0----0---0--0--0--0--0--0--------------|-0----0---0--0--0---------------|


C#|-------------------14---15--17--|-------------------14---15--17--|-------------------14---15--17--|
G#|--------------------------------|--------------------------------|--------------------------------|
 E|--------------------------------|--------------------------------|--------------------------------|
 B|--------------------------------|--------------------------------|--------------------------------|
F#|-0----0---0--0--0---------------|-0----0---0--0--0---------------|-0----0---0--0--0---------------|
F#|-0----0---0--0--0---------------|-0----0---0--0--0---------------|-0----0---0--0--0---------------|


C#|-------------------14---15--17--|-------------------14---15--17--|--------------------2--2--2--2--2--2--2--2--2---|
G#|--------------------------------|--------------------------------|--------------------2--2--2--2--2--2--2--2--2---|
 E|--------------------------------|--------------------------------|--------------------2--2--2--2--2--2--2--2--2---|
 B|--------------------------------|--------------------------------|------------------------------------------------|
F#|-0----0---0--0--0---------------|-0----0---0--0--0---------------|-0----0---0--0--0-------------------------------|
F#|-0----0---0--0--0---------------|-0----0---0--0--0---------------|-0----0---0--0--0-------------------------------|


C#|-3--5---3--5---3---5-3-3-3-5-3-3-3-5-3-3-3-5-3-3-3-|-5-3-3-3-5-3-3-3-5-3-3-3-5-3-3-3-5-3-3-3-5-3-3-3-5-3-3-3-5-3-3-3-|
G#|---------------------------------------------------|-----------------------------------------------------------------|
 E|---------------------------------------------------|-----------------------------------------------------------------|
 B|---------------------------------------------------|-----------------------------------------------------------------|
F#|---------------------------------------------------|-----------------------------------------------------------------|
F#|---------------------------------------------------|-----------------------------------------------------------------|


C#|-5-3-3-3-5-3-3-3-5-3-3-3-5-3-3-3-5-3-3-3-5-3-3-3-5-3-3-3-5-3-3-3-|-5-3-3-3-5-3-3-3-5-3-3-3-5-3-3-3-5-3-3-3-5-3-3-3-5-3-3-3-5-3-3-3-|
G#|-----------------------------------------------------------------|-----------------------------------------------------------------|
 E|-----------------------------------------------------------------|-----------------------------------------------------------------|
 B|-----------------------------------------------------------------|-----------------------------------------------------------------|
F#|-----------------------------------------------------------------|-----------------------------------------------------------------|
F#|-----------------------------------------------------------------|-----------------------------------------------------------------|


C#|-5-3-3-3-5-3-3-3-5-3-3-3-5-3-3-3-5-3-3-3-5-3-3-3-5-3-3-3-5-3-3-3-|-5-3-3-3-5-3-3-3-5-3-3-3-5-3-3-3-5-3-3-3-5-3-3-3-5-3-3-3-5-3-3-3-|
G#|-----------------------------------------------------------------|-----------------------------------------------------------------|
 E|-----------------------------------------------------------------|-----------------------------------------------------------------|
 B|-----------------------------------------------------------------|-----------------------------------------------------------------|
F#|-----------------------------------------------------------------|-----------------------------------------------------------------|
F#|-----------------------------------------------------------------|-----------------------------------------------------------------|


C#|-5-3-3-3-5-3-3-3-5-3-3-3-5-3-3-3-5-3-3-3-5-3-3-3-5-3-3-3-5-3-3-3-|-5-3-3-3-5-3-3-3-5-3-3-3-5-3-3-3-5-3-3-3-5-3-3-3-5-3-3-3-5-3-3-3-|
G#|-----------------------------------------------------------------|-----------------------------------------------------------------|
 E|-----------------------------------------------------------------|-----------------------------------------------------------------|
 B|-----------------------------------------------------------------|-----------------------------------------------------------------|
F#|-----------------------------------------------------------------|-----------------------------------------------------------------|
F#|-----------------------------------------------------------------|-----------------------------------------------------------------|


C#|--------|--------|--------|--------|--------|--------|--------|--------|--------|
G#|--------|--------|--------|--------|--------|--------|--------|--------|--------|
 E|--------|--------|--------|--------|--------|--------|--------|--------|--------|
 B|--------|--------|--------|--------|--------|--------|--------|--------|--------|
F#|--------|--------|--------|--------|--------|--------|--------|--------|--------|
F#|--------|--------|--------|--------|--------|--------|--------|--------|--------|


C#|--------|--------|--------|--------|--------|--------|--------|--------|--------|
G#|--------|--------|--------|--------|--------|--------|--------|--------|--------|
 E|--------|--------|--------|--------|--------|--------|--------|--------|--------|
 B|--------|--------|--------|--------|--------|--------|--------|--------|--------|
F#|--------|--------|--------|--------|--------|--------|--------|--------|--------|
F#|--------|--------|--------|--------|--------|--------|--------|--------|--------|


C#|--------|--------|--------|--------|--------|--------|--------|--------|--------|
G#|--------|--------|--------|--------|--------|--------|--------|--------|--------|
 E|--------|--------|--------|--------|--------|--------|--------|--------|--------|
 B|--------|--------|--------|--------|--------|--------|--------|--------|--------|
F#|--------|--------|--------|--------|--------|--------|--------|--------|--------|
F#|--------|--------|--------|--------|--------|--------|--------|--------|--------|


C#|----------------------------|----------------------------|--------|--------|--------|
G#|----------------------------|----------------------------|--------|--------|--------|
 E|----------------------------|----------------------------|--------|--------|--------|
 B|----------------------------|----------------------------|--------|--------|--------|
F#|-0--0-------0---------0--0--|-0--0-------0---------0--0--|--------|--------|--------|
F#|-0--0-------0---------0--0--|-0--0-------0---------0--0--|--------|--------|--------|


C#|--------|
G#|--------|
 E|--------|
 B|--------|
F#|--------|
F#|--------|





Track 3: Bass

 E|--------|--------|--------|--------|--------|--------|--------|--------|--------|
 B|--------|--------|--------|--------|--------|--------|--------|--------|--------|
F#|--------|--------|--------|--------|--------|--------|--------|--------|--------|
F#|--------|--------|--------|--------|--------|--------|--------|--------|--------|


 E|--------|--------|--------|------------------------|------------------------|------------------------|
 B|--------|--------|--------|------------------------|------------------------|------------------------|
F#|--------|--------|--------|------------------------|------------------------|------------------------|
F#|--------|--------|--------|-2--2----1----0----1----|-2--2----1----0----1----|-2--2----1----0----1----|


 E|------------------------|------------------------|------------------------|------------------------|
 B|------------------------|------------------------|------------------------|------------------------|
F#|------------------------|------------------------|------------------------|------------------------|
F#|-2--2----1----0----1----|-2--2----1----0----1----|-2--2----1----0----1----|-2--2----1----0----1----|


 E|------------------------|------------------------|------------------------|------------------------|
 B|------------------------|------------------------|------------------------|------------------------|
F#|------------------------|------------------------|------------------------|------------------------|
F#|-2--2----1----0----1----|-2--2----1----0----1----|-2--2----1----0----1----|-2--2----1----0----1----|


 E|------------------------|------------------------|------------------------|------------------------|
 B|------------------------|------------------------|------------------------|------------------------|
F#|------------------------|------------------------|------------------------|------------------------|
F#|-2--2----1----0----1----|-2--2----1----0----1----|-2--2----1----0----1----|-2--2----1----0----1----|


 E|------------------------|-----------------|-----------------|-----------------|
 B|------------------------|-----------------|-----------------|-----------------|
F#|------------------------|-----------------|-----------------|-----------------|
F#|-2--2----1----0----1----|-2-----1-----1---|-2-----1-----1---|-2-----1-----1---|


 E|---------------------------|-----------------|-----------------|-----------------|
 B|---------------------------|-----------------|-----------------|-----------------|
F#|---------------------------|-----------------|-----------------|-----------------|
F#|-2--2----2--1----4----3----|-2-----1-----1---|-2-----1-----1---|-2-----1-----1---|


 E|---------------------------|-----------------|-----------------|-----------------|
 B|---------------------------|-----------------|-----------------|-----------------|
F#|---------------------------|-----------------|-----------------|-----------------|
F#|-2--2----2--1----4----3----|-2-----1-----1---|-2-----1-----1---|-2-----1-----1---|


 E|---------------------------|----------------------|----------------------|----------------------|
 B|---------------------------|----------------------|----------------------|----------------------|
F#|---------------------------|----------------------|----------------------|----------------------|
F#|-2--2----2--1----4----3----|-0--1----1--0-----0---|-0--1----1--0-----0---|-0--1----1--0-----0---|


 E|----------------------|----------------------|----------------------|----------------------|
 B|----------------------|----------------------|----------------------|----------------------|
F#|----------------------|----------------------|----------------------|----------------------|
F#|-0--1----1--0-----0---|-0--1----1--0-----0---|-0--1----1--0-----0---|-0--1----1--0-----0---|


 E|----------------------|-----------------------------------------|-----------------------------------------|
 B|----------------------|-----------------------------------------|-----------------------------------------|
F#|----------------------|-----------------------------------------|-----------------------------------------|
F#|-0--1----1--0-----0---|-0--4--3--1--4--3--1--5---0--5---0--1----|-0--4--3--1--4--3--1--5---0--5---0--1----|


 E|-----------------------------------------|-----------------------------------------|
 B|-----------------------------------------|-----------------------------------------|
F#|-----------------------------------------|-----------------------------------------|
F#|-0--4--3--1--4--3--1--5---0--5---0--1----|-0--4--3--1--4--3--1--5---0--5---0--1----|


 E|-----------------------------------------|-----------------------------------------|
 B|-----------------------------------------|-----------------------------------------|
F#|-----------------------------------------|-----------------------------------------|
F#|-0--4--3--1--4--3--1--5---0--5---0--1----|-0--4--3--1--4--3--1--5---0--5---0--1----|


 E|-----------------------------------------|-----------------------------------------|
 B|-----------------------------------------|-----------------------------------------|
F#|-----------------------------------------|-----------------------------------------|
F#|-0--4--3--1--4--3--1--5---0--5---0--1----|-0--4--3--1--4--3--1--5---0--5---0--1----|


 E|-----------------|-----------------|-----------------|---------------------------|
 B|-----------------|-----------------|-----------------|---------------------------|
F#|-----------------|-----------------|-----------------|---------------------------|
F#|-2-----1-----1---|-2-----1-----1---|-2-----1-----1---|-2--2----2--1----4----3----|


 E|-----------------------------------------|-----------------------------------------|
 B|-----------------------------------------|-----------------------------------------|
F#|-----------------------------------------|-----------------------------------------|
F#|-0--4--3--1--4--3--1--5---0--5---0--1----|-0--4--3--1--4--3--1--5---0--5---0--1----|


 E|-----------------------------------------|-----------------------------------------|
 B|-----------------------------------------|-----------------------------------------|
F#|-----------------------------------------|-----------------------------------------|
F#|-0--4--3--1--4--3--1--5---0--5---0--1----|-0--4--3--1--4--3--1--5---0--5---0--1----|


 E|----------------------------|----------------------------|----------------------------|
 B|----------------------------|----------------------------|----------------------------|
F#|----------------------------|----------------------------|----------------------------|
F#|-1-1-1--1--1--1-------------|-1-1-1--1--1--1-------------|-1-1-1--1--1--1-------------|


 E|----------------------------|--------|--------|--------|-----------------------------|
 B|----------------------------|--------|--------|--------|-----------------------------|
F#|----------------------------|--------|--------|--------|-----------------------------|
F#|-1-1-1--1--1--1-------------|--------|--------|--------|-------0--1----0---0---0--0--|


 E|---------------------------------------|---------------------------------------|
 B|---------------------------------------|---------------------------------------|
F#|---------------------------------------|---------------------------------------|
F#|-0--1---0--0---0--1---0--0---0--0------|-0--1---0--0---0--1---0--0---0--0------|


 E|---------------------------------------|---------------------------------------|
 B|---------------------------------------|---------------------------------------|
F#|---------------------------------------|---------------------------------------|
F#|-0--1---0--0---0--1---0--0---0--0------|-0--1---0--0---0--1---0--0---0--0------|


 E|---------------------------------------|---------------------------------------|
 B|---------------------------------------|---------------------------------------|
F#|---------------------------------------|---------------------------------------|
F#|-0--1---0--0---0--1---0--0---0--0------|-0--1---0--0---0--1---0--0---0--0------|


 E|---------------------------------------|---------------------------------------|
 B|---------------------------------------|---------------------------------------|
F#|---------------------------------------|---------------------------------------|
F#|-0--1---0--0---0--1---0--0---0--0------|-0--1---0--0---0--1---0--0---0--0------|


 E|---------------------------------------|---------------------------------------|
 B|---------------------------------------|---------------------------------------|
F#|---------------------------------------|---------------------------------------|
F#|-0--1---0--0---0--1---0--0---0--0------|-0--1---0--0---0--1---0--0---0--0------|


 E|---------------------------------------|---------------------------------------|
 B|---------------------------------------|---------------------------------------|
F#|---------------------------------------|---------------------------------------|
F#|-0--1---0--0---0--1---0--0---0--0------|-0--1---0--0---0--1---0--0---0--0------|


 E|---------------------------------------|---------------------------------------|
 B|---------------------------------------|---------------------------------------|
F#|---------------------------------------|---------------------------------------|
F#|-0--1---0--0---0--1---0--0---0--0------|-0--1---0--0---0--1---0--0---0--0------|


 E|----------------------|----------------------|----------------------|----------------------|
 B|----------------------|----------------------|----------------------|----------------------|
F#|----------------------|----------------------|----------------------|----------------------|
F#|-0--1----1--0-----0---|-0--1----1--0-----0---|-0--7----7--0-----0---|-0--7----7--0-----0---|


 E|---------------------------|---------------------------|---------------------------|
 B|---------------------------|---------------------------|---------------------------|
F#|---------------------------|---------------------------|---------------------------|
F#|-0--1----1---0---0---------|-0--1----1---0---0---------|-0--1----1---0---0---------|


 E|---------------------------|---------------------------|---------------------------|
 B|---------------------------|---------------------------|---------------------------|
F#|---------------------------|---------------------------|---------------------------|
F#|-0--1----1---0---0---------|-0--1----1---0---0---------|-0--1----1---0---0---------|


 E|---------------------------|---------------------------|--------|--------|-----------------------------------|
 B|---------------------------|---------------------------|--------|--------|-----------------------------------|
F#|---------------------------|---------------------------|--------|--------|-1--0--1--0------1--0--1--0--------|
F#|-0--1----1---0---0---------|-0--1----1---0---0---------|--------|--------|-----------------------------------|


 E|-----------------------------------|-----------------------------------|-----------------------------------|
 B|-----------------------------------|-----------------------------------|-----------------------------------|
F#|-1--0--1--0------1--0--1--0--------|-1--0--1--0------1--0--1--0--------|-1--0--1--0------1--0--1--0--------|
F#|-----------------------------------|-----------------------------------|-----------------------------------|


 E|-----------------------------------|-----------------------------------|-----------------------------------|
 B|-----------------------------------|-----------------------------------|-----------------------------------|
F#|-1--0--1--0------1--0--1--0--------|-1--0--1--0------1--0--1--0--------|-1--0--1--0------1--0--1--0--------|
F#|-----------------------------------|-----------------------------------|-----------------------------------|


 E|-----------------------------------|-----------------------------------|-----------------------------------|
 B|-----------------------------------|-----------------------------------|-----------------------------------|
F#|-1--0--1--0------1--0--1--0--------|-1--0--1--0------1--0--1--0--------|-1--0--1--0------1--0--1--0--------|
F#|-----------------------------------|-----------------------------------|-----------------------------------|


 E|-----------------------------------|-----------------------------------|-----------------------------------|
 B|-----------------------------------|-----------------------------------|-----------------------------------|
F#|-1--0--1--0------1--0--1--0--------|-1--0--1--0------1--0--1--0--------|-1--0--1--0------1--0--1--0--------|
F#|-----------------------------------|-----------------------------------|-----------------------------------|


 E|-----------------------------------|-----------------------------------|-----------------------------------|
 B|-----------------------------------|-----------------------------------|-----------------------------------|
F#|-1--0--1--0------1--0--1--0--------|-1--0--1--0------1--0--1--0--------|-1--0--1--0------1--0--1--0--------|
F#|-----------------------------------|-----------------------------------|-----------------------------------|


 E|-----------------------------------|---------------------------|---------------------------|
 B|-----------------------------------|---------------------------|---------------------------|
F#|-1--0--1--0------1--0--1--0--------|---------------------------|---------------------------|
F#|-----------------------------------|-0---0----0---0----0---0---|-0---0----0---0----0---0---|


 E|---------------------------|---------------------------|---------------------------|
 B|---------------------------|---------------------------|---------------------------|
F#|---------------------------|---------------------------|---------------------------|
F#|-0---0----0---0----0---0---|-0---0----0---0----0---0---|-0---0----0---0----0---0---|


 E|---------------------------|---------------------------|---------------------------|
 B|---------------------------|---------------------------|---------------------------|
F#|---------------------------|---------------------------|---------------------------|
F#|-0---0----0---0----0---0---|-0---0----0---0----0---0---|-0---0----0---0----0---0---|


 E|---------------------------|---------------------------|---------------------------|
 B|---------------------------|---------------------------|---------------------------|
F#|---------------------------|---------------------------|---------------------------|
F#|-0---0----0---0----0---0---|-0---0----0---0----0---0---|-0---0----0---0----0---0---|


 E|---------------------------|---------------------------|---------------------------|
 B|---------------------------|---------------------------|---------------------------|
F#|---------------------------|---------------------------|---------------------------|
F#|-0---0----0---0----0---0---|-0---0----0---0----0---0---|-0---0----0---0----0---0---|


 E|---------------------------|---------------------------|---------------------------|
 B|---------------------------|---------------------------|---------------------------|
F#|---------------------------|---------------------------|---------------------------|
F#|-0---0----0---0----0---0---|-0---0----0---0----0---0---|-0---0----0---0----0---0---|


 E|---------------------------|---------------------------|---------------------------|
 B|---------------------------|---------------------------|---------------------------|
F#|---------------------------|---------------------------|---------------------------|
F#|-0---0----0---0----0---0---|-0---0----0---0----0---0---|-0---0----0---0----0---0---|


 E|---------------------------|---------------------------|---------------------------|
 B|---------------------------|---------------------------|---------------------------|
F#|---------------------------|---------------------------|---------------------------|
F#|-0---0----0---0----0---0---|-0---0----0---0----0---0---|-0---0----0---0----0---0---|


 E|---------------------------|---------------------------|---------------------------|
 B|---------------------------|---------------------------|---------------------------|
F#|---------------------------|---------------------------|---------------------------|
F#|-0---0----0---0----0---0---|-0---0----0---0----0---0---|-0---0----0---0----0---0---|


 E|---------------------------|---------------------------|---------------------------|
 B|---------------------------|---------------------------|---------------------------|
F#|---------------------------|---------------------------|---------------------------|
F#|-0---0----0---0----0---0---|-0---0----0---0----0---0---|-0---0----0---0----0---0---|


 E|---------------------------|---------------------------|---------------------------|
 B|---------------------------|---------------------------|---------------------------|
F#|---------------------------|---------------------------|---------------------------|
F#|-0---0----0---0----0---0---|-0---0----0---0----0---0---|-0---0----0---0----0---0---|


 E|---------------------------|----------------------------|--------|--------|--------|
 B|---------------------------|----------------------------|--------|--------|--------|
F#|---------------------------|----------------------------|--------|--------|--------|
F#|-0---0----0---0----0---0---|-0----0---0---0---0---------|--------|--------|--------|


 E|--------|--------|--------|--------|--------|--------|--------|--------|--------|
 B|--------|--------|--------|--------|--------|--------|--------|--------|--------|
F#|--------|--------|--------|--------|--------|--------|--------|--------|--------|
F#|--------|--------|--------|--------|--------|--------|--------|--------|--------|


 E|-------------|----------------------------|----------------------------|----------------------------|
 B|-------------|----------------------------|----------------------------|----------------------------|
F#|-------------|----------------------------|----------------------------|----------------------------|
F#|--------0----|-0--0-------0---------0--0--|-0--0-------0---------0--0--|-0--0-------0---------0--0--|


 E|----------------------------|-------------------------------|----------------------|
 B|----------------------------|-------------------------------|----------------------|
F#|----------------------------|-------------------------------|----------------------|
F#|-0--0-------0---------0--0--|-0--0-------0---0----0---0--0--|-0--0-------0---------|