Menu:

 

Search:

 

slipknot - pulse of the maggots:

 



Title: Pulse of the Maggots
Artist: 
Album: Vol 3:The Subliminal Verses
Author: Slipknot


Track 1: Untitled

C#|-------------------------------|------------------------|-------------------------------|
G#|-------------------------------|------------------------|-------------------------------|
 E|-------------------------------|------------------------|-------------------------------|
 B|-------------------------------|------------------------|-------------------------------|
F#|-------------------------------|------------------------|-------------------------------|
 B|-0---0---------0---1--1--1--1--|-0---0---0---3-----13---|-0---0---------0---1--1--1--1--|


C#|------------------------|---------------------------------|------------------------------|
G#|------------------------|---------------------------------|------------------------------|
 E|------------------------|---------------------------------|------------------------------|
 B|------------------------|---------------------------------|------------------------------|
F#|------------------------|-13--12--13--12--13--12--13--12--|-13--12--13--12--13--12--13---|
 B|-0---0---0---3-----13---|---------------------------------|------------------------------|


C#|--------------------------|-------------------------------|---------------------|
G#|--------------------------|-------------------------------|---------------------|
 E|-3----4----5--------------|-------------------------------|---------------------|
 B|-3----4----5--------------|---------------------3----3----|-3----4----3----1----|
F#|-1----2----3----1--1--1---|-3--3--3---4--4--4---3----3----|-3----4----3----1----|
 B|--------------------------|---------------------3----3----|-3----4----3----1----|


C#|-------------------------------|------------------------|-------------------------------|
G#|-------------------------------|------------------------|-------------------------------|
 E|-------------------------------|------------------------|-------------------------------|
 B|-------------------------------|------------------------|-------------------------------|
F#|-------------------------------|------------------------|-------------------------------|
 B|-0---0---------0---1--1--1--1--|-0---0---0---3-----13---|-0---0---------0---1--1--1--1--|


C#|------------------------|-------------------------------|------------------------|
G#|------------------------|-------------------------------|------------------------|
 E|------------------------|-------------------------------|------------------------|
 B|------------------------|-------------------------------|------------------------|
F#|------------------------|-------------------------------|------------------------|
 B|-0---0---0---3-----13---|-0---0---------0---1--1--1--1--|-0---0---0---3-----13---|


C#|-------------------------------|------------------------|-------------------------------|
G#|-------------------------------|------------------------|-------------------------------|
 E|-------------------------------|------------------------|-------------------------------|
 B|-------------------------------|------------------------|-------------------------------|
F#|-------------------------------|------------------------|-------------------------------|
 B|-0---0---------0---1--1--1--1--|-0---0---0---3-----13---|-0---0---------0---1--1--1--1--|


C#|------------------------|-------------------------------|------------------------|
G#|------------------------|-------------------------------|------------------------|
 E|------------------------|-------------------------------|------------------------|
 B|------------------------|-------------------------------|------------------------|
F#|------------------------|-------------------------------|------------------------|
 B|-0---0---0---3-----13---|-0---0---------0---1--1--1--1--|-0---0---0---3-----13---|


C#|-------------------------------|------------------------|-------------------------------|
G#|-------------------------------|------------------------|-------------------------------|
 E|-------------------------------|------------------------|-------------------------------|
 B|-------------------------------|------------------------|-------------------------------|
F#|-------------------------------|------------------------|-------------------------------|
 B|-0---0---------0---1--1--1--1--|-0---0---0---3-----13---|-0---0---------0---1--1--1--1--|


C#|------------------------|---------------------|---------------------------|-------------------------------|
G#|------------------------|---------------------|---------------------------|-------------------------------|
 E|------------------------|---------------------|---------------------------|-------------------------------|
 B|------------------------|---------6-----5-----|-3----5---3----------------|-------------------------------|
F#|------------------------|---------6-----5-----|-3----5---3----------------|-------------------------------|
 B|-0---0---0---3-----13---|-0---0---6-----5-----|-3----5---3----0---1---0---|-0---0---------0---1--1--1--1--|


C#|---------------------------|-------------------------------------|------------------------|
G#|---------------------------|-------------------------------------|------------------------|
 E|---------------------------|-------------------------------------|------------------------|
 B|---------------0---1---3---|-4---3---1---0-----------------------|------------------------|
F#|---------------0---1---3---|-4---3---1---0-----------------------|------------------------|
 B|-0---0---------0---1---3---|-4---3---1---0-------0---1--1--1--1--|-0---0---0---3-----13---|


C#|-------------------------------|---------------------------|-------------------------------------|
G#|-------------------------------|---------------------------|-------------------------------------|
 E|-------------------------------|---------------------------|-------------------------------------|
 B|-------------------------------|---------------0---1---3---|-4---3---1---0-----------------------|
F#|-------------------------------|---------------0---1---3---|-4---3---1---0-----------------------|
 B|-0---0---------0---1--1--1--1--|-0---0---------0---1---3---|-4---3---1---0-------0---1--1--1--1--|


C#|------------------------|-------------------------------|---------------------------|
G#|------------------------|-------------------------------|---------------------------|
 E|------------------------|-------------------------------|---------------------------|
 B|------------------------|-------------------------------|---------------0---1---3---|
F#|------------------------|-------------------------------|---------------0---1---3---|
 B|-0---0---0---3-----13---|-0---0---------0---1--1--1--1--|-0---0---------0---1---3---|


C#|-------------------------------------|------------------------|-------------------------------|
G#|-------------------------------------|------------------------|-------------------------------|
 E|-------------------------------------|------------------------|-------------------------------|
 B|-4---3---1---0-----------------------|------------------------|-------------------------------|
F#|-4---3---1---0-----------------------|------------------------|-------------------------------|
 B|-4---3---1---0-------0---1--1--1--1--|-0---0---0---3-----13---|-0---0---------0---1--1--1--1--|


C#|---------------------------|-------------------------------------|------------------------|
G#|---------------------------|-------------------------------------|------------------------|
 E|---------------------------|-------------------------------------|------------------------|
 B|---------------0---1---3---|-4---3---1---0-----------------------|------------------------|
F#|---------------0---1---3---|-4---3---1---0-----------------------|------------------------|
 B|-0---0---------0---1---3---|-4---3---1---0-------0---1--1--1--1--|-0---0---0---3-----13---|


C#|---------------------|---------------------------|---------------------|---------------------------|
G#|---------------------|---------------------------|---------------------|---------------------------|
 E|---------------------|---------------------------|---------------------|---------------------------|
 B|---------6-----5-----|-3----5---3----------------|---------6-----5-----|-3----5---3----------------|
F#|---------6-----5-----|-3----5---3----------------|---------6-----5-----|-3----5---3----------------|
 B|-0---0---6-----5-----|-3----5---3----0---1---0---|-0---0---6-----5-----|-3----5---3----0---1---0---|


C#|---------------------|---------------------------|---------------------|---------------------------|
G#|---------------------|---------------------------|---------------------|---------------------------|
 E|---------------------|---------------------------|---------------------|---------------------------|
 B|---------6-----5-----|-3----5---3----------------|---------6-----5-----|-3----5---3----------------|
F#|---------6-----5-----|-3----5---3----------------|---------6-----5-----|-3----5---3----------------|
 B|-0---0---6-----5-----|-3----5---3----0---1---0---|-0---0---6-----5-----|-3----5---3----0---1---0---|


C#|-------------------------------|------------------------|-------------------------------|
G#|-------------------------------|------------------------|-------------------------------|
 E|-------------------------------|------------------------|-------------------------------|
 B|-------------------------------|------------------------|-------------------------------|
F#|-------------------------------|------------------------|-------------------------------|
 B|-0---0---------0---1--1--1--1--|-0---0---0---3-----13---|-0---0---------0---1--1--1--1--|


C#|---------------------------|-------------------------------------|------------------------|
G#|---------------------------|-------------------------------------|------------------------|
 E|---------------------------|-------------------------------------|------------------------|
 B|---------------0---1---3---|-4---3---1---0-----------------------|------------------------|
F#|---------------0---1---3---|-4---3---1---0-----------------------|------------------------|
 B|-0---0---------0---1---3---|-4---3---1---0-------0---1--1--1--1--|-0---0---0---3-----13---|


C#|-------------------------------|---------------------------|-------------------------------------|
G#|-------------------------------|---------------------------|-------------------------------------|
 E|-------------------------------|---------------------------|-------------------------------------|
 B|-------------------------------|---------------0---1---3---|-4---3---1---0-----------------------|
F#|-------------------------------|---------------0---1---3---|-4---3---1---0-----------------------|
 B|-0---0---------0---1--1--1--1--|-0---0---------0---1---3---|-4---3---1---0-------0---1--1--1--1--|


C#|------------------------|-------------------------------|---------------------------|
G#|------------------------|-------------------------------|---------------------------|
 E|------------------------|-------------------------------|---------------------------|
 B|------------------------|-------------------------------|---------------0---1---3---|
F#|------------------------|-------------------------------|---------------0---1---3---|
 B|-0---0---0---3-----13---|-0---0---------0---1--1--1--1--|-0---0---------0---1---3---|


C#|-------------------------------------|------------------------|-------------------------------|
G#|-------------------------------------|------------------------|-------------------------------|
 E|-------------------------------------|------------------------|-------------------------------|
 B|-4---3---1---0-----------------------|------------------------|-------------------------------|
F#|-4---3---1---0-----------------------|------------------------|-------------------------------|
 B|-4---3---1---0-------0---1--1--1--1--|-0---0---0---3-----13---|-0---0---------0---1--1--1--1--|


C#|---------------------------|-------------------------------------|------------------------|
G#|---------------------------|-------------------------------------|------------------------|
 E|---------------------------|-------------------------------------|------------------------|
 B|---------------0---1---3---|-4---3---1---0-----------------------|------------------------|
F#|---------------0---1---3---|-4---3---1---0-----------------------|------------------------|
 B|-0---0---------0---1---3---|-4---3---1---0-------0---1--1--1--1--|-0---0---0---3-----13---|


C#|---------------------|---------------------------|---------------------|---------------------------|
G#|---------------------|---------------------------|---------------------|---------------------------|
 E|---------------------|---------------------------|---------------------|---------------------------|
 B|---------6-----5-----|-3----5---3----------------|---------6-----5-----|-3----5---3----------------|
F#|---------6-----5-----|-3----5---3----------------|---------6-----5-----|-3----5---3----------------|
 B|-0---0---6-----5-----|-3----5---3----0---1---0---|-0---0---6-----5-----|-3----5---3----0---1---0---|


C#|---------------------|---------------------------|---------------------|---------------------------|
G#|---------------------|---------------------------|---------------------|---------------------------|
 E|---------------------|---------------------------|---------------------|---------------------------|
 B|---------6-----5-----|-3----5---3----------------|---------6-----5-----|-3----5---3----------------|
F#|---------6-----5-----|-3----5---3----------------|---------6-----5-----|-3----5---3----------------|
 B|-0---0---6-----5-----|-3----5---3----0---1---0---|-0---0---6-----5-----|-3----5---3----0---1---0---|


C#|-----------------|--------------------|-----------------|--------------------|-----------------|
G#|-----------------|--------------------|-----------------|--------------------|-----------------|
 E|-----------------|--------------------|-----------------|--------------------|-----------------|
 B|-----------------|--------------------|-----------------|--------------------|-----------------|
F#|-3-----2-----3---|-0----2---0-----0---|-3-----2-----3---|-0----2---0-----0---|-3-----2-----3---|
 B|-----------------|--------------------|-----------------|--------------------|-----------------|


C#|--------------------|-----------------|--------------------|----------16-17-19-20--20-23-19-22-------------|
G#|--------------------|-----------------|--------------------|-------17--------------------------19--22--19--|
 E|--------------------|-----------------|--------------------|-16-16-----------------------------------------|
 B|--------------------|-----------------|--------------------|-----------------------------------------------|
F#|-0----2---0-----0---|-3-----2-----3---|-0----2---0-----0---|-----------------------------------------------|
 B|--------------------|-----------------|--------------------|-----------------------------------------------|


C#|-19-19-19-22-19--------16-16-20-17-17-20-16-16-19-------------|-------------------------18-20--13--------------19-|
G#|----------------21-21--------------------------------------19-|-20-18-------18----20-18------------18----20-18----|
 E|--------------------------------------------------17-16-16----|-------16-18----20---------------------20----------|
 B|--------------------------------------------------------------|---------------------------------------------------|
F#|--------------------------------------------------------------|---------------------------------------------------|
 B|--------------------------------------------------------------|---------------------------------------------------|


C#|-19--------------23-23-23-23--------------|------------------------------|---------------------------------|
G#|-----18----20-18------------------15--15--|------------------------------|---------------------------------|
 E|--------20--------------------------------|-3---5---3---6----------------|---------------------------------|
 B|------------------------------------------|-3---5---3---6----------------|---------------------------------|
F#|------------------------------------------|-1---3---1---4----4---4---4---|-4---4---4---4---4---4---4---4---|
 B|------------------------------------------|------------------------------|---------------------------------|


C#|------------------------------|------------------------------|-------------12-15-18-15----------------------------|
G#|------------------------------|------------------------------|----------14-------------17-------------------14-17-|
 E|-3---5---3---6----------------|-------------3----------------|----12-15-------------------18-15----------15-------|
 B|-3---5---3---6------------0---|-0-----------3----------------|-14-------------------------------17-15-17----------|
F#|-1---3---1---4----4---4---0---|-0-----------1----1---1---1---|----------------------------------------------------|
 B|--------------------------0---|-0---0---0--------------------|----------------------------------------------------|


C#|-18--15-------------------15-18-21-18-------------|-21-18-21-18------------------------------------------|
G#|--------17----------17-17-------------20-17-------|-------------20-17----------20------------------------|
 E|-----------18-15----------------------------18----|----------------------18-21----21-18----18-21-21--21--|
 B|-----------------17----------------------------20-|-------------------20----------------20---------------|
F#|--------------------------------------------------|------------------------------------------------------|
 B|--------------------------------------------------|------------------------------------------------------|


C#|-----18-21--------------------------------------|------------------------------|
G#|-----------20-17----------20--------------------|------------------------------|
 E|-21-----------------18-21----21----18-21-19-19--|-3---5---3---6--------6-------|
 B|-----------------20-------------20--------------|-3---5---3---6----5-------5---|
F#|------------------------------------------------|-1---3---1---4----------------|
 B|------------------------------------------------|------------------------------|


C#|---------------------------------|------------------------------|-----------------------|
G#|---------------------------------|------------------------------|-------------5-----5---|
 E|-6-------6-------6-------6-------|-3---5---3---6----------------|-------------3-----3---|
 B|-----5-------5-------5-------5---|-3---5---3---6------------0---|-0---------------------|
F#|---------------------------------|-1---3---1---4----4---4---0---|-0---------------------|
 B|---------------------------------|--------------------------0---|-0---0---0-------------|


C#|------------------------------|------------------------|------------------------------|
G#|------------------------------|------------------------|------------------------------|
 E|------------------------------|------------------------|------------------------------|
 B|-----1------------------------|----------1----3----4---|-----1------------------------|
F#|-----1------------------------|----------1----3----4---|-----1------------------------|
 B|-0---1---0---3----0---0---0---|-0---3----1----3----4---|-0---1---0---3----0---0---0---|


C#|------------------------|------------------------------|------------------------|
G#|------------------------|------------------------------|------------------------|
 E|------------------------|------------------------------|------------------------|
 B|----------1----3----4---|-----1------------------------|----------1----3----4---|
F#|----------1----3----4---|-----1------------------------|----------1----3----4---|
 B|-0---3----1----3----4---|-0---1---0---3----0---0---0---|-0---3----1----3----4---|


C#|------------------------------|------------------------|------------------------------|
G#|------------------------------|------------------------|------------------------------|
 E|------------------------------|------------------------|------------------------------|
 B|-----1------------------------|----------1----3----4---|-----1------------------------|
F#|-----1------------------------|----------1----3----4---|-----1------------------------|
 B|-0---1---0---3----0---0---0---|-0---3----1----3----4---|-0---1---0---3----0---0---0---|


C#|------------------------|------------------------------|------------------------|
G#|------------------------|------------------------------|------------------------|
 E|------------------------|------------------------------|------------------------|
 B|----------1----3----4---|-----1------------------------|----------1----3----4---|
F#|----------1----3----4---|-----1------------------------|----------1----3----4---|
 B|-0---3----1----3----4---|-0---1---0---3----0---0---0---|-0---3----1----3----4---|


C#|------------------------------|------------------------|------------------------------|
G#|------------------------------|------------------------|------------------------------|
 E|------------------------------|------------------------|------------------------------|
 B|-----1------------------------|----------1----3----4---|-----1------------------------|
F#|-----1------------------------|----------1----3----4---|-----1------------------------|
 B|-0---1---0---3----0---0---0---|-0---3----1----3----4---|-0---1---0---3----0---0---0---|


C#|------------------------|-------------------------------|---------------------------|
G#|------------------------|-------------------------------|---------------------------|
 E|------------------------|-------------------------------|---------------------------|
 B|----------1----3----4---|-------------------------------|---------------0---1---3---|
F#|----------1----3----4---|-------------------------------|---------------0---1---3---|
 B|-0---3----1----3----4---|-0---0---------0---1--1--1--1--|-0---0---------0---1---3---|


C#|-------------------------------------|------------------------|-------------------------------|
G#|-------------------------------------|------------------------|-------------------------------|
 E|-------------------------------------|------------------------|-------------------------------|
 B|-4---3---1---0-----------------------|------------------------|-------------------------------|
F#|-4---3---1---0-----------------------|------------------------|-------------------------------|
 B|-4---3---1---0-------0---1--1--1--1--|-0---0---0---3-----13---|-0---0---------0---1--1--1--1--|


C#|---------------------------|-------------------------------------|------------------------|
G#|---------------------------|-------------------------------------|------------------------|
 E|---------------------------|-------------------------------------|------------------------|
 B|---------------0---1---3---|-4---3---1---0-----------------------|------------------------|
F#|---------------0---1---3---|-4---3---1---0-----------------------|------------------------|
 B|-0---0---------0---1---3---|-4---3---1---0-------0---1--1--1--1--|-0---0---0---3-----13---|


C#|-------------------------------|---------------------------|-------------------------------------|
G#|-------------------------------|---------------------------|-------------------------------------|
 E|-------------------------------|---------------------------|-------------------------------------|
 B|-------------------------------|---------------0---1---3---|-4---3---1---0-----------------------|
F#|-------------------------------|---------------0---1---3---|-4---3---1---0-----------------------|
 B|-0---0---------0---1--1--1--1--|-0---0---------0---1---3---|-4---3---1---0-------0---1--1--1--1--|


C#|------------------------|-------------------------------|---------------------------|
G#|------------------------|-------------------------------|---------------------------|
 E|------------------------|-------------------------------|---------------------------|
 B|------------------------|-------------------------------|---------------0---1---3---|
F#|------------------------|-------------------------------|---------------0---1---3---|
 B|-0---0---0---3-----13---|-0---0---------0---1--1--1--1--|-0---0---------0---1---3---|


C#|-------------------------------------|------------------------|---------------------|
G#|-------------------------------------|------------------------|---------------------|
 E|-------------------------------------|------------------------|---------------------|
 B|-4---3---1---0-----------------------|------------------------|---------6-----5-----|
F#|-4---3---1---0-----------------------|------------------------|---------6-----5-----|
 B|-4---3---1---0-------0---1--1--1--1--|-0---0---0---3-----13---|-0---0---6-----5-----|


C#|---------------------------|---------------------|---------------------------|---------------------|
G#|---------------------------|---------------------|---------------------------|---------------------|
 E|---------------------------|---------------------|---------------------------|---------------------|
 B|-3----5---3----------------|---------6-----5-----|-3----5---3----------------|---------6-----5-----|
F#|-3----5---3----------------|---------6-----5-----|-3----5---3----------------|---------6-----5-----|
 B|-3----5---3----0---1---0---|-0---0---6-----5-----|-3----5---3----0---1---0---|-0---0---6-----5-----|


C#|---------------------------|---------------------|---------------------------|-----------------|
G#|---------------------------|---------------------|---------------------------|-----------------|
 E|---------------------------|---------------------|---------------------------|-----------------|
 B|-3----5---3----------------|---------6-----5-----|-3----5---3----------------|-----------------|
F#|-3----5---3----------------|---------6-----5-----|-3----5---3----------------|-3-----2-----3---|
 B|-3----5---3----0---1---0---|-0---0---6-----5-----|-3----5---3----0---1---0---|-----------------|


C#|--------------------|-----------------|--------------------|-----------------|--------------------|
G#|--------------------|-----------------|--------------------|-----------------|--------------------|
 E|--------------------|-----------------|--------------------|-----------------|--------------------|
 B|--------------------|-----------------|--------------------|-----------------|--------------------|
F#|-0----2---0-----0---|-3-----2-----3---|-0----2---0-----0---|-3-----2-----3---|-0----2---0-----0---|
 B|--------------------|-----------------|--------------------|-----------------|--------------------|


C#|-----------------|--------------------|------------------------------|------------------------|
G#|-----------------|--------------------|------------------------------|------------------------|
 E|-----------------|--------------------|------------------------------|------------------------|
 B|-----------------|--------------------|-----1------------------------|----------1----3----4---|
F#|-3-----2-----3---|-0----2---0-----0---|-----1------------------------|----------1----3----4---|
 B|-----------------|--------------------|-0---1---0---3----0---0---0---|-0---3----1----3----4---|


C#|------------------------------|------------------------|------------------------------|
G#|------------------------------|------------------------|------------------------------|
 E|------------------------------|------------------------|------------------------------|
 B|-----1------------------------|----------1----3----4---|-----1------------------------|
F#|-----1------------------------|----------1----3----4---|-----1------------------------|
 B|-0---1---0---3----0---0---0---|-0---3----1----3----4---|-0---1---0---3----0---0---0---|


C#|------------------------|------------------------------|------------------------|
G#|------------------------|------------------------------|------------------------|
 E|------------------------|------------------------------|------------------------|
 B|----------1----3----4---|-----1------------------------|----------1----3----4---|
F#|----------1----3----4---|-----1------------------------|----------1----3----4---|
 B|-0---3----1----3----4---|-0---1---0---3----0---0---0---|-0---3----1----3----4---|


C#|-15-18-17-18-15-18-14-18-15-18-17-18-15-18-14-18-|-15-18-17-18-15--18--14--15-17-15-14-----------|
G#|-------------------------------------------------|-------------------------------------17-15-15--|
 E|-------------------------------------------------|-----------------------------------------------|
 B|-------------------------------------------------|-----------------------------------------------|
F#|-------------------------------------------------|-----------------------------------------------|
 B|-------------------------------------------------|-----------------------------------------------|


C#|-15-18-17-18-15-18-14-18-15-18-17-18-15-18-14-18-|-15-18-17-18-15--18--14--15-17-15-14-----------|
G#|-------------------------------------------------|-------------------------------------17-15-15--|
 E|-------------------------------------------------|-----------------------------------------------|
 B|-------------------------------------------------|-----------------------------------------------|
F#|-------------------------------------------------|-----------------------------------------------|
 B|-------------------------------------------------|-----------------------------------------------|


C#|-15-18-17-18-15-18-14-18-15-18-17-18-15-18-14-18-|-15-18-17-18-15--18--14--15-17-15-14-----------|
G#|-------------------------------------------------|-------------------------------------17-15-15--|
 E|-------------------------------------------------|-----------------------------------------------|
 B|-------------------------------------------------|-----------------------------------------------|
F#|-------------------------------------------------|-----------------------------------------------|
 B|-------------------------------------------------|-----------------------------------------------|


C#|-15-18-17-18-15-18-14-18-15-18-17-18-15-18-14-18-|-15-18-17-18-15--18--14--14--15---23--|
G#|-------------------------------------------------|--------------------------------------|
 E|-------------------------------------------------|--------------------------------------|
 B|-------------------------------------------------|--------------------------------------|
F#|-------------------------------------------------|--------------------------------------|
 B|-------------------------------------------------|--------------------------------------|


C#|-23----------|
G#|-------------|
 E|-------------|
 B|-------------|
F#|-------------|
 B|-------------|





Track 2: Untitled

C#|--------|--------|--------|--------|--------|--------|--------|--------|--------|
G#|--------|--------|--------|--------|--------|--------|--------|--------|--------|
 E|--------|--------|--------|--------|--------|--------|--------|--------|--------|
 B|--------|--------|--------|--------|--------|--------|--------|--------|--------|
F#|--------|--------|--------|--------|--------|--------|--------|--------|--------|
 B|--------|--------|--------|--------|--------|--------|--------|--------|--------|


C#|--------|--------|--------|--------|--------|--------|--------|--------|--------|
G#|--------|--------|--------|--------|--------|--------|--------|--------|--------|
 E|--------|--------|--------|--------|--------|--------|--------|--------|--------|
 B|--------|--------|--------|--------|--------|--------|--------|--------|--------|
F#|--------|--------|--------|--------|--------|--------|--------|--------|--------|
 B|--------|--------|--------|--------|--------|--------|--------|--------|--------|


C#|--------|--------|--------|--------|--------|--------|--------|--------|--------|
G#|--------|--------|--------|--------|--------|--------|--------|--------|--------|
 E|--------|--------|--------|--------|--------|--------|--------|--------|--------|
 B|--------|--------|--------|--------|--------|--------|--------|--------|--------|
F#|--------|--------|--------|--------|--------|--------|--------|--------|--------|
 B|--------|--------|--------|--------|--------|--------|--------|--------|--------|


C#|--------|--------|--------|--------|--------|--------|--------|--------|--------|
G#|--------|--------|--------|--------|--------|--------|--------|--------|--------|
 E|--------|--------|--------|--------|--------|--------|--------|--------|--------|
 B|--------|--------|--------|--------|--------|--------|--------|--------|--------|
F#|--------|--------|--------|--------|--------|--------|--------|--------|--------|
 B|--------|--------|--------|--------|--------|--------|--------|--------|--------|


C#|--------|--------|--------|--------|--------|--------|--------|--------|--------|
G#|--------|--------|--------|--------|--------|--------|--------|--------|--------|
 E|--------|--------|--------|--------|--------|--------|--------|--------|--------|
 B|--------|--------|--------|--------|--------|--------|--------|--------|--------|
F#|--------|--------|--------|--------|--------|--------|--------|--------|--------|
 B|--------|--------|--------|--------|--------|--------|--------|--------|--------|


C#|--------|--------|--------|--------|--------|--------|--------|--------|--------|
G#|--------|--------|--------|--------|--------|--------|--------|--------|--------|
 E|--------|--------|--------|--------|--------|--------|--------|--------|--------|
 B|--------|--------|--------|--------|--------|--------|--------|--------|--------|
F#|--------|--------|--------|--------|--------|--------|--------|--------|--------|
 B|--------|--------|--------|--------|--------|--------|--------|--------|--------|


C#|--------|--------|--------|--------|--------|--------|--------|--------|--------|
G#|--------|--------|--------|--------|--------|--------|--------|--------|--------|
 E|--------|--------|--------|--------|--------|--------|--------|--------|--------|
 B|--------|--------|--------|--------|--------|--------|--------|--------|--------|
F#|--------|--------|--------|--------|--------|--------|--------|--------|--------|
 B|--------|--------|--------|--------|--------|--------|--------|--------|--------|


C#|--------|--------|--------|--------|--------|--------|--------|--------|--------|
G#|--------|--------|--------|--------|--------|--------|--------|--------|--------|
 E|--------|--------|--------|--------|--------|--------|--------|--------|--------|
 B|--------|--------|--------|--------|--------|--------|--------|--------|--------|
F#|--------|--------|--------|--------|--------|--------|--------|--------|--------|
 B|--------|--------|--------|--------|--------|--------|--------|--------|--------|


C#|--------|--------|--------|--------|--------|-----------------|---------------------------|
G#|--------|--------|--------|--------|--------|-----------------|---------------------------|
 E|--------|--------|--------|--------|--------|-10----9-----10--|-7----9---7----------------|
 B|--------|--------|--------|--------|--------|-----------------|---------------9---10--9---|
F#|--------|--------|--------|--------|--------|-----------------|---------------------------|
 B|--------|--------|--------|--------|--------|-----------------|---------------------------|


C#|-----------------|---------------------------|-----------------|---------------------------|
G#|-----------------|---------------------------|-----------------|---------------------------|
 E|-10----9-----10--|-7----9---7----------------|-10----9-----10--|-7----9---7----------------|
 B|-----------------|---------------9---10--9---|-----------------|---------------9---10--9---|
F#|-----------------|---------------------------|-----------------|---------------------------|
 B|-----------------|---------------------------|-----------------|---------------------------|


C#|-----------------|---------------------------|------------------------------|---------------------------------|
G#|-----------------|---------------------------|------------------------------|---------------------------------|
 E|-10----9-----10--|-7----9---7----------------|-3---5---3---6----------------|---------------------------------|
 B|-----------------|---------------9---10--9---|-3---5---3---6----------------|---------------------------------|
F#|-----------------|---------------------------|-1---3---1---4----4---4---4---|-4---4---4---4---4---4---4---4---|
 B|-----------------|---------------------------|------------------------------|---------------------------------|


C#|------------------------------|------------------------------|-------------|-------------------|
G#|------------------------------|------------------------------|-17----17----|-17----17----15-17-|
 E|-3---5---3---6----------------|-------------3----------------|-------------|-------------------|
 B|-3---5---3---6------------0---|-0-----------3----------------|-------------|-------------------|
F#|-1---3---1---4----4---4---0---|-0-----------1----1---1---1---|-------------|-------------------|
 B|--------------------------0---|-0---0---0--------------------|-------------|-------------------|


C#|----------------------------------------------------|----------------------------------|
G#|-15-------15----------------------------------------|----------------------------------|
 E|----17-16----17-15-14-------------------------------|----------------------------------|
 B|----------------------17-15-17-15-17-15-------17-16-|-12--14--10--12-9-----------------|
F#|----------------------------------------18-16-------|-------------------10-8--8---8----|
 B|----------------------------------------------------|----------------------------------|


C#|------------------------------|---------------------------------|------------------------------|
G#|------------------------------|---------------------------------|------------------------------|
 E|-3---5---3---6--------6-------|-6-------6-------6-------6-------|-3---5---3---6----------------|
 B|-3---5---3---6----5-------5---|-----5-------5-------5-------5---|-3---5---3---6------------0---|
F#|-1---3---1---4----------------|---------------------------------|-1---3---1---4----4---4---0---|
 B|------------------------------|---------------------------------|--------------------------0---|


C#|-----------------------|-------------------------------------------------|-------------------------------12-12-------12-12-|
G#|-------------5-----5---|-------------------------------------------------|----------------15-13-15-13-12-------15-13-------|
 E|-------------3-----3---|-------------------------10----------10-10-12-12-|-14-14-12-10-12----------------------------------|
 B|-0---------------------|-8--8--10-8--10-10-11-11----11-10-11-------------|-------------------------------------------------|
F#|-0---------------------|-------------------------------------------------|-------------------------------------------------|
 B|-0---0---0-------------|-------------------------------------------------|-------------------------------------------------|


C#|-17-15-13-12-13--12------15-18-17-18-15-18-14-18-|-15-18-17-18-15--18--14--15-17-15-14-------------|
G#|---------------------15--------------------------|-------------------------------------17-15-14-12-|
 E|-------------------------------------------------|-------------------------------------------------|
 B|-------------------------------------------------|-------------------------------------------------|
F#|-------------------------------------------------|-------------------------------------------------|
 B|-------------------------------------------------|-------------------------------------------------|


C#|--------|--------|--------|--------|--------|--------|--------|--------|--------|
G#|--------|--------|--------|--------|--------|--------|--------|--------|--------|
 E|--------|--------|--------|--------|--------|--------|--------|--------|--------|
 B|--------|--------|--------|--------|--------|--------|--------|--------|--------|
F#|--------|--------|--------|--------|--------|--------|--------|--------|--------|
 B|--------|--------|--------|--------|--------|--------|--------|--------|--------|


C#|--------|--------|--------|--------|--------|--------|--------|--------|--------|
G#|--------|--------|--------|--------|--------|--------|--------|--------|--------|
 E|--------|--------|--------|--------|--------|--------|--------|--------|--------|
 B|--------|--------|--------|--------|--------|--------|--------|--------|--------|
F#|--------|--------|--------|--------|--------|--------|--------|--------|--------|
 B|--------|--------|--------|--------|--------|--------|--------|--------|--------|


C#|--------|--------|--------|--------|--------|--------|--------|--------|--------|
G#|--------|--------|--------|--------|--------|--------|--------|--------|--------|
 E|--------|--------|--------|--------|--------|--------|--------|--------|--------|
 B|--------|--------|--------|--------|--------|--------|--------|--------|--------|
F#|--------|--------|--------|--------|--------|--------|--------|--------|--------|
 B|--------|--------|--------|--------|--------|--------|--------|--------|--------|


C#|--------|--------|--------|--------|--------|--------|--------|--------|--------|
G#|--------|--------|--------|--------|--------|--------|--------|--------|--------|
 E|--------|--------|--------|--------|--------|--------|--------|--------|--------|
 B|--------|--------|--------|--------|--------|--------|--------|--------|--------|
F#|--------|--------|--------|--------|--------|--------|--------|--------|--------|
 B|--------|--------|--------|--------|--------|--------|--------|--------|--------|


C#|--------|--------|--------|--------|-----------------|---------------------------|
G#|--------|--------|--------|--------|-----------------|---------------------------|
 E|--------|--------|--------|--------|-10----9-----10--|-7----9---7----------------|
 B|--------|--------|--------|--------|-----------------|---------------9---10--9---|
F#|--------|--------|--------|--------|-----------------|---------------------------|
 B|--------|--------|--------|--------|-----------------|---------------------------|


C#|-----------------|---------------------------|-----------------|---------------------------|
G#|-----------------|---------------------------|-----------------|---------------------------|
 E|-10----9-----10--|-7----9---7----------------|-10----9-----10--|-7----9---7----------------|
 B|-----------------|---------------9---10--9---|-----------------|---------------9---10--9---|
F#|-----------------|---------------------------|-----------------|---------------------------|
 B|-----------------|---------------------------|-----------------|---------------------------|


C#|-----------------|---------------------------|--------|--------|--------|--------|
G#|-----------------|---------------------------|--------|--------|--------|--------|
 E|-10----9-----10--|-7----9---7----------------|--------|--------|--------|--------|
 B|-----------------|---------------9---10--9---|--------|--------|--------|--------|
F#|-----------------|---------------------------|--------|--------|--------|--------|
 B|-----------------|---------------------------|--------|--------|--------|--------|


C#|--------|--------|--------|--------|------------------------------|------------------------|
G#|--------|--------|--------|--------|------------------------------|------------------------|
 E|--------|--------|--------|--------|------------------------------|------------------------|
 B|--------|--------|--------|--------|-----1------------------------|----------1----3----4---|
F#|--------|--------|--------|--------|-----1------------------------|----------1----3----4---|
 B|--------|--------|--------|--------|-0---1---0---3----0---0---0---|-0---3----1----3----4---|


C#|------------------------------|------------------------|------------------------------|
G#|------------------------------|------------------------|------------------------------|
 E|------------------------------|------------------------|------------------------------|
 B|-----1------------------------|----------1----3----4---|-----1------------------------|
F#|-----1------------------------|----------1----3----4---|-----1------------------------|
 B|-0---1---0---3----0---0---0---|-0---3----1----3----4---|-0---1---0---3----0---0---0---|


C#|------------------------|------------------------------|------------------------|
G#|------------------------|------------------------------|------------------------|
 E|------------------------|------------------------------|------------------------|
 B|----------1----3----4---|-----1------------------------|----------1----3----4---|
F#|----------1----3----4---|-----1------------------------|----------1----3----4---|
 B|-0---3----1----3----4---|-0---1---0---3----0---0---0---|-0---3----1----3----4---|


C#|-------------|
G#|-------------|
 E|-------------|
 B|-4-----------|
F#|-4-----------|
 B|-4-----------|





Track 3: Untitled

G|--------|--------|--------|--------|--------|--------|--------|--------|--------|
D|--------|--------|--------|--------|--------|--------|--------|--------|--------|
A|--------|--------|--------|--------|--------|--------|--------|--------|--------|
E|--------|--------|--------|--------|--------|--------|--------|--------|--------|


G|--------|--------|--------|--------|--------|--------|--------|--------|--------|
D|--------|--------|--------|--------|--------|--------|--------|--------|--------|
A|--------|--------|--------|--------|--------|--------|--------|--------|--------|
E|--------|--------|--------|--------|--------|--------|--------|--------|--------|


G|--------|--------|--------|--------|--------|--------|--------|--------|--------|
D|--------|--------|--------|--------|--------|--------|--------|--------|--------|
A|--------|--------|--------|--------|--------|--------|--------|--------|--------|
E|--------|--------|--------|--------|--------|--------|--------|--------|--------|


G|--------|--------|--------|--------|--------|--------|--------|--------|--------|
D|--------|--------|--------|--------|--------|--------|--------|--------|--------|
A|--------|--------|--------|--------|--------|--------|--------|--------|--------|
E|--------|--------|--------|--------|--------|--------|--------|--------|--------|


G|--------|--------|--------|--------|--------|--------|--------|--------|--------|
D|--------|--------|--------|--------|--------|--------|--------|--------|--------|
A|--------|--------|--------|--------|--------|--------|--------|--------|--------|
E|--------|--------|--------|--------|--------|--------|--------|--------|--------|


G|--------|--------|--------|--------|--------|--------|--------|--------|--------|
D|--------|--------|--------|--------|--------|--------|--------|--------|--------|
A|--------|--------|--------|--------|--------|--------|--------|--------|--------|
E|--------|--------|--------|--------|--------|--------|--------|--------|--------|


G|--------|--------|--------|--------|--------|--------|--------|--------|--------|
D|--------|--------|--------|--------|--------|--------|--------|--------|--------|
A|--------|--------|--------|--------|--------|--------|--------|--------|--------|
E|--------|--------|--------|--------|--------|--------|--------|--------|--------|


G|--------|--------|--------|--------|--------|--------|--------|--------|--------|
D|--------|--------|--------|--------|--------|--------|--------|--------|--------|
A|--------|--------|--------|--------|--------|--------|--------|--------|--------|
E|--------|--------|--------|--------|--------|--------|--------|--------|--------|


G|--------|--------|--------|--------|--------|--------|--------|--------|--------|
D|--------|--------|--------|--------|--------|--------|--------|--------|--------|
A|--------|--------|--------|--------|--------|--------|--------|--------|--------|
E|--------|--------|--------|--------|--------|--------|--------|--------|--------|


G|--------|--------|--------|--------|--------|--------|--------|--------|--------|
D|--------|--------|--------|--------|--------|--------|--------|--------|--------|
A|--------|--------|--------|--------|--------|--------|--------|--------|--------|
E|--------|--------|--------|--------|--------|--------|--------|--------|--------|


G|--------|--------|--------|--------|--------|--------|--------|--------|--------|
D|--------|--------|--------|--------|--------|--------|--------|--------|--------|
A|--------|--------|--------|--------|--------|--------|--------|--------|--------|
E|--------|--------|--------|--------|--------|--------|--------|--------|--------|


G|--------|--------|--------|--------|--------|--------|--------|--------|--------|
D|--------|--------|--------|--------|--------|--------|--------|--------|--------|
A|--------|--------|--------|--------|--------|--------|--------|--------|--------|
E|--------|--------|--------|--------|--------|--------|--------|--------|--------|


G|--------|--------|--------|--------|--------|--------|--------|--------|--------|
D|--------|--------|--------|--------|--------|--------|--------|--------|--------|
A|--------|--------|--------|--------|--------|--------|--------|--------|--------|
E|--------|--------|--------|--------|--------|--------|--------|--------|--------|


G|--------|--------|--------|--------|--------|--------|--------|--------|--------|
D|--------|--------|--------|--------|--------|--------|--------|--------|--------|
A|--------|--------|--------|--------|--------|--------|--------|--------|--------|
E|--------|--------|--------|--------|--------|--------|--------|--------|--------|


G|--------|--------|--------|--------|--------|--------|--------|--------|--------|
D|--------|--------|--------|--------|--------|--------|--------|--------|--------|
A|--------|--------|--------|--------|--------|--------|--------|--------|--------|
E|--------|--------|--------|--------|--------|--------|--------|--------|--------|


G|--------|--------|--------|--------|--------|--------|--------|--------|--------|
D|--------|--------|--------|--------|--------|--------|--------|--------|--------|
A|--------|--------|--------|--------|--------|--------|--------|--------|--------|
E|--------|--------|--------|--------|--------|--------|--------|--------|--------|


G|--------|--------|--------|--------|--------|--------|--------|--------|--------|
D|--------|--------|--------|--------|--------|--------|--------|--------|--------|
A|--------|--------|--------|--------|--------|--------|--------|--------|--------|
E|--------|--------|--------|--------|--------|--------|--------|--------|--------|


G|--------|--------|--------|--------|--------|--------|--------|--------|--------|
D|--------|--------|--------|--------|--------|--------|--------|--------|--------|
A|--------|--------|--------|--------|--------|--------|--------|--------|--------|
E|--------|--------|--------|--------|--------|--------|--------|--------|--------|


G|--------|--------|--------|--------|
D|--------|--------|--------|--------|
A|--------|--------|--------|--------|
E|--------|--------|--------|--------|