Menu:

 

Search:

 

slipknot - prosthetics:

 



Title: Prosthetics
Artist: 
Album: Slipknot
Author: Slipknot


Track 1: Guitar 1

C#|---------------------------|---------------------------|---------------------------|
G#|---------------------------|---------------------------|---------------------------|
 E|---------------------------|---------------------------|---------------------------|
 B|-7---7---6------------7----|---------7------------7----|---------6------------7----|
F#|-7---7---6----0---0---7----|-0---0---7----0---0---7----|-0---0---6----0---0---7----|
 B|-7---7---6----0---0---7----|-0---0---7----0---0---7----|-0---0---6----0---0---7----|


C#|---------------------------|---------------------------|---------------------------|
G#|---------------------------|---------------------------|---------------------------|
 E|---------------------------|---------------------------|---------------------------|
 B|---------7------------7----|---------6------------7----|---------7------------7----|
F#|-0---0---7----0---0---7----|-0---0---6----0---0---7----|-0---0---7----0---0---7----|
 B|-0---0---7----0---0---7----|-0---0---6----0---0---7----|-0---0---7----0---0---7----|


C#|---------------------------|---------------------------|---------------------------|
G#|---------------------------|---------------------------|---------------------------|
 E|---------------------------|---------------------------|---------------------------|
 B|---------6------------7----|---------7------------7----|---------6------------7----|
F#|-0---0---6----0---0---7----|-0---0---7----0---0---7----|-0---0---6----0---0---7----|
 B|-0---0---6----0---0---7----|-0---0---7----0---0---7----|-0---0---6----0---0---7----|


C#|---------------------------|---------------------------|---------------------------|
G#|---------------------------|---------------------------|---------------------------|
 E|---------------------------|---------------------------|---------------------------|
 B|---------7------------7----|---------6------------7----|---------7------------7----|
F#|-0---0---7----0---0---7----|-0---0---6----0---0---7----|-0---0---7----0---0---7----|
 B|-0---0---7----0---0---7----|-0---0---6----0---0---7----|-0---0---7----0---0---7----|


C#|---------------------------|---------------------------|---------------------------|
G#|---------------------------|---------------------------|---------------------------|
 E|---------------------------|---------------------------|---------------------------|
 B|---------6------------7----|---------7------------7----|---------6------------7----|
F#|-0---0---6----0---0---7----|-0---0---7----0---0---7----|-0---0---6----0---0---7----|
 B|-0---0---6----0---0---7----|-0---0---7----0---0---7----|-0---0---6----0---0---7----|


C#|---------------------------|---------------------------|---------------------------|
G#|---------------------------|---------------------------|---------------------------|
 E|---------------------------|---------------------------|---------------------------|
 B|---------7------------7----|---------6------------7----|---------7------------7----|
F#|-0---0---7----0---0---7----|-0---0---6----0---0---7----|-0---0---7----0---0---7----|
 B|-0---0---7----0---0---7----|-0---0---6----0---0---7----|-0---0---7----0---0---7----|


C#|---------------------------|---------------------------|--------|--------|-----------------|
G#|---------------------------|---------------------------|--------|--------|-----------------|
 E|---------------------------|---------------------------|--------|--------|-----------------|
 B|---------6------------7----|---------7------------7----|--------|--------|-----------------|
F#|-0---0---6----0---0---7----|-0---0---7----0---0---7----|--------|--------|-----------------|
 B|-0---0---6----0---0---7----|-0---0---7----0---0---7----|-0------|-0------|-0---0-----0-----|


C#|--------|-----------------|-----------------|-----------------|-----------------|
G#|--------|-----------------|-----------------|-----------------|-----------------|
 E|--------|-----------------|-----------------|-----------------|-----------------|
 B|--------|-----------------|-----------------|-----------------|-----------------|
F#|--------|------5----------|------4----------|------5----------|------4----------|
 B|-0------|-0---------------|-4---------------|-0---------------|-4---------------|


C#|-----------------|-----------------|-----------------|-----------------|-----------------|
G#|-----------------|-----------------|-----------------|-----------------|-----------------|
 E|-----------------|-----------------|-----------------|-----------------|-----------------|
 B|-----------------|-----------------|-----------------|-----------------|-----------------|
F#|------5----------|-----------------|------5----------|-----------------|------5----------|
 B|-0---------------|-11---11---------|-0---------------|-11---11---------|-0---------------|


C#|-----------------|-----------------|-----------------|-----------------------------------------|
G#|-----------------|-----------------|-----------------|-----------------------------------------|
 E|-----------------|-----------------|-----------------|-----------------------------------------|
 B|-----------------|-----------------|-----------------|-----------------------------------------|
F#|-----------------|------5----------|-----------------|-0------0-1-1--0---0-------0-0-1--0---1--|
 B|-11---11---------|-0---------------|-11---11---------|-0------0-1-1--0---0-------0-0-1--0---1--|


C#|---------------------------------------|---------------------------------------|
G#|---------------------------------------|---------------------------------------|
 E|---------------------------------------|---------------------------------------|
 B|---------------------------------------|---------------------------------------|
F#|------0-0-1--0---1-------0-0-1--0---0--|------0-0-1--0---0-------0-0-1--0---1--|
 B|------0-0-1--0---1-------0-0-1--0---0--|------0-0-1--0---0-------0-0-1--0---1--|


C#|---------------------------------------|---------------------------------------|
G#|---------------------------------------|---------------------------------------|
 E|---------------------------------------|---------------------------------------|
 B|---------------------------------------|---------------------------------------|
F#|------0-0-1--0---1-------0-0-1--0---0--|------0-0-1--0---0-------0-0-1--0---1--|
 B|------0-0-1--0---1-------0-0-1--0---0--|------0-0-1--0---0-------0-0-1--0---1--|


C#|---------------------------------------|---------------------------------------|
G#|---------------------------------------|---------------------------------------|
 E|---------------------------------------|---------------------------------------|
 B|---------------------------------------|---------------------------------------|
F#|------0-0-1--0---1-------0-0-1--0---0--|------0-0-1--0---0-------0-0-1--0---1--|
 B|------0-0-1--0---1-------0-0-1--0---0--|------0-0-1--0---0-------0-0-1--0---1--|


C#|---------------------------------------|-----------------------------------------|
G#|---------------------------------------|-----------------------------------------|
 E|---------------------------------------|-----------------------------------------|
 B|---------------------------------------|-----------------------------------------|
F#|------0-0-1--0---1-------0-0-1--0---0--|-8---7---1---2---2--3--3--3--3--3--3--3--|
 B|------0-0-1--0---1-------0-0-1--0---0--|-8---7---1---2---2--3--3--3--3--3--3--3--|


C#|-----------------------------------------|-----------------------------------------|
G#|-----------------------------------------|-----------------------------------------|
 E|-----------------------------------------|-----------------------------------------|
 B|-----------------------------------------|-----------------------------------------|
F#|-8---7---1---2---2--3--3--3--3--3--3--3--|-8---7---1---2---2--3--3--3--3--3--3--3--|
 B|-8---7---1---2---2--3--3--3--3--3--3--3--|-8---7---1---2---2--3--3--3--3--3--3--3--|


C#|-----------------------------------------|---------------------------------------|
G#|-----------------------------------------|---------------------------------------|
 E|-----------------------------------------|---------------------------------------|
 B|-----------------------------------------|---------------------------------------|
F#|-8---7---1---2---2--3--3--3--3--3--3--3--|-8---8---1---1--1---3--3---3--3--3--3--|
 B|-8---7---1---2---2--3--3--3--3--3--3--3--|---------------------------------------|


C#|---------------------------------------|---------------------------------------|
G#|---------------------------------------|---------------------------------------|
 E|---------------------------------------|---------------------------------------|
 B|---------------------------------------|---------------------------------------|
F#|-8---8---1---1--1---3--3---3--3--3--3--|-8---8---1---1--1---3--3---3--3--3--3--|
 B|---------------------------------------|---------------------------------------|


C#|---------------------------------------|-----------------------------------------|
G#|---------------------------------------|-----------------------------------------|
 E|---------------------------------------|-----------------------------------------|
 B|---------------------------------------|-----------------------------------------|
F#|-8---8---1---1--1---3--3---3--3--3--3--|-0------0-1-1--0---0-------0-0-1--0---1--|
 B|---------------------------------------|-0------0-1-1--0---0-------0-0-1--0---1--|


C#|---------------------------------------|---------------------------------------|
G#|---------------------------------------|---------------------------------------|
 E|---------------------------------------|---------------------------------------|
 B|---------------------------------------|---------------------------------------|
F#|------0-0-1--0---1-------0-0-1--0---0--|------0-0-1--0---0-------0-0-1--0---1--|
 B|------0-0-1--0---1-------0-0-1--0---0--|------0-0-1--0---0-------0-0-1--0---1--|


C#|---------------------------------------|---------------------------------------|
G#|---------------------------------------|---------------------------------------|
 E|---------------------------------------|---------------------------------------|
 B|---------------------------------------|---------------------------------------|
F#|------0-0-1--0---1-------0-0-1--0---0--|------0-0-1--0---0-------0-0-1--0---1--|
 B|------0-0-1--0---1-------0-0-1--0---0--|------0-0-1--0---0-------0-0-1--0---1--|


C#|---------------------------------------|---------------------------------------|
G#|---------------------------------------|---------------------------------------|
 E|---------------------------------------|---------------------------------------|
 B|---------------------------------------|---------------------------------------|
F#|------0-0-1--0---1-------0-0-1--0---0--|------0-0-1--0---0-------0-0-1--0---1--|
 B|------0-0-1--0---1-------0-0-1--0---0--|------0-0-1--0---0-------0-0-1--0---1--|


C#|---------------------------------------|--------------------|--------------------|
G#|---------------------------------------|------14----14---14-|------14----14---14-|
 E|---------------------------------------|-11-----------------|-11-----------------|
 B|---------------------------------------|--------------------|--------------------|
F#|------0-0-1--0---1-------0-0-1--0------|--------------------|--------------------|
 B|------0-0-1--0---1-------0-0-1--0------|--------------------|--------------------|


C#|--------------------|--------------------|--------|--------|--------|--------|--------|
G#|------14----14---14-|------14----14---14-|-8------|-8------|-8------|-8------|-8------|
 E|-11-----------------|-11-----------------|--------|--------|--------|--------|--------|
 B|--------------------|--------------------|--------|--------|--------|--------|--------|
F#|--------------------|--------------------|--------|--------|--------|--------|--------|
 B|--------------------|--------------------|--------|--------|--------|--------|--------|


C#|--------|--------|-------------------------------------------------|-------------------------------------------------|
G#|-8------|-8------|-------------------------------------------------|-------------------------------------------------|
 E|--------|--------|-------------------------------------------------|-------------------------------------------------|
 B|--------|--------|-------------------------------------------------|-------------------------------------------------|
F#|--------|--------|-3--2--0--2--1--0--1--2--3--2--0--2--1--0--1--2--|-3--2--0--2--1--0--1--2--3--2--0--2--1--0--1--2--|
 B|--------|--------|-3--2--0--2--1--0--1--2--3--2--0--2--1--0--1--2--|-3--2--0--2--1--0--1--2--3--2--0--2--1--0--1--2--|


C#|-------------------------------------------------|-------------------------------------------------|
G#|-------------------------------------------------|-------------------------------------------------|
 E|-------------------------------------------------|-------------------------------------------------|
 B|-------------------------------------------------|-------------------------------------------------|
F#|-3--2--0--2--1--0--1--2--3--2--0--2--1--0--1--2--|-3--2--0--2--1--0--1--2--3--2--0--2--1--0--1--2--|
 B|-3--2--0--2--1--0--1--2--3--2--0--2--1--0--1--2--|-3--2--0--2--1--0--1--2--3--2--0--2--1--0--1--2--|


C#|-----------------------------------------|---------------------------------------|
G#|-----------------------------------------|---------------------------------------|
 E|-----------------------------------------|---------------------------------------|
 B|-----------------------------------------|---------------------------------------|
F#|-7---1---2---2--3--3--3--3--3--3--3--8---|-8---1---1--1---3--3---3--3--3--3--8---|
 B|-7---1---2---2--3--3--3--3--3--3--3------|---------------------------------------|


C#|---------------------------------------|---------------------------------------|
G#|---------------------------------------|---------------------------------------|
 E|---------------------------------------|---------------------------------------|
 B|---------------------------------------|---------------------------------------|
F#|-8---1---1--1---3--3---3--3--3--3--8---|-8---1---1--1---3--3---3--3--3--3--8---|
 B|---------------------------------------|---------------------------------------|


C#|---------------------------------------|----------------|----------------|----------------|
G#|-----------------------------------8---|------------8---|------------8---|------------8---|
 E|---------------------------------------|----------------|----------------|----------------|
 B|---------------------------------------|----------------|----------------|----------------|
F#|-8---1---1--1---3--3---3--3--3--3------|----------------|----------------|----------------|
 B|---------------------------------------|----------------|----------------|----------------|


C#|----------------|----------------|----------------|----------------|----------------|
G#|------------8---|------------8---|------------8---|------------8---|----------------|
 E|----------------|----------------|----------------|----------------|----------------|
 B|----------------|----------------|----------------|----------------|----------------|
F#|----------------|----------------|----------------|----------------|------------6---|
 B|----------------|----------------|----------------|----------------|------------6---|


C#|-----------------|-----------------|-----------------|-----------------|
G#|-----------------|-----------------|-----------------|-----------------|
 E|-----------------|-----------------|-----------------|-----------------|
 B|-----------------|-----------------|-----------------|-----------------|
F#|-------6-----6---|-------6-----6---|-------6-----5---|-------6---------|
 B|-------6-----6---|-------6-----6---|-------6-----5---|-------6---------|





Track 2: Guitar 2

C#|--------|--------|--------|--------|-17----17----17----17----17----17----17----17----|
G#|--------|--------|--------|--------|----15----15----15----15----15----15----15----15-|
 E|--------|--------|--------|--------|-------------------------------------------------|
 B|--------|--------|--------|--------|-------------------------------------------------|
F#|--------|--------|--------|--------|-------------------------------------------------|
 B|--------|--------|--------|--------|-------------------------------------------------|


C#|-18----18----18----18----18----18----18----18----|-17----17----17----17----17----17----17----17----|
G#|----14----14----14----14----14----14----14----14-|----15----15----15----15----15----15----15----15-|
 E|-------------------------------------------------|-------------------------------------------------|
 B|-------------------------------------------------|-------------------------------------------------|
F#|-------------------------------------------------|-------------------------------------------------|
 B|-------------------------------------------------|-------------------------------------------------|


C#|-18----18----18----18----18----18----18----18----|-17----17----17----17----17----17----17----17----|
G#|----14----14----14----14----14----14----14----14-|----15----15----15----15----15----15----15----15-|
 E|-------------------------------------------------|-------------------------------------------------|
 B|-------------------------------------------------|-------------------------------------------------|
F#|-------------------------------------------------|-------------------------------------------------|
 B|-------------------------------------------------|-------------------------------------------------|


C#|-18----18----18----18----18----18----18----18----|-17----17----17----17----17----17----17----17----|
G#|----14----14----14----14----14----14----14----14-|----15----15----15----15----15----15----15----15-|
 E|-------------------------------------------------|-------------------------------------------------|
 B|-------------------------------------------------|-------------------------------------------------|
F#|-------------------------------------------------|-------------------------------------------------|
 B|-------------------------------------------------|-------------------------------------------------|


C#|-18----18----18----18----18----18----18----18----|-17----17----17----17----17----17----17----17----|
G#|----14----14----14----14----14----14----14----14-|----15----15----15----15----15----15----15----15-|
 E|-------------------------------------------------|-------------------------------------------------|
 B|-------------------------------------------------|-------------------------------------------------|
F#|-------------------------------------------------|-------------------------------------------------|
 B|-------------------------------------------------|-------------------------------------------------|


C#|-18----18----18----18----18----18----18----18----|-17----17----17----17----17----17----17----17----|
G#|----14----14----14----14----14----14----14----14-|----15----15----15----15----15----15----15----15-|
 E|-------------------------------------------------|-------------------------------------------------|
 B|-------------------------------------------------|-------------------------------------------------|
F#|-------------------------------------------------|-------------------------------------------------|
 B|-------------------------------------------------|-------------------------------------------------|


C#|-18----18----18----18----18----18----18----18----|-17----17----17----17----17----17----17----17----|
G#|----14----14----14----14----14----14----14----14-|----15----15----15----15----15----15----15----15-|
 E|-------------------------------------------------|-------------------------------------------------|
 B|-------------------------------------------------|-------------------------------------------------|
F#|-------------------------------------------------|-------------------------------------------------|
 B|-------------------------------------------------|-------------------------------------------------|


C#|-18----18----18----18----18----18----18----18----|-17----17----17----17----17----17----17----17----|
G#|----14----14----14----14----14----14----14----14-|----15----15----15----15----15----15----15----15-|
 E|-------------------------------------------------|-------------------------------------------------|
 B|-------------------------------------------------|-------------------------------------------------|
F#|-------------------------------------------------|-------------------------------------------------|
 B|-------------------------------------------------|-------------------------------------------------|


C#|-18----18----18----18----18----18----18----18----|----17---17-----|----18---18-----|
G#|----14----14----14----14----14----14----14----14-|-15-------------|-14-------------|
 E|-------------------------------------------------|----------------|----------------|
 B|-------------------------------------------------|----------------|----------------|
F#|-------------------------------------------------|----------------|----------------|
 B|-------------------------------------------------|----------------|----------------|


C#|----17---17-----|----18---18-----|----17---17-----|----18---18-----|----17---17-----|
G#|-15-------------|-14-------------|-15-------------|-14-------------|-15-------------|
 E|----------------|----------------|----------------|----------------|----------------|
 B|----------------|----------------|----------------|----------------|----------------|
F#|----------------|----------------|----------------|----------------|----------------|
 B|----------------|----------------|----------------|----------------|----------------|


C#|----18---18-----|-------------------------------------------------|-------------------------------------------------|
G#|-14-------------|-------------------------------------------------|-------------------------------------------------|
 E|----------------|-------------------------------------------------|-------------------------------------------------|
 B|----------------|-------------------------------------------------|-------------------------------------------------|
F#|----------------|-5--5--5--5--5--5--5--5--5--5--5--5--5--5--5--5--|-4--4--4--4--4--4--4--4--4--4--4--4--4--4--4--4--|
 B|----------------|-------------------------------------------------|-------------------------------------------------|


C#|-------------------------------------------------|-------------------------------------------------|
G#|-------------------------------------------------|-------------------------------------------------|
 E|-------------------------------------------------|-------------------------------------------------|
 B|-------------------------------------------------|-------------------------------------------------|
F#|-5--5--5--5--5--5--5--5--5--5--5--5--5--5--5--5--|-4--4--4--4--4--4--4--4--4--4--4--4--4--4--4--4--|
 B|-------------------------------------------------|-------------------------------------------------|


C#|-------------------------------------------------|---------------------------------------------|
G#|-------------------------------------------------|---------------------------------------------|
 E|-------------------------------------------------|---------------------------------------------|
 B|-------------------------------------------------|---------------------------------------------|
F#|-------------------------------------------------|-4--4--4--4--4--4--4--4--4--4--4--4--4---4---|
 B|-0--0--0--0--0--0--0--0--0--0--0--0--0--0--0--0--|---------------------------------------------|


C#|-------------------------------------------------|---------------------------------------------|
G#|-------------------------------------------------|---------------------------------------------|
 E|-------------------------------------------------|---------------------------------------------|
 B|-------------------------------------------------|---------------------------------------------|
F#|-------------------------------------------------|-4--4--4--4--4--4--4--4--4--4--4--4--4---4---|
 B|-0--0--0--0--0--0--0--0--0--0--0--0--0--0--0--0--|---------------------------------------------|


C#|--------|--------|--------|--------|--------|--------|--------|--------|-----------------------------------------|
G#|--------|--------|--------|--------|--------|--------|--------|--------|-----------------------------------------|
 E|--------|--------|--------|--------|--------|--------|--------|--------|-----------------------------------------|
 B|--------|--------|--------|--------|--------|--------|--------|--------|-----------------------------------------|
F#|--------|--------|--------|--------|--------|--------|--------|--------|-8---7---1---2---2--3--3--3--3--3--3--3--|
 B|--------|--------|--------|--------|--------|--------|--------|--------|-8---7---1---2---2--3--3--3--3--3--3--3--|


C#|-----------------------------------------|-----------------------------------------|
G#|-----------------------------------------|-----------------------------------------|
 E|-----------------------------------------|-----------------------------------------|
 B|-----------------------------------------|-----------------------------------------|
F#|-8---7---1---2---2--3--3--3--3--3--3--3--|-8---7---1---2---2--3--3--3--3--3--3--3--|
 B|-8---7---1---2---2--3--3--3--3--3--3--3--|-8---7---1---2---2--3--3--3--3--3--3--3--|


C#|-----------------------------------------|-----------------------------------------|
G#|-----------------------------------------|-----------------------------------------|
 E|-----------------------------------------|-----------------------------------------|
 B|-----------------------------------------|-----------------------------------------|
F#|-8---7---1---2---2--3--3--3--3--3--3--3--|-8---7---1---2---2--3--3--3--3--3--3--3--|
 B|-8---7---1---2---2--3--3--3--3--3--3--3--|-8---7---1---2---2--3--3--3--3--3--3--3--|


C#|-----------------------------------------|-----------------------------------------|
G#|-----------------------------------------|-----------------------------------------|
 E|-----------------------------------------|-----------------------------------------|
 B|-----------------------------------------|-----------------------------------------|
F#|-8---7---1---2---2--3--3--3--3--3--3--3--|-8---7---1---2---2--3--3--3--3--3--3--3--|
 B|-8---7---1---2---2--3--3--3--3--3--3--3--|-8---7---1---2---2--3--3--3--3--3--3--3--|


C#|-----------------------------------------|-17----17----17----17----17----17----17----17----|
G#|-----------------------------------------|----15----15----15----15----15----15----15----15-|
 E|-----------------------------------------|-------------------------------------------------|
 B|-----------------------------------------|-------------------------------------------------|
F#|-8---7---1---2---2--3--3--3--3--3--3--3--|-------------------------------------------------|
 B|-8---7---1---2---2--3--3--3--3--3--3--3--|-------------------------------------------------|


C#|-18----18----18----18----18----18----18----18----|-17----17----17----17----17----17----17----17----|
G#|----14----14----14----14----14----14----14----14-|----15----15----15----15----15----15----15----15-|
 E|-------------------------------------------------|-------------------------------------------------|
 B|-------------------------------------------------|-------------------------------------------------|
F#|-------------------------------------------------|-------------------------------------------------|
 B|-------------------------------------------------|-------------------------------------------------|


C#|-18----18----18----18----18----18----18----18----|-------------------------------------------------|
G#|----14----14----14----14----14----14----14----14-|-------------------------------------------------|
 E|-------------------------------------------------|-------------------------------------------------|
 B|-------------------------------------------------|-------------------------------------------------|
F#|-------------------------------------------------|-5--5--5--5--5--5--5--5--5--5--5--5--5--5--5--5--|
 B|-------------------------------------------------|-0--0--0--0--0--0--0--0--0--0--0--0--0--0--0--0--|


C#|-------------------------------------------------|-------------------------------------------------|
G#|-------------------------------------------------|-------------------------------------------------|
 E|-------------------------------------------------|-------------------------------------------------|
 B|-------------------------------------------------|-------------------------------------------------|
F#|-4--4--4--4--4--4--4--4--4--4--4--4--4--4--4--4--|-5--5--5--5--5--5--5--5--5--5--5--5--5--5--5--5--|
 B|-------------------------------------------------|-0--0--0--0--0--0--0--0--0--0--0--0--0--0--0--0--|


C#|-------------------------------------------------|--------|--------|--------|----------------|
G#|-------------------------------------------------|--------|--------|--------|----------------|
 E|-------------------------------------------------|--------|--------|--------|----------------|
 B|-------------------------------------------------|--------|--------|--------|----------------|
F#|-4--4--4--4--4--4--4--4--4--4--4--4--4--4--4--4--|--------|--------|--------|----------------|
 B|-------------------------------------------------|-0------|-0------|-0------|-0----0--0------|


C#|-------------------------------------------------|-------------------------------------------------|
G#|-------------------------------------------------|-------------------------------------------------|
 E|-------------------------------------------------|-------------------------------------------------|
 B|-------------------------------------------------|-------------------------------------------------|
F#|-3--2--0--2--1--0--1--2--3--2--0--2--1--0--1--2--|-3--2--0--2--1--0--1--2--3--2--0--2--1--0--1--2--|
 B|-3--2--0--2--1--0--1--2--3--2--0--2--1--0--1--2--|-3--2--0--2--1--0--1--2--3--2--0--2--1--0--1--2--|


C#|-------------------------------------------------|-------------------------------------------------|
G#|-------------------------------------------------|-------------------------------------------------|
 E|-------------------------------------------------|-------------------------------------------------|
 B|-------------------------------------------------|-------------------------------------------------|
F#|-3--2--0--2--1--0--1--2--3--2--0--2--1--0--1--2--|-3--2--0--2--1--0--1--2--3--2--0--2--1--0--1--2--|
 B|-3--2--0--2--1--0--1--2--3--2--0--2--1--0--1--2--|-3--2--0--2--1--0--1--2--3--2--0--2--1--0--1--2--|


C#|-------------------------------------------------|-------------------------------------------------|
G#|-------------------------------------------------|-------------------------------------------------|
 E|-------------------------------------------------|-------------------------------------------------|
 B|-------------------------------------------------|-------------------------------------------------|
F#|-3--2--0--2--1--0--1--2--3--2--0--2--1--0--1--2--|-3--2--0--2--1--0--1--2--3--2--0--2--1--0--1--2--|
 B|-3--2--0--2--1--0--1--2--3--2--0--2--1--0--1--2--|-3--2--0--2--1--0--1--2--3--2--0--2--1--0--1--2--|


C#|-------------------------------------------------|--------|--------|--------|--------|
G#|-------------------------------------------------|--------|--------|--------|--------|
 E|-------------------------------------------------|--------|--------|--------|--------|
 B|-------------------------------------------------|--------|--------|--------|--------|
F#|-3--2--0--2--1--0--1--2--3--2--0--2--1--0--1--2--|--------|--------|--------|--------|
 B|-3--2--0--2--1--0--1--2--3--2--0--2--1--0--1--2--|--------|--------|--------|--------|


C#|--------|--------|--------|--------|------------------|-------------------------------------------------|
G#|--------|--------|--------|--------|------------------|-------------------------------------------------|
 E|--------|--------|--------|--------|------------------|-------------------------------------------------|
 B|--------|--------|--------|--------|------------------|-------------------------------------------------|
F#|--------|--------|--------|--------|------------3--2--|-0--2--1--0--1--2--3--2--0--2--1--0--1--2--3--2--|
 B|--------|--------|--------|--------|------------3--2--|-0--2--1--0--1--2--3--2--0--2--1--0--1--2--3--2--|


C#|-------------------------------------------------|-------------------------------------------------|
G#|-------------------------------------------------|-------------------------------------------------|
 E|-------------------------------------------------|-------------------------------------------------|
 B|-------------------------------------------------|-------------------------------------------------|
F#|-0--2--1--0--1--2--3--2--0--2--1--0--1--2--3--2--|-0--2--1--0--1--2--3--2--0--2--1--0--1--2--3--2--|
 B|-0--2--1--0--1--2--3--2--0--2--1--0--1--2--3--2--|-0--2--1--0--1--2--3--2--0--2--1--0--1--2--3--2--|


C#|-------------------------------------------------|-------------------------------------------------|
G#|-------------------------------------------------|-------------------------------------------------|
 E|-------------------------------------------------|-------------------------------------------------|
 B|-------------------------------------------------|-------------------------------------------------|
F#|-0--2--1--0--1--2--3--2--0--2--1--0--1--2--3--2--|-0--2--1--0--1--2--3--2--0--2--1--0--1--2--3--2--|
 B|-0--2--1--0--1--2--3--2--0--2--1--0--1--2--3--2--|-0--2--1--0--1--2--3--2--0--2--1--0--1--2--3--2--|


C#|-------------------------------------------------|-------------------------------------------------|
G#|-------------------------------------------------|-------------------------------------------------|
 E|-------------------------------------------------|-------------------------------------------------|
 B|-------------------------------------------------|-------------------------------------------------|
F#|-0--2--1--0--1--2--3--2--0--2--1--0--1--2--3--2--|-0--2--1--0--1--2--3--2--0--2--1--0--1--2--3--2--|
 B|-0--2--1--0--1--2--3--2--0--2--1--0--1--2--3--2--|-0--2--1--0--1--2--3--2--0--2--1--0--1--2--3--2--|


C#|-----------------------------------------------|--------------------|----------------|
G#|-----------------------------------------------|--------------------|----------------|
 E|-----------------------------------------------|--------------------|----------------|
 B|-----------------------------------------------|--------------------|----------------|
F#|-0--2--1--0--1--2--3--2--0--2--1--0--1--2--3---|-2------------------|----------------|
 B|-0--2--1--0--1--2--3--2--0--2--1--0--1--2--3---|-2------------------|----------------|


C#|----------------|--------|
G#|----------------|--------|
 E|----------------|--------|
 B|----------------|--------|
F#|----------------|--------|
 B|----------------|--------|





Track 3: Guitar 1

C#|--------|--------|--------|--------|--------|--------|--------|--------|--------|
G#|--------|--------|--------|--------|--------|--------|--------|--------|--------|
 E|--------|--------|--------|--------|--------|--------|--------|--------|--------|
 B|--------|--------|--------|--------|--------|--------|--------|--------|--------|
F#|--------|--------|--------|--------|--------|--------|--------|--------|--------|
 B|--------|--------|--------|--------|--------|--------|--------|--------|--------|


C#|--------|--------|--------|--------|--------|--------|--------|--------|--------|
G#|--------|--------|--------|--------|--------|--------|--------|--------|--------|
 E|--------|--------|--------|--------|--------|--------|--------|--------|--------|
 B|--------|--------|--------|--------|--------|--------|--------|--------|--------|
F#|--------|--------|--------|--------|--------|--------|--------|--------|--------|
 B|--------|--------|--------|--------|--------|--------|--------|--------|--------|


C#|--------|--------|--------|--------|--------|--------|--------|--------|--------|
G#|--------|--------|--------|--------|--------|--------|--------|--------|--------|
 E|--------|--------|--------|--------|--------|--------|--------|--------|--------|
 B|--------|--------|--------|--------|--------|--------|--------|--------|--------|
F#|--------|--------|--------|--------|--------|--------|--------|--------|--------|
 B|--------|--------|--------|--------|--------|--------|--------|--------|--------|


C#|--------|--------|--------|--------|--------|--------|--------|--------|--------|
G#|--------|--------|--------|--------|--------|--------|--------|--------|--------|
 E|--------|--------|--------|--------|--------|--------|--------|--------|--------|
 B|--------|--------|--------|--------|--------|--------|--------|--------|--------|
F#|--------|--------|--------|--------|--------|--------|--------|--------|--------|
 B|--------|--------|--------|--------|--------|--------|--------|--------|--------|


C#|--------|--------|--------|--------|--------|--------|--------|--------|--------|
G#|--------|--------|--------|--------|--------|--------|--------|--------|--------|
 E|--------|--------|--------|--------|--------|--------|--------|--------|--------|
 B|--------|--------|--------|--------|--------|--------|--------|--------|--------|
F#|--------|--------|--------|--------|--------|--------|--------|--------|--------|
 B|--------|--------|--------|--------|--------|--------|--------|--------|--------|


C#|--------|--------|--------|--------|--------|--------|--------|--------|--------|
G#|--------|--------|--------|--------|--------|--------|--------|--------|--------|
 E|--------|--------|--------|--------|--------|--------|--------|--------|--------|
 B|--------|--------|--------|--------|--------|--------|--------|--------|--------|
F#|--------|--------|--------|--------|--------|--------|--------|--------|--------|
 B|--------|--------|--------|--------|--------|--------|--------|--------|--------|


C#|--------|--------|--------|--------|--------|--------|--------|--------|--------|
G#|--------|--------|--------|--------|--------|--------|--------|--------|--------|
 E|--------|--------|--------|--------|--------|--------|--------|--------|--------|
 B|--------|--------|--------|--------|--------|--------|--------|--------|--------|
F#|--------|--------|--------|--------|--------|--------|--------|--------|--------|
 B|--------|--------|--------|--------|--------|--------|--------|--------|--------|


C#|--------|--------|--------|--------|--------|--------|--------|--------|--------|
G#|--------|--------|--------|--------|--------|--------|--------|--------|--------|
 E|--------|--------|--------|--------|--------|--------|--------|--------|--------|
 B|--------|--------|--------|--------|--------|--------|--------|--------|--------|
F#|--------|--------|--------|--------|--------|--------|--------|--------|--------|
 B|--------|--------|--------|--------|--------|--------|--------|--------|--------|


C#|--------|--------|--------|-----------------------------------------|-----------------------------------------|
G#|--------|--------|--------|-----------------------------------------|-----------------------------------------|
 E|--------|--------|--------|-----------------------------------------|-----------------------------------------|
 B|--------|--------|--------|-----------------------------------------|-----------------------------------------|
F#|--------|--------|--------|-7---1---2---2--3--3--3--3--3--3--3--8---|-7---1---2---2--3--3--3--3--3--3--3--8---|
 B|--------|--------|--------|-7---1---2---2--3--3--3--3--3--3--3--8---|-7---1---2---2--3--3--3--3--3--3--3--8---|


C#|-----------------------------------------|-----------------------------------------|
G#|-----------------------------------------|-----------------------------------------|
 E|-----------------------------------------|-----------------------------------------|
 B|-----------------------------------------|-----------------------------------------|
F#|-7---1---2---2--3--3--3--3--3--3--3--8---|-7---1---2---2--3--3--3--3--3--3--3--8---|
 B|-7---1---2---2--3--3--3--3--3--3--3--8---|-7---1---2---2--3--3--3--3--3--3--3--8---|


C#|-----------------------------------------|--------|--------|--------|--------|--------|
G#|-----------------------------------------|--------|--------|--------|--------|--------|
 E|-----------------------------------------|--------|--------|--------|--------|--------|
 B|-----------------------------------------|--------|--------|--------|--------|--------|
F#|-7---1---2---2--3--3--3--3--3--3--3------|--------|--------|--------|--------|--------|
 B|-7---1---2---2--3--3--3--3--3--3--3------|--------|--------|--------|--------|--------|


C#|--------|--------|--------|--------|--------|--------|--------|
G#|--------|--------|--------|--------|--------|--------|--------|
 E|--------|--------|--------|--------|--------|--------|--------|
 B|--------|--------|--------|--------|--------|--------|--------|
F#|--------|--------|--------|--------|--------|--------|--------|
 B|--------|--------|--------|--------|--------|--------|--------|





Track 4: Untitled

G|--------|--------|--------|--------|--------|--------|--------|--------|--------|
D|--------|--------|--------|--------|--------|--------|--------|--------|--------|
A|--------|--------|--------|--------|--------|--------|--------|--------|--------|
E|--------|--------|--------|--------|--------|--------|--------|--------|--------|


G|--------|--------|--------|--------|--------|--------|--------|--------|--------|
D|--------|--------|--------|--------|--------|--------|--------|--------|--------|
A|--------|--------|--------|--------|--------|--------|--------|--------|--------|
E|--------|--------|--------|--------|--------|--------|--------|--------|--------|


G|--------|--------|--------|--------|--------|--------|--------|--------|--------|
D|--------|--------|--------|--------|--------|--------|--------|--------|--------|
A|--------|--------|--------|--------|--------|--------|--------|--------|--------|
E|--------|--------|--------|--------|--------|--------|--------|--------|--------|


G|--------|--------|--------|--------|--------|--------|--------|--------|--------|
D|--------|--------|--------|--------|--------|--------|--------|--------|--------|
A|--------|--------|--------|--------|--------|--------|--------|--------|--------|
E|--------|--------|--------|--------|--------|--------|--------|--------|--------|


G|--------|--------|--------|--------|--------|--------|--------|--------|--------|
D|--------|--------|--------|--------|--------|--------|--------|--------|--------|
A|--------|--------|--------|--------|--------|--------|--------|--------|--------|
E|--------|--------|--------|--------|--------|--------|--------|--------|--------|


G|--------|--------|--------|--------|--------|--------|--------|--------|--------|
D|--------|--------|--------|--------|--------|--------|--------|--------|--------|
A|--------|--------|--------|--------|--------|--------|--------|--------|--------|
E|--------|--------|--------|--------|--------|--------|--------|--------|--------|


G|--------|--------|--------|--------|--------|--------|--------|--------|--------|
D|--------|--------|--------|--------|--------|--------|--------|--------|--------|
A|--------|--------|--------|--------|--------|--------|--------|--------|--------|
E|--------|--------|--------|--------|--------|--------|--------|--------|--------|


G|--------|--------|--------|--------|--------|--------|--------|--------|--------|
D|--------|--------|--------|--------|--------|--------|--------|--------|--------|
A|--------|--------|--------|--------|--------|--------|--------|--------|--------|
E|--------|--------|--------|--------|--------|--------|--------|--------|--------|


G|--------|--------|--------|--------|--------|--------|--------|--------|--------|
D|--------|--------|--------|--------|--------|--------|--------|--------|--------|
A|--------|--------|--------|--------|--------|--------|--------|--------|--------|
E|--------|--------|--------|--------|--------|--------|--------|--------|--------|


G|--------|--------|--------|--------|--------|--------|--------|--------|--------|
D|--------|--------|--------|--------|--------|--------|--------|--------|--------|
A|--------|--------|--------|--------|--------|--------|--------|--------|--------|
E|--------|--------|--------|--------|--------|--------|--------|--------|--------|


G|--------|--------|
D|--------|--------|
A|--------|--------|
E|--------|--------|