Menu:

 

Search:

 

slipknot - prelude 30:

 



Title: Prelude 3.0
Artist: 
Album: Vol. 3: The Subliminal Verses
Author: Shawn Crahan, Chris Fehn, Paul Gray Nathan Jordison, Corey Taylor, Mic Thompson, Jim Root and Sid Wilson


Track 1: Guitar w/ step phaser (verse) / Distortion (chorus)

E|--------|--------|--------|-----------------|--------|--------|--------|-----------------|
B|--------|--------|--------|-----------------|--------|--------|--------|-----------------|
G|-2------|-5------|-7------|-7-----4----4----|-2------|-5------|-7------|-7-----4----4----|
D|-2------|-5------|-7------|-7-----4----4----|-2------|-5------|-7------|-7-----4----4----|
A|-0------|-3------|-5------|-5-----2----2----|-0------|-3------|-5------|-5-----2----2----|
E|--------|--------|--------|-----------------|--------|--------|--------|-----------------|


E|--------|--------|--------|-----------------|--------|--------|--------|-----------------|
B|--------|--------|--------|-----------------|--------|--------|--------|-----------------|
G|-2------|-5------|-7------|-7-----4----4----|-2------|-5------|-7------|-7-----4----4----|
D|-2------|-5------|-7------|-7-----4----4----|-2------|-5------|-7------|-7-----4----4----|
A|-0------|-3------|-5------|-5-----2----2----|-0------|-3------|-5------|-5-----2----2----|
E|--------|--------|--------|-----------------|--------|--------|--------|-----------------|


E|--------|--------|--------|-----------------|--------|--------|--------|-----------------|
B|--------|--------|--------|-----------------|--------|--------|--------|-----------------|
G|-2------|-5------|-7------|-7-----4----4----|-2------|-5------|-7------|-7-----4----4----|
D|-2------|-5------|-7------|-7-----4----4----|-2------|-5------|-7------|-7-----4----4----|
A|-0------|-3------|-5------|-5-----2----2----|-0------|-3------|-5------|-5-----2----2----|
E|--------|--------|--------|-----------------|--------|--------|--------|-----------------|


E|--------|--------|--------|-----------------|--------|--------|--------|-----------------|
B|--------|--------|--------|-----------------|--------|--------|--------|-----------------|
G|-2------|-5------|-7------|-7-----4----4----|-2------|-5------|-7------|-7-----4----4----|
D|-2------|-5------|-7------|-7-----4----4----|-2------|-5------|-7------|-7-----4----4----|
A|-0------|-3------|-5------|-5-----2----2----|-0------|-3------|-5------|-5-----2----2----|
E|--------|--------|--------|-----------------|--------|--------|--------|-----------------|


E|--------|--------|--------|--------|--------|--------|--------|--------|--------|
B|--------|--------|--------|--------|--------|--------|--------|--------|--------|
G|--------|--------|--------|--------|--------|--------|--------|--------|--------|
D|--------|--------|--------|--------|--------|--------|--------|--------|--------|
A|--------|--------|--------|--------|--------|--------|--------|--------|--------|
E|--------|--------|--------|--------|--------|--------|--------|--------|--------|


E|--------|--------|--------|--------|-------------|-------------|-------------|-----------------|
B|--------|--------|--------|--------|-------------|-------------|-------------|-----------------|
G|--------|--------|--------|--------|-------5-----|-------7-----|-------7-----|-4----4----2-----|
D|--------|--------|--------|--------|-------5-----|-------7-----|-------7-----|-4----4----2-----|
A|--------|--------|--------|--------|-------3-----|-------5-----|-------5-----|-2----2----0-----|
E|--------|--------|--------|--------|-------------|-------------|-------------|-----------------|


E|-------------|-------------|-------------|-----------------|-------------|-------------|
B|-------------|-------------|-------------|-----------------|-------------|-------------|
G|-------5-----|-------7-----|-------7-----|-4----4----2-----|-------5-----|-------7-----|
D|-------5-----|-------7-----|-------7-----|-4----4----2-----|-------5-----|-------7-----|
A|-------3-----|-------5-----|-------5-----|-2----2----0-----|-------3-----|-------5-----|
E|-------------|-------------|-------------|-----------------|-------------|-------------|


E|-------------|-----------------|-------------|-------------|-------------|-----------------|
B|-------------|-----------------|-------------|-------------|-------------|-----------------|
G|-------7-----|-4----4----2-----|-------5-----|-------7-----|-------7-----|-4----4----------|
D|-------7-----|-4----4----2-----|-------5-----|-------7-----|-------7-----|-4----4----------|
A|-------5-----|-2----2----0-----|-------3-----|-------5-----|-------5-----|-2----2----------|
E|-------------|-----------------|-------------|-------------|-------------|-----------------|


E|--------|--------|--------|--------|--------|--------|--------|-------------|--------|
B|--------|--------|--------|--------|--------|--------|--------|-------------|--------|
G|--------|--------|--------|--------|--------|--------|--------|--------5----|-7------|
D|--------|--------|--------|--------|--------|--------|--------|--------5----|-7------|
A|--------|--------|--------|--------|--------|--------|--------|--------3----|-5------|
E|--------|--------|--------|--------|--------|--------|--------|-------------|--------|


E|----------------------------------|-----------------------------------|----------------|
B|----------------------------------|-----------------------------------|----------------|
G|----------------------7---5-------|-7---5-------7---5-------5----7----|----------------|
D|-5---9---5---7---7------------7---|---------7-----------7---5----7----|--------5---9---|
A|-5---9---5---7---7----------------|-------------------------3----5----|--------5---9---|
E|-3---7---3---5---5----------------|-----------------------------------|--------3---7---|


E|--------------------------------------|------------------------|-----------------------|
B|--------------------------------------|------------------------|-----------------------|
G|--------------7---5-------7---5-------|-7---5-------5----7-----|-----------------------|
D|-5---7---7------------7-----------7---|---------7---5----7-----|-------5---9---5---7---|
A|-5---7---7----------------------------|-------------3----5-----|-------5---9---5---7---|
E|-3---5---5----------------------------|------------------------|-------3---7---3---5---|


E|------------------------------------------|-------------|---------------------------|
B|------------------------------------------|-------------|---------------------------|
G|------7---5-------7---5-------7---5-------|-5----7------|---------------------------|
D|-7------------7-----------7-----------7---|-5----7------|------5---9---5---7---7----|
A|-7----------------------------------------|-3----5------|------5---9---5---7---7----|
E|-5----------------------------------------|-------------|------3---7---3---5---5----|


E|------------------------------------------|--------|-----------------------|-------------|
B|------------------------------------------|--------|-----------------------|-------------|
G|-7---5-------7---5-------7---5-------5----|-7------|-----------------------|-------------|
D|---------7-----------7-----------7---5----|-7------|-5---9---5---7---7-----|-------7-----|
A|-------------------------------------3----|-5------|-5---9---5---7---7-----|-------7-----|
E|------------------------------------------|--------|-3---7---3---5---5-----|-------5-----|


E|--------|--------|--------|--------|--------|
B|--------|--------|--------|--------|--------|
G|--------|--------|--------|--------|--------|
D|--------|--------|--------|--------|--------|
A|--------|--------|--------|--------|--------|
E|--------|--------|--------|--------|--------|





Track 2: Clean

E|--------|--------|--------|--------|--------|--------|--------|--------|-------------4-----------4-----------4-----------|
B|--------|--------|--------|--------|--------|--------|--------|--------|---------6-------6-----------6-----------6-------|
G|--------|--------|--------|--------|--------|--------|--------|--------|-5---7---------------7-----------7-----------7---|
D|--------|--------|--------|--------|--------|--------|--------|--------|-------------------------------------------------|
A|--------|--------|--------|--------|--------|--------|--------|--------|-------------------------------------------------|
E|--------|--------|--------|--------|--------|--------|--------|--------|-------------------------------------------------|


E|-4-----------4-----------4-----------4-----------|-------------0-----------0-----------0-----------|
B|-----6-----------6-----------6-----------6-------|---------1-------1-----------1-----------1-------|
G|---------5-----------5-----------5-----------5---|-0---2---------------2-----------2-----------2---|
D|-------------------------------------------------|-------------------------------------------------|
A|-------------------------------------------------|-------------------------------------------------|
E|-------------------------------------------------|-------------------------------------------------|


E|-0-----------0-----------0-----------0-----------|-------------4-----------4-----------4-----------|
B|-----1-----------1-----------1-----------1-------|---------6-------6-----------6-----------6-------|
G|---------2-----------2-----------2-----------2---|-5---7---------------7-----------7-----------7---|
D|-------------------------------------------------|-------------------------------------------------|
A|-------------------------------------------------|-------------------------------------------------|
E|-------------------------------------------------|-------------------------------------------------|


E|-4-----------4-----------4-----------4-----------|-------------0-----------0-----------0-----------|
B|-----6-----------6-----------6-----------6-------|---------1-------1-----------1-----------1-------|
G|---------5-----------5-----------5-----------5---|-0---2---------------2-----------2-----------2---|
D|-------------------------------------------------|-------------------------------------------------|
A|-------------------------------------------------|-------------------------------------------------|
E|-------------------------------------------------|-------------------------------------------------|


E|-0-----------0-----------0-----------0-----------|-------------4-----------4-----------4-----------|
B|-----1-----------1-----------1-----------1-------|---------6-------6-----------6-----------6-------|
G|---------2-----------2-----------2-----------2---|-5---7---------------7-----------7-----------7---|
D|-------------------------------------------------|-------------------------------------------------|
A|-------------------------------------------------|-------------------------------------------------|
E|-------------------------------------------------|-------------------------------------------------|


E|-4-----------4-----------4-----------4-----------|-------------0-----------0-----------0-----------|
B|-----6-----------6-----------6-----------6-------|---------1-------1-----------1-----------1-------|
G|---------5-----------5-----------5-----------5---|-0---2---------------2-----------2-----------2---|
D|-------------------------------------------------|-------------------------------------------------|
A|-------------------------------------------------|-------------------------------------------------|
E|-------------------------------------------------|-------------------------------------------------|


E|-0-----------0-----------0-----------0-----------|-------------4-----------4-----------4-----------|
B|-----1-----------1-----------1-----------1-------|---------6-------6-----------6-----------6-------|
G|---------2-----------2-----------2-----------2---|-5---7---------------7-----------7-----------7---|
D|-------------------------------------------------|-------------------------------------------------|
A|-------------------------------------------------|-------------------------------------------------|
E|-------------------------------------------------|-------------------------------------------------|


E|-4-----------4-----------4-----------4-----------|-------------0-----------0-----------0-----------|
B|-----6-----------6-----------6-----------6-------|---------1-------1-----------1-----------1-------|
G|---------5-----------5-----------5-----------5---|-0---2---------------2-----------2-----------2---|
D|-------------------------------------------------|-------------------------------------------------|
A|-------------------------------------------------|-------------------------------------------------|
E|-------------------------------------------------|-------------------------------------------------|


E|-0-----------0-----------0-----------0-----------|--------|--------|--------|--------|
B|-----1-----------1-----------1-----------1-------|--------|--------|--------|--------|
G|---------2-----------2-----------2-----------2---|--------|--------|--------|--------|
D|-------------------------------------------------|--------|--------|--------|--------|
A|-------------------------------------------------|--------|--------|--------|--------|
E|-------------------------------------------------|--------|--------|--------|--------|


E|--------|--------|--------|--------|--------|--------|--------|--------|--------|
B|--------|--------|--------|--------|--------|--------|--------|--------|--------|
G|--------|--------|--------|--------|--------|--------|--------|--------|--------|
D|--------|--------|--------|--------|--------|--------|--------|--------|--------|
A|--------|--------|--------|--------|--------|--------|--------|--------|--------|
E|--------|--------|--------|--------|--------|--------|--------|--------|--------|


E|--------|--------|--------|--------|--------|--------|--------|--------------------|
B|--------|--------|--------|--------|--------|--------|--------|--------------------|
G|--------|--------|--------|--------|--------|--------|--------|-------5------------|
D|--------|--------|--------|--------|--------|--------|--------|--------------------|
A|--------|--------|--------|--------|--------|--------|--------|--------------------|
E|--------|--------|--------|--------|--------|--------|--------|--------------------|


E|--------|--------|--------|--------|--------|--------|--------|--------|--------|
B|--------|--------|--------|--------|--------|--------|--------|--------|--------|
G|--------|--------|--------|--------|--------|--------|--------|--------|--------|
D|--------|--------|--------|--------|--------|--------|--------|--------|--------|
A|--------|--------|--------|--------|--------|--------|--------|--------|--------|
E|--------|--------|--------|--------|--------|--------|--------|--------|--------|


E|--------|--------|--------|--------|--------|--------|--------|--------|--------|
B|--------|--------|--------|--------|--------|--------|--------|--------|--------|
G|--------|--------|--------|--------|--------|--------|--------|--------|--------|
D|--------|--------|--------|--------|--------|--------|--------|--------|--------|
A|--------|--------|--------|--------|--------|--------|--------|--------|--------|
E|--------|--------|--------|--------|--------|--------|--------|--------|--------|


E|--------|--------|--------|--------|--------|--------|--------|--------|--------|
B|--------|--------|--------|--------|--------|--------|--------|--------|--------|
G|--------|--------|--------|--------|--------|--------|--------|--------|--------|
D|--------|--------|--------|--------|--------|--------|--------|--------|--------|
A|--------|--------|--------|--------|--------|--------|--------|--------|--------|
E|--------|--------|--------|--------|--------|--------|--------|--------|--------|


E|--------|--------|--------|--------|--------|--------|--------|--------|--------|
B|--------|--------|--------|--------|--------|--------|--------|--------|--------|
G|--------|--------|--------|--------|--------|--------|--------|--------|--------|
D|--------|--------|--------|--------|--------|--------|--------|--------|--------|
A|--------|--------|--------|--------|--------|--------|--------|--------|--------|
E|--------|--------|--------|--------|--------|--------|--------|--------|--------|


E|--------|--------|--------|--------|--------|--------|--------|
B|--------|--------|--------|--------|--------|--------|--------|
G|--------|--------|--------|--------|--------|--------|--------|
D|--------|--------|--------|--------|--------|--------|--------|
A|--------|--------|--------|--------|--------|--------|--------|
E|--------|--------|--------|--------|--------|--------|--------|





Track 3: Guitar w/ slide

E|--------|--------|--------|--------|--------|--------|--------|--------|--------|
B|--------|--------|--------|--------|--------|--------|--------|--------|--------|
G|--------|--------|--------|--------|--------|--------|--------|--------|--------|
D|--------|--------|--------|--------|--------|--------|--------|--------|--------|
A|--------|--------|--------|--------|--------|--------|--------|--------|--------|
E|--------|--------|--------|--------|--------|--------|--------|--------|--------|


E|--------|--------|--------|--------|--------|--------|--------|--------|--------|
B|--------|--------|--------|--------|--------|--------|--------|--------|--------|
G|--------|--------|--------|--------|--------|--------|--------|--------|--------|
D|--------|--------|--------|--------|--------|--------|--------|--------|--------|
A|--------|--------|--------|--------|--------|--------|--------|--------|--------|
E|--------|--------|--------|--------|--------|--------|--------|--------|--------|


E|--------|--------|--------|--------|--------|--------|-------------|-----------------|
B|--------|--------|--------|--------|--------|--------|-------------|-----------------|
G|--------|--------|--------|--------|--------|--------|-14----12----|-9-----7----5----|
D|--------|--------|--------|--------|--------|--------|-------------|-----------------|
A|--------|--------|--------|--------|--------|--------|-------------|-----------------|
E|--------|--------|--------|--------|--------|--------|-------------|-----------------|


E|-------------|-------------|-------------|-----------------|-------------|-------------|
B|-------------|-------------|-------------|-----------------|-------------|-------------|
G|-5-----4-----|-2-----0-----|-14----12----|-9-----7----5----|-5-----4-----|-2-----0-----|
D|-------------|-------------|-------------|-----------------|-------------|-------------|
A|-------------|-------------|-------------|-----------------|-------------|-------------|
E|-------------|-------------|-------------|-----------------|-------------|-------------|


E|--------|--------|--------|--------|--------|--------|--------|--------|--------|
B|--------|--------|--------|--------|--------|--------|--------|--------|--------|
G|--------|--------|--------|--------|--------|--------|--------|--------|--------|
D|--------|--------|--------|--------|--------|--------|--------|--------|--------|
A|--------|--------|--------|--------|--------|--------|--------|--------|--------|
E|--------|--------|--------|--------|--------|--------|--------|--------|--------|


E|--------|--------|--------|--------|--------|--------|--------|--------|--------|
B|--------|--------|--------|--------|--------|--------|--------|--------|--------|
G|--------|--------|--------|--------|--------|--------|--------|--------|--------|
D|--------|--------|--------|--------|--------|--------|--------|--------|--------|
A|--------|--------|--------|--------|--------|--------|--------|--------|--------|
E|--------|--------|--------|--------|--------|--------|--------|--------|--------|


E|--------|--------|--------|--------|--------|--------|--------|--------|--------|
B|--------|--------|--------|--------|--------|--------|--------|--------|--------|
G|--------|--------|--------|--------|--------|--------|--------|--------|--------|
D|--------|--------|--------|--------|--------|--------|--------|--------|--------|
A|--------|--------|--------|--------|--------|--------|--------|--------|--------|
E|--------|--------|--------|--------|--------|--------|--------|--------|--------|


E|--------|--------|--------|--------|--------|--------|--------|--------|--------|
B|--------|--------|--------|--------|--------|--------|--------|--------|--------|
G|--------|--------|--------|--------|--------|--------|--------|--------|--------|
D|--------|--------|--------|--------|--------|--------|--------|--------|--------|
A|--------|--------|--------|--------|--------|--------|--------|--------|--------|
E|--------|--------|--------|--------|--------|--------|--------|--------|--------|


E|--------|--------|--------|--------|--------|--------|--------|--------|--------|
B|--------|--------|--------|--------|--------|--------|--------|--------|--------|
G|--------|--------|--------|--------|--------|--------|--------|--------|--------|
D|--------|--------|--------|--------|--------|--------|--------|--------|--------|
A|--------|--------|--------|--------|--------|--------|--------|--------|--------|
E|--------|--------|--------|--------|--------|--------|--------|--------|--------|


E|--------|--------|--------|--------|--------|--------|--------|--------|--------|
B|--------|--------|--------|--------|--------|--------|--------|--------|--------|
G|--------|--------|--------|--------|--------|--------|--------|--------|--------|
D|--------|--------|--------|--------|--------|--------|--------|--------|--------|
A|--------|--------|--------|--------|--------|--------|--------|--------|--------|
E|--------|--------|--------|--------|--------|--------|--------|--------|--------|


E|--------|--------|
B|--------|--------|
G|--------|--------|
D|--------|--------|
A|--------|--------|
E|--------|--------|





Track 4: Guitar w/ heavy Chorus effect? (pre chorus) Distortion (Chorus 2)

E|--------|--------|--------|--------|--------|--------|--------|--------|--------|
B|--------|--------|--------|--------|--------|--------|--------|--------|--------|
G|--------|--------|--------|--------|--------|--------|--------|--------|--------|
D|--------|--------|--------|--------|--------|--------|--------|--------|--------|
A|--------|--------|--------|--------|--------|--------|--------|--------|--------|
E|--------|--------|--------|--------|--------|--------|--------|--------|--------|


E|--------|--------|--------|--------|--------|--------|--------|--------|--------|
B|--------|--------|--------|--------|--------|--------|--------|--------|--------|
G|--------|--------|--------|--------|--------|--------|--------|--------|--------|
D|--------|--------|--------|--------|--------|--------|--------|--------|--------|
A|--------|--------|--------|--------|--------|--------|--------|--------|--------|
E|--------|--------|--------|--------|--------|--------|--------|--------|--------|


E|--------|--------|--------|--------|--------|--------|----------------------|----------5---5-----|
B|--------|--------|--------|--------|--------|--------|----------------------|-5----5-------------|
G|--------|--------|--------|--------|--------|--------|-5--------------------|--------------------|
D|--------|--------|--------|--------|--------|--------|------5----9----7-----|--------------------|
A|--------|--------|--------|--------|--------|--------|----------------------|--------------------|
E|--------|--------|--------|--------|--------|--------|----------------------|--------------------|


E|---------------------|--------|-----------------|-----------------|------------------------|
B|-----5----------5----|--------|------5----------|-5----------5----|-----5-------------5----|
G|-5---------7---------|--------|-7---------7-----|-----------------|-7------------7---------|
D|---------------------|-7------|-----------------|------7----------|---------7--------------|
A|---------------------|--------|-----------------|-----------------|------------------------|
E|---------------------|--------|-----------------|-----------------|------------------------|


E|---------------------|--------|--------|--------|--------|--------|--------|--------|
B|------5---------5----|--------|--------|--------|--------|--------|--------|--------|
G|-----------7---------|--------|--------|--------|--------|--------|--------|--------|
D|-7-------------------|--------|--------|--------|--------|--------|--------|--------|
A|---------------------|--------|--------|--------|--------|--------|--------|--------|
E|---------------------|--------|--------|--------|--------|--------|--------|--------|


E|--------|--------|--------|--------|--------|--------|--------|--------|--------|
B|--------|--------|--------|--------|--------|--------|--------|--------|--------|
G|--------|--------|--------|--------|--------|--------|--------|--------|--------|
D|--------|--------|--------|--------|--------|--------|--------|--------|--------|
A|--------|--------|--------|--------|--------|--------|--------|--------|--------|
E|--------|--------|--------|--------|--------|--------|--------|--------|--------|


E|--------|--------|--------|--------|--------------------|--------------------|------------------------|
B|--------|--------|--------|--------|-------5--------5---|-------5----5-------|------5------------5----|
G|--------|--------|--------|--------|------------5-------|-7------------------|-----------7---5--------|
D|--------|--------|--------|--------|--------------------|----------------7---|-7----------------------|
A|--------|--------|--------|--------|--------------------|--------------------|------------------------|
E|--------|--------|--------|--------|--------------------|--------------------|------------------------|


E|------------------------|------------------------|-----------------|------------------------|
B|---------5---------5----|------5--------5--------|-------5---------|------5--------5--------|
G|-7---5------------------|-7---------7------------|-7---------------|-----------7------------|
D|--------------7---------|-------------------7----|------------7----|-------------------7----|
A|------------------------|------------------------|-----------------|------------------------|
E|------------------------|------------------------|-----------------|------------------------|


E|---------------------|-----------------|--------|--------|--------|--------|--------|
B|------5---------5----|-----------------|--------|--------|--------|--------|--------|
G|-7-------------------|-7----5----------|--------|--------|--------|--------|--------|
D|-----------7---------|-----------------|--------|--------|--------|--------|--------|
A|---------------------|-----------------|--------|--------|--------|--------|--------|
E|---------------------|-----------------|--------|--------|--------|--------|--------|


E|--------|--------|--------|--------|--------|--------|-------------|---------------------|
B|--------|--------|--------|--------|--------|--------|--------13---|-12--------13---12---|
G|--------|--------|--------|--------|--------|--------|-------------|------14-------------|
D|--------|--------|--------|--------|--------|--------|-------------|---------------------|
A|--------|--------|--------|--------|--------|--------|-------------|---------------------|
E|--------|--------|--------|--------|--------|--------|-------------|---------------------|


E|-------------|-----------------|---------------------|--------|---------------------|
B|-------------|-------13---12---|------13---12--------|--------|------13---12--------|
G|-14----------|-----------------|-14-------------14---|--------|----------------14---|
D|-------------|-----------------|---------------------|--------|---------------------|
A|-------------|-----------------|---------------------|--------|---------------------|
E|-------------|-----------------|---------------------|--------|---------------------|


E|---------------------|--------|---------------------|---------------------|---------------------|
B|-13---12-------------|--------|-13---12--------13---|-12--------13---12---|------13---12--------|
G|-----------14--------|--------|-----------14--------|------14-------------|-14-------------14---|
D|---------------------|--------|---------------------|---------------------|---------------------|
A|---------------------|--------|---------------------|---------------------|---------------------|
E|---------------------|--------|---------------------|---------------------|---------------------|


E|--------|--------|--------|--------|
B|--------|--------|--------|--------|
G|--------|--------|--------|--------|
D|--------|--------|--------|--------|
A|--------|--------|--------|--------|
E|--------|--------|--------|--------|





Track 5: distortion

E|--------|--------|--------|--------|--------|--------|--------|--------|--------|
B|--------|--------|--------|--------|--------|--------|--------|--------|--------|
G|--------|--------|--------|--------|--------|--------|--------|--------|--------|
D|--------|--------|--------|--------|--------|--------|--------|--------|--------|
A|--------|--------|--------|--------|--------|--------|--------|--------|--------|
E|--------|--------|--------|--------|--------|--------|--------|--------|--------|


E|--------|--------|--------|--------|--------|--------|--------|--------|--------|
B|--------|--------|--------|--------|--------|--------|--------|--------|--------|
G|--------|--------|--------|--------|--------|--------|--------|--------|--------|
D|--------|--------|--------|--------|--------|--------|--------|--------|--------|
A|--------|--------|--------|--------|--------|--------|--------|--------|--------|
E|--------|--------|--------|--------|--------|--------|--------|--------|--------|


E|--------|--------|--------|--------|--------|--------|--------|--------|--------|
B|--------|--------|--------|--------|--------|--------|--------|--------|--------|
G|--------|--------|--------|--------|--------|--------|--------|--------|--------|
D|--------|--------|--------|--------|--------|--------|--------|--------|--------|
A|--------|--------|--------|--------|--------|--------|--------|--------|--------|
E|--------|--------|--------|--------|--------|--------|--------|--------|--------|


E|--------|--------|--------|--------|--------|-----12----------------|---------------------|
B|--------|--------|--------|--------|--------|---------12--15--15----|------13---12--------|
G|--------|--------|--------|--------|--------|-14--------------------|----------------14---|
D|--------|--------|--------|--------|--------|-----------------------|---------------------|
A|--------|--------|--------|--------|--------|-----------------------|---------------------|
E|--------|--------|--------|--------|--------|-----------------------|---------------------|


E|--------------------12--|----------------|---------------------|---------------12----------|
B|-13---12----------------|-12--15--15-----|-13---12--------13---|-12----------------12--15--|
G|-----------14---14------|----------------|-----------14--------|------14---14--------------|
D|------------------------|----------------|---------------------|---------------------------|
A|------------------------|----------------|---------------------|---------------------------|
E|------------------------|----------------|---------------------|---------------------------|


E|-------------|---------------------|----------12---------------|-----------------|
B|-15-----13---|-12--------13---12---|--------------12--15--15---|-------13---12---|
G|-------------|------14-------------|-14---14-------------------|-----------------|
D|-------------|---------------------|---------------------------|-----------------|
A|-------------|---------------------|---------------------------|-----------------|
E|-------------|---------------------|---------------------------|-----------------|


E|---------------------|---------------------|-----------------|--------|--------|
B|------13---12--------|-13---12--------13---|-12--------------|--------|--------|
G|-14-------------14---|-----------14--------|------14---2-----|--------|--------|
D|---------------------|---------------------|-----------2-----|--------|--------|
A|---------------------|---------------------|-----------0-----|--------|--------|
E|---------------------|---------------------|-----------------|--------|--------|


E|--------|--------|--------|--------|--------|--------|--------|--------|--------|
B|--------|--------|--------|--------|--------|--------|--------|--------|--------|
G|--------|--------|--------|--------|--------|--------|--------|--------|--------|
D|--------|--------|--------|--------|--------|--------|--------|--------|--------|
A|--------|--------|--------|--------|--------|--------|--------|--------|--------|
E|--------|--------|--------|--------|--------|--------|--------|--------|--------|


E|--------|--------|--------|--------|-----------12----------|-------------|---------------------|
B|--------|--------|--------|--------|---------------12--15--|-15-----13---|-12--------13---12---|
G|--------|--------|--------|--------|-------14--------------|-------------|------14-------------|
D|--------|--------|--------|--------|-----------------------|-------------|---------------------|
A|--------|--------|--------|--------|-----------------------|-------------|---------------------|
E|--------|--------|--------|--------|-----------------------|-------------|---------------------|


E|----------12---------------|-----------------|---------------------|-----12----------------|
B|--------------12--15--15---|-------13---12---|------13---12--------|---------12--15--15----|
G|-14---14-------------------|-----------------|-14-------------14---|-14--------------------|
D|---------------------------|-----------------|---------------------|-----------------------|
A|---------------------------|-----------------|---------------------|-----------------------|
E|---------------------------|-----------------|---------------------|-----------------------|


E|---------------------|--------------------12--|----------------|---------------------|
B|------13---12--------|-13---12----------------|-12--15---------|-13---12--------13---|
G|----------------14---|-----------14---14------|---------14-----|-----------14--------|
D|---------------------|------------------------|----------------|---------------------|
A|---------------------|------------------------|----------------|---------------------|
E|---------------------|------------------------|----------------|---------------------|


E|---------------12----------|-------------|---------------------|----------12---------------|
B|-12----------------12--15--|-15-----13---|-12--------13---12---|--------------12--15--15---|
G|------14---14--------------|-------------|------14-------------|-14---14-------------------|
D|---------------------------|-------------|---------------------|---------------------------|
A|---------------------------|-------------|---------------------|---------------------------|
E|---------------------------|-------------|---------------------|---------------------------|


E|-----------------|---------------------|-----12----------------|---------------------|
B|-------13---12---|------13---12--------|---------12--15--15----|------13---12--------|
G|-----------------|-14-------------14---|-14--------------------|----------------14---|
D|-----------------|---------------------|-----------------------|---------------------|
A|-----------------|---------------------|-----------------------|---------------------|
E|-----------------|---------------------|-----------------------|---------------------|


E|---------------------|--------|--------|--------|--------|--------|--------|--------|
B|-13---12-------------|--------|--------|--------|--------|--------|--------|--------|
G|-----------14--------|--------|--------|--------|--------|--------|--------|--------|
D|---------------------|--------|--------|--------|--------|-7------|-7------|-7------|
A|---------------------|--------|--------|--------|--------|-7------|-7------|-7------|
E|---------------------|--------|--------|--------|--------|-5------|-5------|-5------|


E|--------|
B|--------|
G|--------|
D|-7------|
A|-7------|
E|-5------|





Track 6: distortion 2

E|--------|--------|--------|--------|--------|--------|--------|--------|--------|
B|--------|--------|--------|--------|--------|--------|--------|--------|--------|
G|--------|--------|--------|--------|--------|--------|--------|--------|--------|
D|--------|--------|--------|--------|--------|--------|--------|--------|--------|
A|--------|--------|--------|--------|--------|--------|--------|--------|--------|
E|--------|--------|--------|--------|--------|--------|--------|--------|--------|


E|--------|--------|--------|--------|--------|--------|--------|--------|--------|
B|--------|--------|--------|--------|--------|--------|--------|--------|--------|
G|--------|--------|--------|--------|--------|--------|--------|--------|--------|
D|--------|--------|--------|--------|--------|--------|--------|--------|--------|
A|--------|--------|--------|--------|--------|--------|--------|--------|--------|
E|--------|--------|--------|--------|--------|--------|--------|--------|--------|


E|--------|--------|--------|--------|--------|--------|--------|--------|--------|
B|--------|--------|--------|--------|--------|--------|--------|--------|--------|
G|--------|--------|--------|--------|--------|--------|--------|--------|--------|
D|--------|--------|--------|--------|--------|--------|--------|--------|--------|
A|--------|--------|--------|--------|--------|--------|--------|--------|--------|
E|--------|--------|--------|--------|--------|--------|--------|--------|--------|


E|--------|--------|--------|--------|--------|---------------------------------|---------------------------------|
B|--------|--------|--------|--------|--------|-10------10------10------10------|-10------10------10--10--10------|
G|--------|--------|--------|--------|--------|-9-------7-------7-------7-------|-7-------7-------7---9---9-------|
D|--------|--------|--------|--------|--------|-7-------7-------7-------7-------|-7-------7-------7---7---7-------|
A|--------|--------|--------|--------|--------|---------------------------------|---------------------------------|
E|--------|--------|--------|--------|--------|---------------------------------|---------------------------------|


E|---------------------------------|---------------------------------|---------------------------------|
B|-10------10------10------10------|-10------10------10------10------|-10------10--10--10------10------|
G|-9-------9-------9-------9-------|-7-------7-------7-------7-------|-7-------7---9---9-------9-------|
D|-7-------7-------7-------7-------|-7-------7-------7-------7-------|-7-------7---7---7-------7-------|
A|---------------------------------|---------------------------------|---------------------------------|
E|---------------------------------|---------------------------------|---------------------------------|


E|---------------------------------|---------------------------------|---------------------------------|
B|-10------10------10------10------|-10------10------10------10------|-10--10--10------10------10------|
G|-9-------9-------9-------7-------|-7-------7-------7-------7-------|-7---9---9-------9-------9-------|
D|-7-------7-------7-------7-------|-7-------7-------7-------7-------|-7---7---7-------7-------7-------|
A|---------------------------------|---------------------------------|---------------------------------|
E|---------------------------------|---------------------------------|---------------------------------|


E|---------------------------------|---------------------------------|---------------------------------|
B|-10------10------10------10------|-10------10------10------10--10--|-10------10------10------10------|
G|-9-------9-------7-------7-------|-7-------7-------7-------7---9---|-9-------9-------9-------9-------|
D|-7-------7-------7-------7-------|-7-------7-------7-------7---7---|-7-------7-------7-------7-------|
A|---------------------------------|---------------------------------|---------------------------------|
E|---------------------------------|---------------------------------|---------------------------------|


E|---------------------------------|-----------------------|--------|--------|--------|
B|-10------10------10------10------|-10------10------------|--------|--------|--------|
G|-9-------9-------9-------9-------|-9-------9-------------|--------|--------|--------|
D|-7-------7-------7-------7-------|-7-------7-------------|--------|--------|--------|
A|---------------------------------|-----------------------|--------|--------|--------|
E|---------------------------------|-----------------------|--------|--------|--------|


E|--------|--------|--------|--------|--------|--------|--------|--------|--------|
B|--------|--------|--------|--------|--------|--------|--------|--------|--------|
G|--------|--------|--------|--------|--------|--------|--------|--------|--------|
D|--------|--------|--------|--------|--------|--------|--------|--------|--------|
A|--------|--------|--------|--------|--------|--------|--------|--------|--------|
E|--------|--------|--------|--------|--------|--------|--------|--------|--------|


E|--------|--------|--------|-----------------------|---------------------------------|
B|--------|--------|--------|-------10------10------|-10------10------10------10------|
G|--------|--------|--------|-------9-------7-------|-7-------7-------7-------7-------|
D|--------|--------|--------|-------7-------7-------|-7-------7-------7-------7-------|
A|--------|--------|--------|-----------------------|---------------------------------|
E|--------|--------|--------|-----------------------|---------------------------------|


E|---------------------------------|---------------------------------|---------------------------------|
B|-10--10--10------10------10------|-10------10------10------10------|-10------10------10------10--10--|
G|-7---9---9-------9-------9-------|-9-------9-------7-------7-------|-7-------7-------7-------7---9---|
D|-7---7---7-------7-------7-------|-7-------7-------7-------7-------|-7-------7-------7-------7---7---|
A|---------------------------------|---------------------------------|---------------------------------|
E|---------------------------------|---------------------------------|---------------------------------|


E|---------------------------------|---------------------------------|---------------------------------|
B|-10------10------10------10------|-10------10------10------10------|-10------10------10--10--10------|
G|-9-------9-------9-------9-------|-9-------7-------7-------7-------|-7-------7-------7---9---9-------|
D|-7-------7-------7-------7-------|-7-------7-------7-------7-------|-7-------7-------7---7---7-------|
A|---------------------------------|---------------------------------|---------------------------------|
E|---------------------------------|---------------------------------|---------------------------------|


E|------------------------------|--------|--------|--------|--------|--------|--------|
B|-10------10------10-----------|--------|--------|--------|--------|--------|--------|
G|-9-------9-------9------------|--------|--------|--------|--------|--------|--------|
D|-7-------7-------7------------|--------|--------|--------|--------|--------|--------|
A|------------------------------|--------|--------|--------|--------|--------|--------|
E|------------------------------|--------|--------|--------|--------|--------|--------|


E|--------|--------|--------|--------|--------|--------|--------|--------|--------|
B|--------|--------|--------|--------|--------|--------|--------|--------|--------|
G|--------|--------|--------|--------|--------|--------|--------|--------|--------|
D|--------|--------|--------|--------|--------|--------|--------|--------|--------|
A|--------|--------|--------|--------|--------|--------|--------|--------|--------|
E|--------|--------|--------|--------|--------|--------|--------|--------|--------|


E|--------|--------|--------|--------|
B|--------|--------|--------|--------|
G|--------|--------|--------|--------|
D|--------|--------|--------|--------|
A|--------|--------|--------|--------|
E|--------|--------|--------|--------|





Track 7: Guitar w/ step phaser (verse) / Distortion (chorus)

E|--------|--------|--------|--------|--------|--------|--------|--------|--------|
B|--------|--------|--------|--------|--------|--------|--------|--------|--------|
G|--------|--------|--------|--------|--------|--------|--------|--------|--------|
D|--------|--------|--------|--------|--------|--------|--------|--------|--------|
A|--------|--------|--------|--------|--------|--------|--------|--------|--------|
E|--------|--------|--------|--------|--------|--------|--------|--------|--------|


E|--------|--------|--------|--------|--------|--------|--------|--------|--------|
B|--------|--------|--------|--------|--------|--------|--------|--------|--------|
G|--------|--------|--------|--------|--------|--------|--------|--------|--------|
D|--------|--------|--------|--------|--------|--------|--------|--------|--------|
A|--------|--------|--------|--------|--------|--------|--------|--------|--------|
E|--------|--------|--------|--------|--------|--------|--------|--------|--------|


E|--------|--------|--------|--------|--------|--------|--------|--------|--------|
B|--------|--------|--------|--------|--------|--------|--------|--------|--------|
G|--------|--------|--------|--------|--------|--------|--------|--------|--------|
D|--------|--------|--------|--------|--------|--------|--------|--------|--------|
A|--------|--------|--------|--------|--------|--------|--------|--------|--------|
E|--------|--------|--------|--------|--------|--------|--------|--------|--------|


E|--------|--------|--------|--------|--------|--------|--------|--------|--------|
B|--------|--------|--------|--------|--------|--------|--------|--------|--------|
G|--------|--------|--------|--------|--------|--------|--------|--------|--------|
D|--------|--------|--------|--------|--------|--------|--------|--------|--------|
A|--------|--------|--------|--------|--------|--------|--------|--------|--------|
E|--------|--------|--------|--------|--------|--------|--------|--------|--------|


E|--------|--------|--------|--------|--------|--------|--------|--------|-------------------4-----------|
B|--------|--------|--------|--------|--------|--------|--------|--------|---------------6-------6-------|
G|--------|--------|--------|--------|--------|--------|--------|--------|-----------7---------------7---|
D|--------|--------|--------|--------|--------|--------|--------|--------|-------------------------------|
A|--------|--------|--------|--------|--------|--------|--------|--------|-------------------------------|
E|--------|--------|--------|--------|--------|--------|--------|--------|-------------------------------|


E|-4-----------4-----------4-----------4-----------|-4-----------4-----------------------0-----------|
B|-----6-----------6-----------6-----------6-------|-----6-----------6---------------1-------1-------|
G|---------7-----------7-----------5-----------5---|---------5-----------5---0---2---------------2---|
D|-------------------------------------------------|-------------------------------------------------|
A|-------------------------------------------------|-------------------------------------------------|
E|-------------------------------------------------|-------------------------------------------------|


E|-0-----------0-----------0-----------0-----------|-0-----------0------------------------|
B|-----1-----------1-----------1-----------1-------|-----1-----------1--------------------|
G|---------2-----------2-----------2-----------2---|---------2-----------2---5------------|
D|-------------------------------------------------|--------------------------------------|
A|-------------------------------------------------|--------------------------------------|
E|-------------------------------------------------|--------------------------------------|


E|--------|--------|--------|--------|--------|--------|--------|--------|--------|
B|--------|--------|--------|--------|--------|--------|--------|--------|--------|
G|--------|--------|--------|--------|--------|--------|--------|--------|--------|
D|--------|--------|--------|--------|--------|--------|--------|--------|--------|
A|--------|--------|--------|--------|--------|--------|--------|--------|--------|
E|--------|--------|--------|--------|--------|--------|--------|--------|--------|


E|--------|--------|--------|--------|--------|--------|--------|--------|--------|
B|--------|--------|--------|--------|--------|--------|--------|--------|--------|
G|--------|--------|--------|--------|--------|--------|--------|--------|--------|
D|--------|--------|--------|--------|--------|--------|--------|--------|--------|
A|--------|--------|--------|--------|--------|--------|--------|--------|--------|
E|--------|--------|--------|--------|--------|--------|--------|--------|--------|


E|--------|--------|--------|--------|--------|--------|--------|--------|--------|
B|--------|--------|--------|--------|--------|--------|--------|--------|--------|
G|--------|--------|--------|--------|--------|--------|--------|--------|--------|
D|--------|--------|--------|--------|--------|--------|--------|--------|--------|
A|--------|--------|--------|--------|--------|--------|--------|--------|--------|
E|--------|--------|--------|--------|--------|--------|--------|--------|--------|


E|--------|--------|--------|--------|--------|--------|--------|--------|--------|
B|--------|--------|--------|--------|--------|--------|--------|--------|--------|
G|--------|--------|--------|--------|--------|--------|--------|--------|--------|
D|--------|--------|--------|--------|--------|--------|--------|--------|--------|
A|--------|--------|--------|--------|--------|--------|--------|--------|--------|
E|--------|--------|--------|--------|--------|--------|--------|--------|--------|


E|--------|--------|--------|
B|--------|--------|--------|
G|--------|--------|--------|
D|--------|--------|--------|
A|--------|--------|--------|
E|--------|--------|--------|





Track 8: Guitar w/ step phaser (verse) / Distortion (chorus)

E|--------|--------|--------|--------|--------|--------|--------|--------|--------|
B|--------|--------|--------|--------|--------|--------|--------|--------|--------|
G|--------|--------|--------|--------|--------|--------|--------|--------|--------|
D|--------|--------|--------|--------|--------|--------|--------|--------|--------|
A|--------|--------|--------|--------|--------|--------|--------|--------|--------|
E|--------|--------|--------|--------|--------|--------|--------|--------|--------|


E|--------|--------|--------|--------|--------|--------|--------|--------|--------|
B|--------|--------|--------|--------|--------|--------|--------|--------|--------|
G|--------|--------|--------|--------|--------|--------|--------|--------|--------|
D|--------|--------|--------|--------|--------|--------|--------|--------|--------|
A|--------|--------|--------|--------|--------|--------|--------|--------|--------|
E|--------|--------|--------|--------|--------|--------|--------|--------|--------|


E|--------|--------|--------|--------|--------|--------|--------|--------|--------|
B|--------|--------|--------|--------|--------|--------|--------|--------|--------|
G|--------|--------|--------|--------|--------|--------|--------|--------|--------|
D|--------|--------|--------|--------|--------|--------|--------|--------|--------|
A|--------|--------|--------|--------|--------|--------|--------|--------|--------|
E|--------|--------|--------|--------|--------|--------|--------|--------|--------|


E|--------|--------|--------|--------|--------|--------|--------|--------|--------|
B|--------|--------|--------|--------|--------|--------|--------|--------|--------|
G|--------|--------|--------|--------|--------|--------|--------|--------|--------|
D|--------|--------|--------|--------|--------|--------|--------|--------|--------|
A|--------|--------|--------|--------|--------|--------|--------|--------|--------|
E|--------|--------|--------|--------|--------|--------|--------|--------|--------|


E|--------|--------|--------|--------|--------|--------|--------|--------|--------|
B|--------|--------|--------|--------|--------|--------|--------|--------|--------|
G|--------|--------|--------|--------|--------|--------|--------|--------|--------|
D|--------|--------|--------|--------|--------|--------|--------|--------|--------|
A|--------|--------|--------|--------|--------|--------|--------|--------|--------|
E|--------|--------|--------|--------|--------|--------|--------|--------|--------|


E|--------|--------|--------|-------------------4-----------|-4-----------4-----------4-----------4-----------|
B|--------|--------|--------|---------------6-------6-------|-----6-----------6-----------6-----------6-------|
G|--------|--------|--------|-----------7---------------7---|---------7-----------7-----------5-----------5---|
D|--------|--------|--------|-------------------------------|-------------------------------------------------|
A|--------|--------|--------|-------------------------------|-------------------------------------------------|
E|--------|--------|--------|-------------------------------|-------------------------------------------------|


E|-4-----------4-----------------------0-----------|-0-----------0-----------0-----------0-----------|
B|-----6-----------6---------------1-------1-------|-----1-----------1-----------1-----------1-------|
G|---------5-----------5---0---2---------------2---|---------2-----------2-----------2-----------2---|
D|-------------------------------------------------|-------------------------------------------------|
A|-------------------------------------------------|-------------------------------------------------|
E|-------------------------------------------------|-------------------------------------------------|


E|-0-----------0-----------------|--------|--------|--------|--------|--------|--------|
B|-----1-----------1-------------|--------|--------|--------|--------|--------|--------|
G|---------2-----------2---------|--------|--------|--------|--------|--------|--------|
D|-------------------------------|--------|--------|--------|--------|--------|--------|
A|-------------------------------|--------|--------|--------|--------|--------|--------|
E|-------------------------------|--------|--------|--------|--------|--------|--------|


E|--------|--------|--------|--------|--------|--------|--------|--------|--------|
B|--------|--------|--------|--------|--------|--------|--------|--------|--------|
G|--------|--------|--------|--------|--------|--------|--------|--------|--------|
D|--------|--------|--------|--------|--------|--------|--------|--------|--------|
A|--------|--------|--------|--------|--------|--------|--------|--------|--------|
E|--------|--------|--------|--------|--------|--------|--------|--------|--------|


E|--------|--------|--------|--------|--------|--------|--------|--------|--------|
B|--------|--------|--------|--------|--------|--------|--------|--------|--------|
G|--------|--------|--------|--------|--------|--------|--------|--------|--------|
D|--------|--------|--------|--------|--------|--------|--------|--------|--------|
A|--------|--------|--------|--------|--------|--------|--------|--------|--------|
E|--------|--------|--------|--------|--------|--------|--------|--------|--------|


E|--------|--------|--------|--------|--------|--------|--------|--------|--------|
B|--------|--------|--------|--------|--------|--------|--------|--------|--------|
G|--------|--------|--------|--------|--------|--------|--------|--------|--------|
D|--------|--------|--------|--------|--------|--------|--------|--------|--------|
A|--------|--------|--------|--------|--------|--------|--------|--------|--------|
E|--------|--------|--------|--------|--------|--------|--------|--------|--------|


E|--------|--------|
B|--------|--------|
G|--------|--------|
D|--------|--------|
A|--------|--------|
E|--------|--------|





Track 9: Guitar w/ step phaser (verse) / Distortion (chorus)

E|--------|--------|--------|--------|--------|--------|--------|--------|--------|
B|--------|--------|--------|--------|--------|--------|--------|--------|--------|
G|--------|--------|--------|--------|--------|--------|--------|--------|--------|
D|--------|--------|--------|--------|--------|--------|--------|--------|--------|
A|--------|--------|--------|--------|--------|--------|--------|--------|--------|
E|--------|--------|--------|--------|--------|--------|--------|--------|--------|


E|--------|--------|--------|--------|--------|--------|--------|--------|--------|
B|--------|--------|--------|--------|--------|--------|--------|--------|--------|
G|--------|--------|--------|--------|--------|--------|--------|--------|--------|
D|--------|--------|--------|--------|--------|--------|--------|--------|--------|
A|--------|--------|--------|--------|--------|--------|--------|--------|--------|
E|--------|--------|--------|--------|--------|--------|--------|--------|--------|


E|--------|--------|--------|--------|--------|--------|--------|--------|--------|
B|--------|--------|--------|--------|--------|--------|--------|--------|--------|
G|--------|--------|--------|--------|--------|--------|--------|--------|--------|
D|--------|--------|--------|--------|--------|--------|--------|--------|--------|
A|--------|--------|--------|--------|--------|--------|--------|--------|--------|
E|--------|--------|--------|--------|--------|--------|--------|--------|--------|


E|--------|--------|--------|--------|--------|--------|--------|--------|--------|
B|--------|--------|--------|--------|--------|--------|--------|--------|--------|
G|--------|--------|--------|--------|--------|--------|--------|--------|--------|
D|--------|--------|--------|--------|--------|--------|--------|--------|--------|
A|--------|--------|--------|--------|--------|--------|--------|--------|--------|
E|--------|--------|--------|--------|--------|--------|--------|--------|--------|


E|--------|--------|--------|--------|--------|--------|--------|--------|--------|
B|--------|--------|--------|--------|--------|--------|--------|--------|--------|
G|--------|--------|--------|--------|--------|--------|--------|--------|--------|
D|--------|--------|--------|--------|--------|--------|--------|--------|--------|
A|--------|--------|--------|--------|--------|--------|--------|--------|--------|
E|--------|--------|--------|--------|--------|--------|--------|--------|--------|


E|--------|--------|--------|--------|--------|--------|--------|--------|--------|
B|--------|--------|--------|--------|--------|--------|--------|--------|--------|
G|--------|--------|--------|--------|--------|--------|--------|--------|--------|
D|--------|--------|--------|--------|--------|--------|--------|--------|--------|
A|--------|--------|--------|--------|--------|--------|--------|--------|--------|
E|--------|--------|--------|--------|--------|--------|--------|--------|--------|


E|--------|--------|--------|--------|--------|--------|--------|--------|--------|
B|--------|--------|--------|--------|--------|--------|--------|--------|--------|
G|--------|--------|--------|--------|--------|--------|--------|--------|--------|
D|--------|--------|--------|--------|--------|--------|--------|--------|--------|
A|--------|--------|--------|--------|--------|--------|--------|--------|--------|
E|--------|--------|--------|--------|--------|--------|--------|--------|--------|


E|--------|--------|--------|--------|--------|--------|--------|--------|-------------|
B|--------|--------|--------|--------|--------|--------|--------|--------|-------------|
G|--------|--------|--------|--------|--------|--------|--------|--------|-------------|
D|--------|--------|--------|--------|--------|--------|--------|--------|-------------|
A|--------|--------|--------|--------|--------|--------|--------|--------|-------------|
E|--------|--------|--------|--------|--------|--------|--------|--------|-------------|


E|--------|--------|--------|--------|--------|--------|--------|--------|--------|
B|--------|--------|--------|--------|--------|--------|--------|--------|--------|
G|--------|--------|--------|--------|--------|--------|--------|--------|--------|
D|--------|--------|--------|--------|--------|--------|--------|--------|--------|
A|--------|--------|--------|--------|--------|--------|--------|--------|--------|
E|--------|--------|--------|--------|--------|--------|--------|--------|--------|


E|--------|--------|--------|--------|--------|--------|--------|
B|--------|--------|--------|--------|--------|--------|--------|
G|--------|--------|--------|--------|--------|--------|--------|
D|--------|--------|--------|--------|--------|--------|--------|
A|--------|--------|--------|--------|--------|--------|--------|
E|--------|--------|--------|--------|--------|--------|--------|





Track 10: Guitar w/ step phaser (verse) / Distortion (chorus)

E|--------|--------|--------|--------|--------|--------|--------|--------|--------|
B|--------|--------|--------|--------|--------|--------|--------|--------|--------|
G|--------|--------|--------|--------|--------|--------|--------|--------|--------|
D|--------|--------|--------|--------|--------|--------|--------|--------|--------|
A|--------|--------|--------|--------|--------|--------|--------|--------|--------|
E|--------|--------|--------|--------|--------|--------|--------|--------|--------|


E|--------|--------|--------|--------|--------|--------|--------|--------|--------|
B|--------|--------|--------|--------|--------|--------|--------|--------|--------|
G|--------|--------|--------|--------|--------|--------|--------|--------|--------|
D|--------|--------|--------|--------|--------|--------|--------|--------|--------|
A|--------|--------|--------|--------|--------|--------|--------|--------|--------|
E|--------|--------|--------|--------|--------|--------|--------|--------|--------|


E|--------|--------|--------|--------|--------|--------|--------|--------|--------|
B|--------|--------|--------|--------|--------|--------|--------|--------|--------|
G|--------|--------|--------|--------|--------|--------|--------|--------|--------|
D|--------|--------|--------|--------|--------|--------|--------|--------|--------|
A|--------|--------|--------|--------|--------|--------|--------|--------|--------|
E|--------|--------|--------|--------|--------|--------|--------|--------|--------|


E|--------|--------|--------|--------|--------|--------|--------|--------|--------|
B|--------|--------|--------|--------|--------|--------|--------|--------|--------|
G|--------|--------|--------|--------|--------|--------|--------|--------|--------|
D|--------|--------|--------|--------|--------|--------|--------|--------|--------|
A|--------|--------|--------|--------|--------|--------|--------|--------|--------|
E|--------|--------|--------|--------|--------|--------|--------|--------|--------|


E|--------|--------|--------|--------|--------|--------|--------|--------|--------|
B|--------|--------|--------|--------|--------|--------|--------|--------|--------|
G|--------|--------|--------|--------|--------|--------|--------|--------|--------|
D|--------|--------|--------|--------|--------|--------|--------|--------|--------|
A|--------|--------|--------|--------|--------|--------|--------|--------|--------|
E|--------|--------|--------|--------|--------|--------|--------|--------|--------|


E|--------|--------|--------|--------|--------|--------|--------|--------|--------|
B|--------|--------|--------|--------|--------|--------|--------|--------|--------|
G|--------|--------|--------|--------|--------|--------|--------|--------|--------|
D|--------|--------|--------|--------|--------|--------|--------|--------|--------|
A|--------|--------|--------|--------|--------|--------|--------|--------|--------|
E|--------|--------|--------|--------|--------|--------|--------|--------|--------|


E|--------|--------|--------|--------|--------|--------|--------|--------|--------|
B|--------|--------|--------|--------|--------|--------|--------|--------|--------|
G|--------|--------|--------|--------|--------|--------|--------|--------|--------|
D|--------|--------|--------|--------|--------|--------|--------|--------|--------|
A|--------|--------|--------|--------|--------|--------|--------|--------|--------|
E|--------|--------|--------|--------|--------|--------|--------|--------|--------|


E|--------|--------|--------|--------|--------|--------|--------|--------|--------|
B|--------|--------|--------|--------|--------|--------|--------|--------|--------|
G|--------|--------|--------|--------|--------|--------|--------|--------|--------|
D|--------|--------|--------|--------|--------|--------|--------|--------|--------|
A|--------|--------|--------|--------|--------|--------|--------|--------|--------|
E|--------|--------|--------|--------|--------|--------|--------|--------|--------|


E|--------|--------|--------|--------|--------|--------|--------|--------|--------|
B|--------|--------|--------|--------|--------|--------|--------|--------|--------|
G|--------|--------|--------|--------|--------|--------|--------|--------|--------|
D|--------|--------|--------|--------|--------|--------|--------|--------|--------|
A|--------|--------|--------|--------|--------|--------|--------|--------|--------|
E|--------|--------|--------|--------|--------|--------|--------|--------|--------|


E|--------|--------|--------|-12-----|-12-----|-12-----|-12-----|
B|--------|--------|--------|-12-----|-12-----|-12-----|-12-----|
G|--------|--------|--------|--------|--------|--------|--------|
D|--------|--------|--------|--------|--------|--------|--------|
A|--------|--------|--------|--------|--------|--------|--------|
E|--------|--------|--------|--------|--------|--------|--------|





Track 11: Untitled

G|--------|--------|--------|--------|--------|--------|--------|--------|--------|
D|--------|--------|--------|--------|--------|--------|--------|--------|--------|
A|--------|--------|--------|--------|--------|--------|--------|--------|--------|
E|--------|--------|--------|--------|--------|--------|--------|--------|--------|


G|--------|--------|--------|--------|--------|--------|--------|--------|--------|
D|--------|--------|--------|--------|--------|--------|--------|--------|--------|
A|--------|--------|--------|--------|--------|--------|--------|--------|--------|
E|--------|--------|--------|--------|--------|--------|--------|--------|--------|


G|--------|--------|--------|--------|--------|--------|--------|--------|--------|
D|--------|--------|--------|--------|--------|--------|--------|--------|--------|
A|--------|--------|--------|--------|--------|--------|--------|--------|--------|
E|--------|--------|--------|--------|--------|--------|--------|--------|--------|


G|--------|--------|--------|--------|--------|--------|--------|--------|--------|
D|--------|--------|--------|--------|--------|--------|--------|--------|--------|
A|--------|--------|--------|--------|--------|--------|--------|--------|--------|
E|--------|--------|--------|--------|--------|--------|--------|--------|--------|


G|--------|--------|--------|--------|--------|--------|--------|--------|--------|
D|--------|--------|--------|--------|--------|--------|--------|--------|--------|
A|--------|--------|--------|--------|--------|--------|--------|--------|--------|
E|--------|--------|--------|--------|--------|--------|--------|--------|--------|


G|--------|--------|--------|--------|--------|--------|--------|--------|--------|
D|--------|--------|--------|--------|--------|--------|--------|--------|--------|
A|--------|--------|--------|--------|--------|--------|--------|--------|--------|
E|--------|--------|--------|--------|--------|--------|--------|--------|--------|


G|--------|--------|--------|--------|--------|--------|--------|--------|--------|
D|--------|--------|--------|--------|--------|--------|--------|--------|--------|
A|--------|--------|--------|--------|--------|--------|--------|--------|--------|
E|--------|--------|--------|--------|--------|--------|--------|--------|--------|


G|--------|--------|--------|--------|--------|--------|--------|--------|--------|
D|--------|--------|--------|--------|--------|--------|--------|--------|--------|
A|--------|--------|--------|--------|--------|--------|--------|--------|--------|
E|--------|--------|--------|--------|--------|--------|--------|--------|--------|


G|--------|--------|--------|--------|--------|--------|--------|--------|--------|
D|--------|--------|--------|--------|--------|--------|--------|--------|--------|
A|--------|--------|--------|--------|--------|--------|--------|--------|--------|
E|--------|--------|--------|--------|--------|--------|--------|--------|--------|


G|--------|--------|--------|--------|--------|--------|--------|
D|--------|--------|--------|--------|--------|--------|--------|
A|--------|--------|--------|--------|--------|--------|--------|
E|--------|--------|--------|--------|--------|--------|--------|