Menu:

 

Search:

 

slipknot - prelude 30:

 



Title: Prelude 3.0
Artist: 
Album: Volume 3: The Subliminal Verses
Author: Slipknot


Track 1: Distortion/Weird effects

C#|--------|--------|--------|-------------|--------|--------|--------|-------------|
G#|--------|--------|--------|-------------|--------|--------|--------|-------------|
 E|--------|--------|--------|-------------|--------|--------|--------|-------------|
 B|-10-----|-13-----|-15-----|-15----12----|-10-----|-13-----|-15-----|-15----12----|
F#|-10-----|-13-----|-15-----|-15----12----|-10-----|-13-----|-15-----|-15----12----|
 B|-10-----|-13-----|-15-----|-15----12----|-10-----|-13-----|-15-----|-15----12----|


C#|--------|--------|--------|-------------|--------|--------|--------|-------------|
G#|--------|--------|--------|-------------|--------|--------|--------|-------------|
 E|--------|--------|--------|-------------|--------|--------|--------|-------------|
 B|-10-----|-13-----|-15-----|-15----12----|-10-----|-13-----|-15-----|-15----12----|
F#|-10-----|-13-----|-15-----|-15----12----|-10-----|-13-----|-15-----|-15----12----|
 B|-10-----|-13-----|-15-----|-15----12----|-10-----|-13-----|-15-----|-15----12----|


C#|--------|--------|--------|-------------|--------|--------|--------|-------------|
G#|--------|--------|--------|-------------|--------|--------|--------|-------------|
 E|--------|--------|--------|-------------|--------|--------|--------|-------------|
 B|-10-----|-13-----|-15-----|-15----12----|-10-----|-13-----|-15-----|-15----12----|
F#|-10-----|-13-----|-15-----|-15----12----|-10-----|-13-----|-15-----|-15----12----|
 B|-10-----|-13-----|-15-----|-15----12----|-10-----|-13-----|-15-----|-15----12----|


C#|--------|--------|--------|-------------|--------|--------|--------|-------------|
G#|--------|--------|--------|-------------|--------|--------|--------|-------------|
 E|--------|--------|--------|-------------|--------|--------|--------|-------------|
 B|-10-----|-13-----|-15-----|-15----12----|-10-----|-13-----|-15-----|-15----12----|
F#|-10-----|-13-----|-15-----|-15----12----|-10-----|-13-----|-15-----|-15----12----|
 B|-10-----|-13-----|-15-----|-15----12----|-10-----|-13-----|-15-----|-15----12----|


C#|-------------|-----------------------------|-------------|-------------|-----------------------------|
G#|-------------|-----------------------------|-------------|-------------|-----------------------------|
 E|-------------|-----------------------------|-------------|-------------|-----------------------------|
 B|-8----10-----|-10--------------------------|--------8----|-10-----10---|-----------------------------|
F#|-6----8------|-8----8----10--8----10--10---|-10-----6----|-8------8----|-8----10--8----10--10---10---|
 B|-------------|------8----10--8----10--10---|-10----------|-------------|-8----10--8----10--10---10---|


C#|-----------------|---------------------|---------------------|-----------------|
G#|-----------------|---------------------|---------------------|-----------------|
 E|-----------------|---------------------|---------------------|-----------------|
 B|-------8----10---|-------10------------|---------------------|------8----10----|
F#|-------6----8----|-------8----8----10--|-8----10--10---10----|------6----8-----|
 B|-----------------|------------8----10--|-8----10--10---10----|-----------------|


C#|-----------------------------|-------------|-------------|-------------|-------------|
G#|-----------------------------|-------------|-------------|-------------|-------------|
 E|-----------------------------|-------------|-------------|-------------|-------------|
 B|------10---------------------|-------------|-------------|-------------|-------------|
F#|------8----8----10--8----10--|-10---10-----|-10-----10---|-------10----|------10-----|
 B|-----------8----10--8----10--|-10---10-----|-10-----10---|-------10----|------10-----|


C#|--------|--------|--------|-------------|--------|--------|--------|-------------|
G#|--------|--------|--------|-------------|--------|--------|--------|-------------|
 E|--------|--------|--------|-------------|--------|--------|--------|-------------|
 B|-10-----|-13-----|-15-----|-15----12----|-10-----|-13-----|-15-----|-15----12----|
F#|-10-----|-13-----|-15-----|-15----12----|-10-----|-13-----|-15-----|-15----12----|
 B|-10-----|-13-----|-15-----|-15----12----|-10-----|-13-----|-15-----|-15----12----|


C#|--------|--------|--------|-------------|--------|--------|--------|-------------|
G#|--------|--------|--------|-------------|--------|--------|--------|-------------|
 E|--------|--------|--------|-------------|--------|--------|--------|-------------|
 B|-10-----|-13-----|-15-----|-15----12----|-10-----|-13-----|-15-----|-15----12----|
F#|-10-----|-13-----|-15-----|-15----12----|-10-----|-13-----|-15-----|-15----12----|
 B|-10-----|-13-----|-15-----|-15----12----|-10-----|-13-----|-15-----|-15----12----|


C#|-------------|-----------------------------|-------------|-------------|-----------------------------|
G#|-------------|-----------------------------|-------------|-------------|-----------------------------|
 E|-------------|-----------------------------|-------------|-------------|-----------------------------|
 B|-8----10-----|-10--------------------------|--------8----|-10-----10---|-----------------------------|
F#|-6----8------|-8----8----10--8----10--10---|-10-----6----|-8------8----|-8----10--8----10--10---10---|
 B|-------------|------8----10--8----10--10---|-10----------|-------------|-8----10--8----10--10---10---|


C#|-----------------|---------------------|---------------------|-----------------|
G#|-----------------|---------------------|---------------------|-----------------|
 E|-----------------|---------------------|---------------------|-----------------|
 B|-------8----10---|-------10------------|---------------------|------8----10----|
F#|-------6----8----|-------8----8----10--|-8----10--10---10----|------6----8-----|
 B|-----------------|------------8----10--|-8----10--10---10----|-----------------|


C#|-----------------------------|-------------|-------------|-----------------------------|
G#|-----------------------------|-------------|-------------|-----------------------------|
 E|-----------------------------|-------------|-------------|-----------------------------|
 B|------10---------------------|-------------|-8----10-----|-10--------------------------|
F#|------8----8----10--8----10--|-10---10-----|-6----8------|-8----8----10--8----10--10---|
 B|-----------8----10--8----10--|-10---10-----|-------------|------8----10--8----10--10---|


C#|-------------|-------------|-----------------------------|-----------------|---------------------|
G#|-------------|-------------|-----------------------------|-----------------|---------------------|
 E|-------------|-------------|-----------------------------|-----------------|---------------------|
 B|--------8----|-10-----10---|-----------------------------|-------8----10---|-------10------------|
F#|-10-----6----|-8------8----|-8----10--8----10--10---10---|-------6----8----|-------8----8----10--|
 B|-10----------|-------------|-8----10--8----10--10---10---|-----------------|------------8----10--|


C#|---------------------|-----------------|-----------------------------|-------------|
G#|---------------------|-----------------|-----------------------------|-------------|
 E|---------------------|-----------------|-----------------------------|-------------|
 B|---------------------|------8----10----|------10---------------------|-------------|
F#|-8----10--10---10----|------6----8-----|------8----8----10--8----10--|-10---10-----|
 B|-8----10--10---10----|-----------------|-----------8----10--8----10--|-10---10-----|


C#|-------------|-------------|-------------|-------------|-------------|--------|
G#|-------------|-------------|-------------|-------------|-------------|--------|
 E|-------------|-------------|-------------|-------------|-------------|--------|
 B|-------------|-------------|-------------|-------------|-------------|--------|
F#|-10-----10---|-------10----|------10-----|-10-----10---|-------10----|--------|
 B|-10-----10---|-------10----|------10-----|-10-----10---|-------10----|--------|





Track 2: Clean

C#|--------|--------|--------|--------|--------|--------|--------|--------|-------------7-----------7-----------7-----------|
G#|--------|--------|--------|--------|--------|--------|--------|--------|---------9-------9-----------9-----------9-------|
 E|--------|--------|--------|--------|--------|--------|--------|--------|-7---10--------------10----------10----------10--|
 B|--------|--------|--------|--------|--------|--------|--------|--------|-------------------------------------------------|
F#|--------|--------|--------|--------|--------|--------|--------|--------|-------------------------------------------------|
 B|--------|--------|--------|--------|--------|--------|--------|--------|-------------------------------------------------|


C#|-7-----------7-----------7-----------7-----------|-------------------------------------------------|
G#|-----9-----------9-----------9-----------9-------|-------------8-----------8-----------8-----------|
 E|---------10----------10----------10----------10--|---------8-------8-----------8-----------8-------|
 B|-------------------------------------------------|-8---10--------------10----------10----------10--|
F#|-------------------------------------------------|-------------------------------------------------|
 B|-------------------------------------------------|-------------------------------------------------|


C#|-------------------------------------------------|-------------7-----------7-----------7-----------|
G#|-8-----------8-----------8-----------8-----------|---------9-------9-----------9-----------9-------|
 E|-----8-----------8-----------8-----------8-------|-7---10--------------10----------10----------10--|
 B|---------10----------10----------10----------10--|-------------------------------------------------|
F#|-------------------------------------------------|-------------------------------------------------|
 B|-------------------------------------------------|-------------------------------------------------|


C#|-7-----------7-----------7-----------7-----------|-------------------------------------------------|
G#|-----9-----------9-----------9-----------9-------|-------------8-----------8-----------8-----------|
 E|---------10----------10----------10----------10--|---------8-------8-----------8-----------8-------|
 B|-------------------------------------------------|-8---10--------------10----------10----------10--|
F#|-------------------------------------------------|-------------------------------------------------|
 B|-------------------------------------------------|-------------------------------------------------|


C#|-------------------------------------------------|-------------7-----------7-----------7-----------|
G#|-8-----------8-----------8-----------8-----------|---------9-------9-----------9-----------9-------|
 E|-----8-----------8-----------8-----------8-------|-7---10--------------10----------10----------10--|
 B|---------10----------10----------10----------10--|-------------------------------------------------|
F#|-------------------------------------------------|-------------------------------------------------|
 B|-------------------------------------------------|-------------------------------------------------|


C#|-7-----------7-----------7-----------7-----------|-------------------------------------------------|
G#|-----9-----------9-----------9-----------9-------|-------------8-----------8-----------8-----------|
 E|---------10----------10----------10----------10--|---------8-------8-----------8-----------8-------|
 B|-------------------------------------------------|-8---10--------------10----------10----------10--|
F#|-------------------------------------------------|-------------------------------------------------|
 B|-------------------------------------------------|-------------------------------------------------|


C#|-------------------------------------------------|-------------7-----------7-----------7-----------|
G#|-8-----------8-----------8-----------8-----------|---------9-------9-----------9-----------9-------|
 E|-----8-----------8-----------8-----------8-------|-7---10--------------10----------10----------10--|
 B|---------10----------10----------10----------10--|-------------------------------------------------|
F#|-------------------------------------------------|-------------------------------------------------|
 B|-------------------------------------------------|-------------------------------------------------|


C#|-7-----------7-----------7-----------7-----------|-------------------------------------------------|
G#|-----9-----------9-----------9-----------9-------|-------------8-----------8-----------8-----------|
 E|---------10----------10----------10----------10--|---------8-------8-----------8-----------8-------|
 B|-------------------------------------------------|-8---10--------------10----------10----------10--|
F#|-------------------------------------------------|-------------------------------------------------|
 B|-------------------------------------------------|-------------------------------------------------|


C#|-------------------------------------------------|-------------7-----------7-----------7-----------|
G#|-8-----------8-----------8-----------8-----------|---------9-------9-----------9-----------9-------|
 E|-----8-----------8-----------8-----------8-------|-7---10--------------10----------10----------10--|
 B|---------10----------10----------10----------10--|-------------------------------------------------|
F#|-------------------------------------------------|-------------------------------------------------|
 B|-------------------------------------------------|-------------------------------------------------|


C#|-7-----------7-----------7-----------7-----------|-------------------------------------------------|
G#|-----9-----------9-----------9-----------9-------|-------------8-----------8-----------8-----------|
 E|---------10----------10----------10----------10--|---------8-------8-----------8-----------8-------|
 B|-------------------------------------------------|-8---10--------------10----------10----------10--|
F#|-------------------------------------------------|-------------------------------------------------|
 B|-------------------------------------------------|-------------------------------------------------|


C#|-------------------------------------------------|-------------7-----------7-----------7-----------|
G#|-8-----------8-----------8-----------8-----------|---------9-------9-----------9-----------9-------|
 E|-----8-----------8-----------8-----------8-------|-7---10--------------10----------10----------10--|
 B|---------10----------10----------10----------10--|-------------------------------------------------|
F#|-------------------------------------------------|-------------------------------------------------|
 B|-------------------------------------------------|-------------------------------------------------|


C#|-7-----------7-----------7-----------7-----------|-------------------------------------------------|
G#|-----9-----------9-----------9-----------9-------|-------------8-----------8-----------8-----------|
 E|---------10----------10----------10----------10--|---------8-------8-----------8-----------8-------|
 B|-------------------------------------------------|-8---10--------------10----------10----------10--|
F#|-------------------------------------------------|-------------------------------------------------|
 B|-------------------------------------------------|-------------------------------------------------|


C#|-------------------------------------------------|--------|--------|--------|--------|
G#|-8-----------8-----------8-----------8-----------|--------|--------|--------|--------|
 E|-----8-----------8-----------8-----------8-------|--------|--------|--------|--------|
 B|---------10----------10----------10----------10--|--------|--------|--------|--------|
F#|-------------------------------------------------|--------|--------|--------|--------|
 B|-------------------------------------------------|--------|--------|--------|--------|


C#|--------|--------|--------|--------|--------|--------|--------|--------|--------|
G#|--------|--------|--------|--------|--------|--------|--------|--------|--------|
 E|--------|--------|--------|--------|--------|--------|--------|--------|--------|
 B|--------|--------|--------|--------|--------|--------|--------|--------|--------|
F#|--------|--------|--------|--------|--------|--------|--------|--------|--------|
 B|--------|--------|--------|--------|--------|--------|--------|--------|--------|


C#|--------|--------|--------|--------|--------|--------|--------|--------|--------|
G#|--------|--------|--------|--------|--------|--------|--------|--------|--------|
 E|--------|--------|--------|--------|--------|--------|--------|--------|--------|
 B|--------|--------|--------|--------|--------|--------|--------|--------|--------|
F#|--------|--------|--------|--------|--------|--------|--------|--------|--------|
 B|--------|--------|--------|--------|--------|--------|--------|--------|--------|


C#|--------|--------|--------|--------|--------|--------|--------|--------|--------|
G#|--------|--------|--------|--------|--------|--------|--------|--------|--------|
 E|--------|--------|--------|--------|--------|--------|--------|--------|--------|
 B|--------|--------|--------|--------|--------|--------|--------|--------|--------|
F#|--------|--------|--------|--------|--------|--------|--------|--------|--------|
 B|--------|--------|--------|--------|--------|--------|--------|--------|--------|


C#|--------|--------|--------|--------|--------|--------|--------|--------|--------|
G#|--------|--------|--------|--------|--------|--------|--------|--------|--------|
 E|--------|--------|--------|--------|--------|--------|--------|--------|--------|
 B|--------|--------|--------|--------|--------|--------|--------|--------|--------|
F#|--------|--------|--------|--------|--------|--------|--------|--------|--------|
 B|--------|--------|--------|--------|--------|--------|--------|--------|--------|


C#|--------|--------|--------|--------|--------|--------|--------|--------|--------|
G#|--------|--------|--------|--------|--------|--------|--------|--------|--------|
 E|--------|--------|--------|--------|--------|--------|--------|--------|--------|
 B|--------|--------|--------|--------|--------|--------|--------|--------|--------|
F#|--------|--------|--------|--------|--------|--------|--------|--------|--------|
 B|--------|--------|--------|--------|--------|--------|--------|--------|--------|


C#|--------|--------|--------|--------|--------|--------|--------|--------|--------|
G#|--------|--------|--------|--------|--------|--------|--------|--------|--------|
 E|--------|--------|--------|--------|--------|--------|--------|--------|--------|
 B|--------|--------|--------|--------|--------|--------|--------|--------|--------|
F#|--------|--------|--------|--------|--------|--------|--------|--------|--------|
 B|--------|--------|--------|--------|--------|--------|--------|--------|--------|





Track 3: Distortion

C#|--------|--------|--------|--------|--------|--------|--------|--------|--------|
G#|--------|--------|--------|--------|--------|--------|--------|--------|--------|
 E|--------|--------|--------|--------|--------|--------|--------|--------|--------|
 B|--------|--------|--------|--------|--------|--------|--------|--------|--------|
F#|--------|--------|--------|--------|--------|--------|--------|--------|--------|
 B|--------|--------|--------|--------|--------|--------|--------|--------|--------|


C#|--------|--------|--------|--------|--------|--------|--------|--------|--------|
G#|--------|--------|--------|--------|--------|--------|--------|--------|--------|
 E|--------|--------|--------|--------|--------|--------|--------|--------|--------|
 B|--------|--------|--------|--------|--------|--------|--------|--------|--------|
F#|--------|--------|--------|--------|--------|--------|--------|--------|--------|
 B|--------|--------|--------|--------|--------|--------|--------|--------|--------|


C#|--------|--------|--------|--------|--------|--------|--------|--------|--------|
G#|--------|--------|--------|--------|--------|--------|--------|--------|--------|
 E|--------|--------|--------|--------|--------|--------|--------|--------|--------|
 B|--------|--------|--------|--------|--------|--------|--------|--------|--------|
F#|--------|--------|--------|--------|--------|--------|--------|--------|--------|
 B|--------|--------|--------|--------|--------|--------|--------|--------|--------|


C#|--------|--------|--------|--------|--------|-------------|---------------------|
G#|--------|--------|--------|--------|--------|-16---18-----|-18---16---15--------|
 E|--------|--------|--------|--------|--------|-------------|----------------17---|
 B|--------|--------|--------|--------|--------|-------------|---------------------|
F#|--------|--------|--------|--------|--------|-------------|---------------------|
 B|--------|--------|--------|--------|--------|-------------|---------------------|


C#|---------------------|-------------|---------------------|---------------------|
G#|-16---15--------16---|-18-----18---|-16---15--------16---|-15--------16---18---|
 E|-----------17--------|-------------|-----------17--------|------17-------------|
 B|---------------------|-------------|---------------------|---------------------|
F#|---------------------|-------------|---------------------|---------------------|
 B|---------------------|-------------|---------------------|---------------------|


C#|-----------------|---------------------|-----------------|---------------------|
G#|-------18---16---|-15--------16---15---|------16---18----|------18---16---15---|
 E|-----------------|------17-------------|-17--------------|---------------------|
 B|-----------------|---------------------|-----------------|---------------------|
F#|-----------------|---------------------|-----------------|---------------------|
 B|-----------------|---------------------|-----------------|---------------------|


C#|---------------------|---------------------|---------------------|---------------------|
G#|------16---15--------|-16---15--------16---|-15--------16---15---|------16---15--------|
 E|-17-------------17---|-----------17--------|------17-------------|-17-------------17---|
 B|---------------------|---------------------|---------------------|---------------------|
F#|---------------------|---------------------|---------------------|---------------------|
 B|---------------------|---------------------|---------------------|---------------------|


C#|-------------7-----------7-----------7-----------|-7-----------7-----------7-----------7-----------|
G#|---------9-------9-----------9-----------9-------|-----9-----------9-----------9-----------9-------|
 E|-7---10--------------10----------10----------10--|---------10----------10----------10----------10--|
 B|-------------------------------------------------|-------------------------------------------------|
F#|-------------------------------------------------|-------------------------------------------------|
 B|-------------------------------------------------|-------------------------------------------------|


C#|-------------------------------------------------|-------------------------------------------------|
G#|-------------8-----------8-----------8-----------|-8-----------8-----------8-----------8-----------|
 E|---------8-------8-----------8-----------8-------|-----8-----------8-----------8-----------8-------|
 B|-8---10--------------10----------10----------10--|---------10----------10----------10----------10--|
F#|-------------------------------------------------|-------------------------------------------------|
 B|-------------------------------------------------|-------------------------------------------------|


C#|-------------7-----------7-----------7-----------|-7-----------7-----------7-----------7-----------|
G#|---------9-------9-----------9-----------9-------|-----9-----------9-----------9-----------9-------|
 E|-7---10--------------10----------10----------10--|---------10----------10----------10----------10--|
 B|-------------------------------------------------|-------------------------------------------------|
F#|-------------------------------------------------|-------------------------------------------------|
 B|-------------------------------------------------|-------------------------------------------------|


C#|-------------------------------------------------|-------------------------------------------------|
G#|-------------8-----------8-----------8-----------|-8-----------8-----------8-----------8-----------|
 E|---------8-------8-----------8-----------8-------|-----8-----------8-----------8-----------8-------|
 B|-8---10--------------10----------10----------10--|---------10----------10----------10----------10--|
F#|-------------------------------------------------|-------------------------------------------------|
 B|-------------------------------------------------|-------------------------------------------------|


C#|-------------7-----------7-----------7-----------|-7-----------7-----------7-----------7-----------|
G#|---------9-------9-----------9-----------9-------|-----9-----------9-----------9-----------9-------|
 E|-7---10--------------10----------10----------10--|---------10----------10----------10----------10--|
 B|-------------------------------------------------|-------------------------------------------------|
F#|-------------------------------------------------|-------------------------------------------------|
 B|-------------------------------------------------|-------------------------------------------------|


C#|-------------------------------------------------|-------------------------------------------------|
G#|-------------8-----------8-----------8-----------|-8-----------8-----------8-----------8-----------|
 E|---------8-------8-----------8-----------8-------|-----8-----------8-----------8-----------8-------|
 B|-8---10--------------10----------10----------10--|---------10----------10----------10----------10--|
F#|-------------------------------------------------|-------------------------------------------------|
 B|-------------------------------------------------|-------------------------------------------------|


C#|-------------7-----------7-----------7-----------|-7-----------7-----------7-----------7-----------|
G#|---------9-------9-----------9-----------9-------|-----9-----------9-----------9-----------9-------|
 E|-7---10--------------10----------10----------10--|---------10----------10----------10----------10--|
 B|-------------------------------------------------|-------------------------------------------------|
F#|-------------------------------------------------|-------------------------------------------------|
 B|-------------------------------------------------|-------------------------------------------------|


C#|-------------------------------------------------|-------------------------------------------------|
G#|-------------8-----------8-----------8-----------|-8-----------8-----------8-----------8-----------|
 E|---------8-------8-----------8-----------8-------|-----8-----------8-----------8-----------8-------|
 B|-8---10--------------10----------10----------10--|---------10----------10----------10----------10--|
F#|-------------------------------------------------|-------------------------------------------------|
 B|-------------------------------------------------|-------------------------------------------------|


C#|-------------|---------------------|---------------------|-------------|---------------------|
G#|-16---18-----|-18---16---15--------|-16---15--------16---|-18-----18---|-16---15--------16---|
 E|-------------|----------------17---|-----------17--------|-------------|-----------17--------|
 B|-------------|---------------------|---------------------|-------------|---------------------|
F#|-------------|---------------------|---------------------|-------------|---------------------|
 B|-------------|---------------------|---------------------|-------------|---------------------|


C#|---------------------|-----------------|---------------------|-----------------|
G#|-15--------16---18---|-------18---16---|-15--------16---15---|------16---18----|
 E|------17-------------|-----------------|------17-------------|-17--------------|
 B|---------------------|-----------------|---------------------|-----------------|
F#|---------------------|-----------------|---------------------|-----------------|
 B|---------------------|-----------------|---------------------|-----------------|


C#|---------------------|---------------------|-------------|---------------------|
G#|------18---16---15---|------16---15--------|-16---18-----|-18---16---15--------|
 E|---------------------|-17-------------17---|-------------|----------------17---|
 B|---------------------|---------------------|-------------|---------------------|
F#|---------------------|---------------------|-------------|---------------------|
 B|---------------------|---------------------|-------------|---------------------|


C#|---------------------|-------------|---------------------|---------------------|
G#|-16---15--------16---|-18-----18---|-16---15--------16---|-15--------16---18---|
 E|-----------17--------|-------------|-----------17--------|------17-------------|
 B|---------------------|-------------|---------------------|---------------------|
F#|---------------------|-------------|---------------------|---------------------|
 B|---------------------|-------------|---------------------|---------------------|


C#|-----------------|---------------------|-----------------|---------------------|
G#|-------18---16---|-15--------16---15---|------16---18----|------18---16---15---|
 E|-----------------|------17-------------|-17--------------|---------------------|
 B|-----------------|---------------------|-----------------|---------------------|
F#|-----------------|---------------------|-----------------|---------------------|
 B|-----------------|---------------------|-----------------|---------------------|


C#|---------------------|---------------------|-----------15----|------15-----|-15-----15---|
G#|------16---15--------|-16---15--------16---|-15--------------|-------------|-------------|
 E|-17-------------17---|-----------17--------|------17---------|-------------|-------------|
 B|---------------------|---------------------|-----------------|-------------|-------------|
F#|---------------------|---------------------|-----------------|-------------|-------------|
 B|---------------------|---------------------|-----------------|-------------|-------------|


C#|-------15--------|----------------|
G#|-----------------|----------------|
 E|-----------------|----------------|
 B|-----------------|----------------|
F#|------------20---|-----10-----0---|
 B|------------20---|-----10-----0---|





Track 4: Untitled

G|--------|--------|--------|--------|--------|--------|--------|--------|--------|
D|--------|--------|--------|--------|--------|--------|--------|--------|--------|
A|--------|--------|--------|--------|--------|--------|--------|--------|--------|
E|--------|--------|--------|--------|--------|--------|--------|--------|--------|


G|--------|--------|--------|--------|--------|--------|--------|--------|--------|
D|--------|--------|--------|--------|--------|--------|--------|--------|--------|
A|--------|--------|--------|--------|--------|--------|--------|--------|--------|
E|--------|--------|--------|--------|--------|--------|--------|--------|--------|


G|--------|--------|--------|--------|--------|--------|--------|--------|--------|
D|--------|--------|--------|--------|--------|--------|--------|--------|--------|
A|--------|--------|--------|--------|--------|--------|--------|--------|--------|
E|--------|--------|--------|--------|--------|--------|--------|--------|--------|


G|--------|--------|--------|--------|--------|--------|--------|--------|--------|
D|--------|--------|--------|--------|--------|--------|--------|--------|--------|
A|--------|--------|--------|--------|--------|--------|--------|--------|--------|
E|--------|--------|--------|--------|--------|--------|--------|--------|--------|


G|--------|--------|--------|--------|--------|--------|--------|--------|--------|
D|--------|--------|--------|--------|--------|--------|--------|--------|--------|
A|--------|--------|--------|--------|--------|--------|--------|--------|--------|
E|--------|--------|--------|--------|--------|--------|--------|--------|--------|


G|--------|--------|--------|--------|--------|--------|--------|--------|--------|
D|--------|--------|--------|--------|--------|--------|--------|--------|--------|
A|--------|--------|--------|--------|--------|--------|--------|--------|--------|
E|--------|--------|--------|--------|--------|--------|--------|--------|--------|


G|--------|--------|--------|--------|--------|--------|--------|--------|--------|
D|--------|--------|--------|--------|--------|--------|--------|--------|--------|
A|--------|--------|--------|--------|--------|--------|--------|--------|--------|
E|--------|--------|--------|--------|--------|--------|--------|--------|--------|


G|--------|--------|--------|--------|--------|--------|--------|--------|--------|
D|--------|--------|--------|--------|--------|--------|--------|--------|--------|
A|--------|--------|--------|--------|--------|--------|--------|--------|--------|
E|--------|--------|--------|--------|--------|--------|--------|--------|--------|


G|--------|--------|--------|--------|--------|--------|--------|--------|--------|
D|--------|--------|--------|--------|--------|--------|--------|--------|--------|
A|--------|--------|--------|--------|--------|--------|--------|--------|--------|
E|--------|--------|--------|--------|--------|--------|--------|--------|--------|


G|--------|--------|--------|--------|--------|--------|--------|--------|--------|
D|--------|--------|--------|--------|--------|--------|--------|--------|--------|
A|--------|--------|--------|--------|--------|--------|--------|--------|--------|
E|--------|--------|--------|--------|--------|--------|--------|--------|--------|