Menu:

 

Search:

 

slipknot - peopleshit:

 



Title: People = Shit
Artist: 
Album: Iowa
Author: Slipknot


Track 1: Gtr. I

C#|---------------------------------|---------------------------------|---------------------|
G#|---------------------------------|---------------------------------|---------------------|
 E|---------------------------------|---------------------------------|---------------------|
 B|---------------------------------|---------------------------------|---------------------|
F#|-6---5-----------3---2-----------|-6---5-----------3---2-----------|-0----0----0----0----|
 B|-6---5---0---0---3---2---0---0---|-6---5---0---0---3---2---0---0---|-0----0----0----0----|


C#|---------------------|---------------------|---------------------|---------------------|
G#|---------------------|---------------------|---------------------|---------------------|
 E|---------------------|---------------------|---------------------|---------------------|
 B|---------------------|---------------------|---------------------|---------------------|
F#|---------------------|-2----3---------2----|---------------------|-2----3---------2----|
 B|-0----1----0----1----|-----------3---------|-0----1----0----1----|-----------3---------|


C#|--------|--------|-------------|--------|---------------------|---------------------|
G#|-11-----|-11-----|-11----------|-14-----|---------------------|---------------------|
 E|--------|--------|-------9-----|-12-----|---------------------|---------------------|
 B|-8------|-8------|-8-----------|-11-----|---------------------|---------------------|
F#|--------|--------|-------------|--------|---------------------|-2----3---------2----|
 B|--------|--------|-------------|--------|-0----1----0----1----|-----------3---------|


C#|---------------------|---------------------|---------------------|---------------------|
G#|---------------------|---------------------|---------------------|---------------------|
 E|---------------------|---------------------|---------------------|---------------------|
 B|---------------------|---------------------|---------------------|---------------------|
F#|---------------------|-2----3---------2----|---------------------|-2----3---------2----|
 B|-0----1----0----1----|-----------3---------|-0----1----0----1----|-----------3---------|


C#|---------------------|---------------------|--------|--------|-----------------------------------|
G#|---------------------|---------------------|--------|--------|-----------------------------------|
 E|---------------------|---------------------|--------|--------|-----------------------------------|
 B|---------------------|---------------------|--------|--------|-----------------------------------|
F#|---------------------|-2----3---------2----|--------|--------|-----------------------------------|
 B|-0----1----0----1----|-----------3---------|-1------|-17-----|-0--1--1--0--1----0--1--1--0--5----|


C#|-----------------------------------|-----------------------------------|-----------------------------------|
G#|-----------------------------------|-----------------------------------|-----------------------------------|
 E|-----------------------------------|-----------------------------------|-----------------------------------|
 B|-----------------------------------|-----------------------------------|-----------------------------------|
F#|-----------------------------------|-----------------------------------|-----------------------------------|
 B|-0--1--1--0--1----0--1--1--0--5----|-0--1--1--0--1----0--1--1--0--5----|-0--1--1--0--1----0--1--1--0--5----|


C#|-----------------------------------|-----------------------------------|-----------------------------------|
G#|-----------------------------------|-----------------------------------|-----------------------------------|
 E|-----------------------------------|-----------------------------------|-----------------------------------|
 B|-----------------------------------|-----------------------------------|-----------------------------------|
F#|-----------------------------------|-----------------------------------|-----------------------------------|
 B|-0--1--1--0--1----0--1--1--0--5----|-0--1--1--0--1----0--1--1--0--5----|-0--1--1--0--1----0--1--1--0--5----|


C#|-----------------------------------|-----------------------------------|-----------------------------------|
G#|-----------------------------------|-----------------------------------|-----------------------------------|
 E|-----------------------------------|-----------------------------------|-----------------------------------|
 B|-----------------------------------|-----------------------------------|-----------------------------------|
F#|-----------------------------------|-----------------------------------|-----------------------------------|
 B|-0--1--1--0--1----0--1--1--0--5----|-0--1--1--0--1----0--1--1--0--5----|-0--1--1--0--1----0--1--1--0--5----|


C#|-----------------------------------|-----------------------------------|-----------------------------------|
G#|-----------------------------------|-----------------------------------|-----------------------------------|
 E|-----------------------------------|-----------------------------------|-----------------------------------|
 B|-----------------------------------|-----------------------------------|-----------------------------------|
F#|-0--1--1--0--1----0--1--1--0--5----|-0--1--1--0--1----0--1--1--0--5----|-0--1--1--0--1----0--1--1--0--5----|
 B|-0--1--1--0--1----0--1--1--0--5----|-0--1--1--0--1----0--1--1--0--5----|-0--1--1--0--1----0--1--1--0--5----|


C#|-----------------------------------|----------------------------------------|-------------------------------------------|
G#|-----------------------------------|----------------------------------------|-------------------------------------------|
 E|-----------------------------------|----------------------------------------|-------------------------------------------|
 B|-----------------------------------|----------------------------------------|-------------------------------------------|
F#|-0--1--1--0--1----0--1--1--0--5----|----------------------------------------|-------------------------------------------|
 B|-0--1--1--0--1----0--1--1--0--5----|-0--1--1--0--1----0--0--3--3--3---0--0--|-1--1----0--0--4--3--3---0--0--6--6--5--5--|


C#|----------------------------------------|-------------------------------------------|
G#|----------------------------------------|-------------------------------------------|
 E|----------------------------------------|-------------------------------------------|
 B|----------------------------------------|-------------------------------------------|
F#|----------------------------------------|-------------------------------------------|
 B|-0--1--1--0--1----0--0--3--3--3---0--0--|-1--1----0--0--4--3--3---0--0--6--6--5--5--|


C#|----------------------------------------|-------------------------------------------|
G#|----------------------------------------|-------------------------------------------|
 E|----------------------------------------|-------------------------------------------|
 B|----------------------------------------|-------------------------------------------|
F#|----------------------------------------|-------------------------------------------|
 B|-0--1--1--0--1----0--0--3--3--3---0--0--|-1--1----0--0--4--3--3---0--0--6--6--5--5--|


C#|----------------------------------------|-------------------------------------------|
G#|----------------------------------------|-------------------------------------------|
 E|----------------------------------------|-------------------------------------------|
 B|----------------------------------------|-------------------------------------------|
F#|----------------------------------------|-------------------------------------------|
 B|-0--1--1--0--1----0--0--3--3--3---0--0--|-1--1----0--0--4--3--3---0--0--6--6--5--5--|


C#|---------------------------------|---------------------------------|---------------------------------|
G#|---------------------------------|---------------------------------|---------------------------------|
 E|---------------------------------|---------------------------------|---------------------------------|
 B|---------------------------------|---------------------------------|---------------------------------|
F#|-----------------------------0---|-----------------------------0---|-----------------------------0---|
 B|-0---0---1-----------4---4-------|-1---1---1-----------4---4-------|-0---0---1-----------4---4-------|


C#|-----------------------|-----------------------------------|-----------------------------------|
G#|-----------------------|-----------------------------------|-----------------------------------|
 E|-----------------------|-----------------------------------|-----------------------------------|
 B|-----------------------|-----------------------------------|-----------------------------------|
F#|-----------------------|-0--1--1--0--1----0--1--1--0--5----|-0--1--1--0--1----0--1--1--0--5----|
 B|-1---1---1-------------|-0--1--1--0--1----0--1--1--0--5----|-0--1--1--0--1----0--1--1--0--5----|


C#|-----------------------------------|-----------------------------------|-------------------------------------------|
G#|-----------------------------------|-----------------------------------|-------------------------------------------|
 E|-----------------------------------|-----------------------------------|-------------------------------------------|
 B|-----------------------------------|-----------------------------------|-------------------------------------------|
F#|-0--1--1--0--1----0--1--1--0--5----|-0--1--1--0--1----0--1--1--0--5----|-0--1--1--0--1-------1--1--1--0------0--0--|
 B|-0--1--1--0--1----0--1--1--0--5----|-0--1--1--0--1----0--1--1--0--5----|-0--1--1--0--1-------1--1--1--0------0--0--|


C#|-----------------------------------------|-------------------------------------------|
G#|-----------------------------------------|-------------------------------------------|
 E|-----------------------------------------|-------------------------------------------|
 B|-----------------------------------------|-------------------------------------------|
F#|-0--1------0--0--0--0------0--0--0---5---|-0--1--1--0--1-------1--1--1--0------0--0--|
 B|-0--1------0--0--0--0------0--0--0---5---|-0--1--1--0--1-------1--1--1--0------0--0--|


C#|--------------------------|-----------------------------------|-----------------------------------|
G#|--------------------------|-----------------------------------|-----------------------------------|
 E|--------------------------|-----------------------------------|-----------------------------------|
 B|--------------------------|-----------------------------------|-----------------------------------|
F#|-0--1---------------------|-0--1--1--0--1----0--1--1--0--5----|-0--1--1--0--1----0--1--1--0--5----|
 B|-0--1----------------17---|-0--1--1--0--1----0--1--1--0--5----|-0--1--1--0--1----0--1--1--0--5----|


C#|-----------------------------------|-----------------------------------|---------------------------------|
G#|-----------------------------------|-----------------------------------|---------------------------------|
 E|-----------------------------------|-----------------------------------|---------------------------------|
 B|-----------------------------------|-----------------------------------|---------------------------------|
F#|-0--1--1--0--1----0--1--1--0--5----|-0--1--1--0--1----0--1--1--0--5----|-----------------------------0---|
 B|-0--1--1--0--1----0--1--1--0--5----|-0--1--1--0--1----0--1--1--0--5----|-0---0---1-----------4---4-------|


C#|---------------------------------|---------------------------------|-----------------------|
G#|---------------------------------|---------------------------------|-----------------------|
 E|---------------------------------|---------------------------------|-----------------------|
 B|---------------------------------|---------------------------------|-----------------------|
F#|-----------------------------0---|-----------------------------0---|-----------------------|
 B|-1---1---1-----------4---4-------|-0---0---1-----------4---4-------|-1---1---1-------------|


C#|---------------------------------|---------------------------------|---------------------------------|
G#|---------------------------------|---------------------------------|---------------------------------|
 E|---------------------------------|---------------------------------|---------------------------------|
 B|---------------------------------|---------------------------------|---------------------------------|
F#|-7---0---8---1---1---4---4---7---|-7---0---8---1---1---4---4---7---|-7---0---8---1---1---4---4---7---|
 B|-7---0---8---1---1---4---4---7---|-7---0---8---1---1---4---4---7---|-7---0---8---1---1---4---4---7---|


C#|---------------------------------|---------------------------------|---------------------------------|
G#|---------------------------------|---------------------------------|---------------------------------|
 E|---------------------------------|---------------------------------|---------------------------------|
 B|---------------------------------|---------------------------------|---------------------------------|
F#|-7---0---8---1---1---4---4---7---|-7---0---8---1---1---4---4---7---|-7---0---8---1---1---4---4---7---|
 B|-7---0---8---1---1---4---4---7---|-7---0---8---1---1---4---4---7---|-7---0---8---1---1---4---4---7---|


C#|---------------------------------|---------------------------------|--------|--------|
G#|---------------------------------|---------------------------------|--------|--------|
 E|---------------------------------|---------------------------------|--------|--------|
 B|---------------------------------|---------------------------------|--------|--------|
F#|-7---0---8---1---1---4---4---7---|-7---0---8---1---1---4---4---7---|--------|--------|
 B|-7---0---8---1---1---4---4---7---|-7---0---8---1---1---4---4---7---|--------|--------|


C#|--------|-----------------|-------------------------------------------|-------------------------------------------|
G#|--------|-----------------|-------------------------------------------|-------------------------------------------|
 E|--------|-----------------|-------------------------------------------|-------------------------------------------|
 B|--------|-----------------|-------------------------------------------|-------------------------------------------|
F#|--------|------------17---|-0--0-----0--0---0--0-----0--0---1--1--1---|-0--0-----0--0---0--0-----0--0---1--1--1---|
 B|--------|------------17---|-0--0-----0--0---0--0-----0--0---1--1--1---|-0--0-----0--0---0--0-----0--0---1--1--1---|


C#|-------------------------------------------|-------------------------------------------|
G#|-------------------------------------------|-------------------------------------------|
 E|-------------------------------------------|-------------------------------------------|
 B|-------------------------------------------|-------------------------------------------|
F#|-0--0-----0--0---0--0-----0--0---1--1--1---|-0--0-----0--0---0--0-----0--0---1--1--1---|
 B|-0--0-----0--0---0--0-----0--0---1--1--1---|-0--0-----0--0---0--0-----0--0---1--1--1---|


C#|---------------------------------|---------------------------------|---------------------------------|
G#|---------------------------------|---------------------------------|---------------------------------|
 E|---------------------------------|---------------------------------|---------------------------------|
 B|---------------------------------|---------------------------------|---------------------------------|
F#|-1--1----1--1----1--1----2--2----|-1--1----1--1----2--2----4--4----|-1--1----1--1----1--1----2--2----|
 B|-1--1----1--1----1--1----2--2----|-1--1----1--1----2--2----4--4----|-1--1----1--1----1--1----2--2----|


C#|---------------------------------|---------------------------------|---------------------------------|
G#|---------------------------------|---------------------------------|---------------------------------|
 E|---------------------------------|---------------------------------|---------------------------------|
 B|---------------------------------|---------------------------------|---------------------------------|
F#|-1--1----1--1----2--2----4--4----|-1--1----1--1----1--1----2--2----|-1--1----1--1----2--2----4--4----|
 B|-1--1----1--1----2--2----4--4----|-1--1----1--1----1--1----2--2----|-1--1----1--1----2--2----4--4----|


C#|---------------------------------|---------------------------------|---------------------------------|
G#|---------------------------------|---------------------------------|---------------------------------|
 E|---------------------------------|---------------------------------|---------------------------------|
 B|---------------------------------|---------------------------------|---------------------------------|
F#|-1--1----1--1----1--1----2--2----|-1--1----1--1----2--2----4--4----|-1--1----1--1----1--1----2--2----|
 B|-1--1----1--1----1--1----2--2----|-1--1----1--1----2--2----4--4----|-1--1----1--1----1--1----2--2----|


C#|---------------------------------|-----------------------------------------|-----------------------------------------|
G#|---------------------------------|-----------------------------------------|-----------------------------------------|
 E|---------------------------------|-----------------------------------------|-----------------------------------------|
 B|---------------------------------|-----------------------------------------|-----------------------------------------|
F#|-1--1----1--1----2--2----4--4----|-1--1------1--1------1--1------2--2------|-1--1------1--1------2--2------4--4------|
 B|-1--1----1--1----2--2----4--4----|-1--1------1--1------1--1------2--2------|-1--1------1--1------2--2------4--4------|


C#|-----------------------------------------|-----------------------------------------|
G#|-----------------------------------------|-----------------------------------------|
 E|-----------------------------------------|-----------------------------------------|
 B|-----------------------------------------|-----------------------------------------|
F#|-1--1------1--1------1--1------2--2------|-1--1------1--1------2--2------4--4------|
 B|-1--1------1--1------1--1------2--2------|-1--1------1--1------2--2------4--4------|


C#|---------------------------------|---------------------------------|---------------------------------|
G#|---------------------------------|---------------------------------|---------------------------------|
 E|---------------------------------|---------------------------------|---------------------------------|
 B|---------------------------------|---------------------------------|---------------------------------|
F#|---------------------------------|---------------------------------|---------------------------------|
 B|-7---0---8---1---1---4---4---7---|-7---0---8---1---1---4---4---7---|-7---0---8---1---1---4---4---7---|


C#|---------------------------------|---------------------------------|---------------------------------|
G#|---------------------------------|---------------------------------|---------------------------------|
 E|---------------------------------|---------------------------------|---------------------------------|
 B|---------------------------------|---------------------------------|---------------------------------|
F#|---------------------------------|---------------------------------|---------------------------------|
 B|-7---0---8---1---1---4---4---7---|-7---0---8---1---1---4---4---7---|-7---0---8---1---1---4---4---7---|


C#|---------------------------------|---------------------------------|---------------------------|
G#|---------------------------------|---------------------------------|---------------------------|
 E|---------------------------------|---------------------------------|---------------------------|
 B|---------------------------------|---------------------------------|---------------------------|
F#|---------------------------------|-7---0---8---1---1---4---4---7---|-0-------------------------|
 B|-7---0---8---1---1---4---4---7---|-7---0---8---1---1---4---4---7---|-0----------------3---21---|


C#|---------------------------------|---------------------------------|---------------------------------|
G#|---------------------------------|---------------------------------|---------------------------------|
 E|---------------------------------|---------------------------------|---------------------------------|
 B|---------------------------------|---------------------------------|---------------------------------|
F#|-7---0---8---1---1---4---4---7---|-7---0---8---1---1---4---4---7---|-7---0---8---1---1---4---4---7---|
 B|-7---0---8---1---1---4---4---7---|-7---0---8---1---1---4---4---7---|-7---0---8---1---1---4---4---7---|


C#|---------------------------------|---------------------------------|---------------------------------|
G#|---------------------------------|---------------------------------|---------------------------------|
 E|---------------------------------|---------------------------------|---------------------------------|
 B|---------------------------------|---------------------------------|---------------------------------|
F#|-7---0---8---1---1---4---4---7---|-7---0---8---1---1---4---4---7---|-7---0---8---1---1---4---4---7---|
 B|-7---0---8---1---1---4---4---7---|-7---0---8---1---1---4---4---7---|-7---0---8---1---1---4---4---7---|


C#|---------------------------------|---------------------------------|---------------------------------|
G#|---------------------------------|---------------------------------|---------------------------------|
 E|---------------------------------|---------------------------------|---------------------------------|
 B|---------------------------------|---------------------------------|---------------------------------|
F#|-7---0---8---1---1---4---4---7---|-7---0---8---1---1---4---4---7---|-7---0---8---1---1---4---4---7---|
 B|-7---0---8---1---1---4---4---7---|-7---0---8---1---1---4---4---7---|-7---0---8---1---1---4---4---7---|


C#|---------------------------------|---------------------------------|---------------------------------|
G#|---------------------------------|---------------------------------|---------------------------------|
 E|---------------------------------|---------------------------------|---------------------------------|
 B|---------------------------------|---------------------------------|---------------------------------|
F#|-7---0---8---1---1---4---4---7---|-7---0---8---1---1---4---4---7---|-7---0---8---1---1---4---4---7---|
 B|-7---0---8---1---1---4---4---7---|-7---0---8---1---1---4---4---7---|-7---0---8---1---1---4---4---7---|


C#|---------------------------------|---------------------------------|---------------------------------|
G#|---------------------------------|---------------------------------|---------------------------------|
 E|---------------------------------|---------------------------------|---------------------------------|
 B|---------------------------------|---------------------------------|---------------------------------|
F#|-7---0---8---1---1---4---4---7---|-7---0---8---1---1---4---4---7---|-7---0---8---1---1---4---4---7---|
 B|-7---0---8---1---1---4---4---7---|-7---0---8---1---1---4---4---7---|-7---0---8---1---1---4---4---7---|


C#|---------------------------------|--------|--------|
G#|---------------------------------|--------|--------|
 E|---------------------------------|--------|--------|
 B|---------------------------------|--------|--------|
F#|-7---0---8---1---1---4---4---7---|--------|--------|
 B|-7---0---8---1---1---4---4---7---|--------|--------|





Track 2: Gtr. II

C#|--------|--------|--------|--------|--------|--------|--------|--------|-16--18---18--18----|
G#|--------|--------|--------|--------|--------|--------|--------|--------|--------------------|
 E|--------|--------|--------|--------|--------|--------|--------|--------|--------------------|
 B|--------|--------|--------|--------|--------|--------|--------|--------|--------------------|
F#|--------|--------|--------|--------|--------|--------|--------|--------|--------------------|
 B|--------|--------|--------|--------|--------|--------|--------|-1------|--------------------|


C#|-------------|-16--18---18--18-----------|--------|--------|--------|--------|--------|
G#|-------------|---------------------------|--------|--------|--------|--------|--------|
 E|-------------|---------------------------|--------|--------|--------|--------|--------|
 B|-------------|---------------------------|--------|--------|--------|--------|--------|
F#|-------------|---------------------------|--------|--------|--------|--------|--------|
 B|------1------|------------------1---0----|--------|--------|--------|--------|--------|


C#|--------|--------|--------|--------|-------------|--------------------|-----------------|
G#|--------|--------|--------|--------|-------------|--------------------|-----------------|
 E|--------|--------|--------|--------|-------------|--------------------|-----------------|
 B|--------|--------|--------|--------|-------------|--------------------|-----------------|
F#|--------|--------|--------|--------|-------------|-0------------------|------------10---|
 B|--------|--------|--------|-5------|-5------5----|-0------------------|-----------------|


C#|--------|--------|--------|--------|--------|--------|--------|--------|--------|
G#|--------|--------|--------|--------|--------|--------|--------|--------|--------|
 E|--------|--------|--------|--------|--------|--------|--------|--------|--------|
 B|--------|--------|--------|--------|--------|--------|--------|--------|--------|
F#|--------|--------|--------|--------|--------|--------|--------|--------|--------|
 B|--------|--------|--------|--------|--------|--------|--------|--------|--------|


C#|--------|--------|--------|--------|--------|--------|--------|--------|--------|
G#|--------|--------|--------|--------|--------|--------|--------|--------|--------|
 E|--------|--------|--------|--------|--------|--------|--------|--------|--------|
 B|--------|--------|--------|--------|--------|--------|--------|--------|--------|
F#|--------|--------|--------|--------|--------|--------|--------|--------|--------|
 B|--------|--------|--------|--------|--------|--------|--------|--------|--------|


C#|--------|--------|-------------|------------------------|-----------------|---------------10----|
G#|--------|--------|-------------|------------------------|-----------------|------6--------------|
 E|--------|--------|-------7-----|----------7-------7-----|-----7-----7-----|---------------------|
 B|--------|--------|-------------|------------------------|-----------------|---------------------|
F#|--------|--------|-------------|------------------------|-----------------|---------------------|
 B|--------|--------|-------------|------------------------|-----------------|---------------------|


C#|--------|--------|--------|--------|--------|--------|--------|--------|--------|
G#|--------|--------|--------|--------|--------|--------|--------|--------|--------|
 E|--------|--------|--------|--------|--------|--------|--------|--------|--------|
 B|--------|--------|--------|--------|--------|--------|--------|--------|--------|
F#|--------|--------|--------|--------|--------|--------|--------|--------|--------|
 B|--------|--------|--------|--------|--------|--------|--------|--------|--------|


C#|--------|--------|--------|-------------|------------------------|-----------------|
G#|--------|--------|--------|-------------|------------------------|-----------------|
 E|--------|--------|--------|-------7-----|----------7-------7-----|-----7-----7-----|
 B|--------|--------|--------|-------------|------------------------|-----------------|
F#|--------|--------|--------|-------------|------------------------|-----------------|
 B|--------|--------|--------|-------------|------------------------|-----------------|


C#|---------------10----|--------|--------|--------|--------|--------|--------|--------|
G#|------6--------------|--------|--------|--------|--------|--------|--------|--------|
 E|---------------------|--------|--------|--------|--------|--------|--------|--------|
 B|---------------------|--------|--------|--------|--------|--------|--------|--------|
F#|---------------------|--------|--------|--------|--------|--------|--------|--------|
 B|---------------------|--------|--------|--------|--------|--------|--------|--------|


C#|--------|--------|--------|--------|--------|--------|-----------------|-------------------------------------------|
G#|--------|--------|--------|--------|--------|--------|-----------------|-------------------------------------------|
 E|--------|--------|--------|--------|--------|--------|-----------------|-------------------------------------------|
 B|--------|--------|--------|--------|--------|--------|-----------------|-------------------------------------------|
F#|--------|--------|--------|--------|--------|--------|-----------------|-0--0-----0--0---0--0-----0--0---1--1--1---|
 B|--------|--------|--------|--------|--------|--------|------------17---|-0--0-----0--0---0--0-----0--0---1--1--1---|


C#|--------|--------|--------|--------|--------|--------|--------|--------|--------|
G#|--------|--------|--------|--------|--------|--------|--------|--------|--------|
 E|--------|--------|--------|--------|--------|--------|--------|--------|--------|
 B|--------|--------|--------|--------|--------|--------|--------|--------|--------|
F#|--------|--------|--------|--------|--------|--------|--------|--------|--------|
 B|--------|--------|--------|--------|--------|--------|--------|--------|--------|


C#|--------|--------|-----------------------------------------|-----------------------------------------|
G#|--------|--------|-----------------------------------------|-----------------------------------------|
 E|--------|--------|-----------------------------------------|-----------------------------------------|
 B|--------|--------|-----------------------------------------|-----------------------------------------|
F#|--------|--------|-----1--1------1--1------1--1------2--2--|-----1--1------1--1------2--2------4--4--|
 B|--------|--------|-----1--1------1--1------1--1------2--2--|-----1--1------1--1------2--2------4--4--|


C#|-----------------------------------------|-----------------------------------------|
G#|-----------------------------------------|-----------------------------------------|
 E|-----------------------------------------|-----------------------------------------|
 B|-----------------------------------------|-----------------------------------------|
F#|-----1--1------1--1------1--1------2--2--|-----1--1------1--1------2--2------4--4--|
 B|-----1--1------1--1------1--1------2--2--|-----1--1------1--1------2--2------4--4--|


C#|--------|--------|--------|-----------------------------|--------|--------|--------|
G#|--------|--------|--------|------3----------------------|--------|--------|--------|
 E|--------|--------|--------|----------21-21--------------|--------|--------|--------|
 B|--------|--------|--------|----------------22-----------|--------|--------|--------|
F#|-0------|-0------|-0------|-0---------------------------|--------|--------|--------|
 B|-0------|-0------|-0------|-0------------------0---1----|--------|--------|--------|


C#|--------|--------|--------|--------|--------|--------|--------|--------|--------|
G#|--------|--------|--------|--------|--------|--------|--------|--------|--------|
 E|--------|--------|--------|--------|--------|--------|--------|--------|--------|
 B|--------|--------|--------|--------|--------|--------|--------|--------|--------|
F#|--------|--------|--------|--------|--------|--------|--------|--------|--------|
 B|--------|--------|--------|--------|--------|--------|--------|--------|--------|


C#|--------|--------|--------|--------|--------|--------|--------|--------|--------|
G#|--------|--------|--------|--------|--------|--------|--------|--------|--------|
 E|--------|--------|--------|--------|--------|--------|--------|--------|--------|
 B|--------|--------|--------|--------|--------|--------|--------|--------|--------|
F#|--------|--------|--------|--------|--------|--------|--------|--------|--------|
 B|--------|--------|--------|--------|--------|--------|--------|--------|--------|


C#|--------|--------|
G#|--------|--------|
 E|--------|--------|
 B|--------|--------|
F#|--------|--------|
 B|--------|--------|





Track 3: Gtr. III

C#|--------|--------|--------|--------|--------|--------|--------|--------|--------|
G#|--------|--------|--------|--------|--------|--------|--------|--------|--------|
 E|--------|--------|--------|--------|--------|--------|--------|--------|--------|
 B|--------|--------|--------|--------|--------|--------|--------|--------|--------|
F#|--------|--------|--------|--------|--------|--------|--------|--------|--------|
 B|--------|--------|--------|--------|--------|--------|--------|--------|--------|


C#|--------|--------|--------|--------|--------|--------|--------|--------|--------|
G#|--------|--------|--------|--------|--------|--------|--------|--------|--------|
 E|--------|--------|--------|--------|--------|--------|--------|--------|--------|
 B|--------|--------|--------|--------|--------|--------|--------|--------|--------|
F#|--------|--------|--------|--------|--------|--------|--------|--------|--------|
 B|--------|--------|--------|--------|--------|--------|--------|--------|--------|


C#|--------|--------|--------|--------|--------|--------|--------|--------|--------|
G#|--------|--------|--------|--------|--------|--------|--------|--------|--------|
 E|--------|--------|--------|--------|--------|--------|--------|--------|--------|
 B|--------|--------|--------|--------|--------|--------|--------|--------|--------|
F#|--------|--------|--------|--------|--------|--------|--------|--------|--------|
 B|--------|--------|--------|--------|--------|--------|--------|--------|--------|


C#|--------|--------|--------|--------|--------|--------|--------|--------|--------|
G#|--------|--------|--------|--------|--------|--------|--------|--------|--------|
 E|--------|--------|--------|--------|--------|--------|--------|--------|--------|
 B|--------|--------|--------|--------|--------|--------|--------|--------|--------|
F#|--------|--------|--------|--------|--------|--------|--------|--------|--------|
 B|--------|--------|--------|--------|--------|--------|--------|--------|--------|


C#|--------|--------|--------|--------|--------|--------|--------|-10-----|-11--------------|
G#|--------|--------|--------|--------|--------|--------|--------|--------|-------12---11---|
 E|--------|--------|--------|--------|--------|--------|--------|--------|-----------------|
 B|--------|--------|--------|--------|--------|--------|--------|--------|-----------------|
F#|--------|--------|--------|--------|--------|--------|--------|--------|-----------------|
 B|--------|--------|--------|--------|--------|--------|--------|--------|-----------------|


C#|-10-----|-11-----|--------|--------|--------|--------|--------|--------|--------|
G#|--------|--------|--------|--------|--------|--------|--------|--------|--------|
 E|--------|--------|--------|--------|--------|--------|--------|--------|--------|
 B|--------|--------|--------|--------|--------|--------|--------|--------|--------|
F#|--------|--------|--------|--------|--------|--------|--------|--------|--------|
 B|--------|--------|--------|--------|--------|--------|--------|--------|--------|


C#|--------|--------|--------|--------|--------|-10-----|-11--------------|-10-----|
G#|--------|--------|--------|--------|--------|--------|-------12---11---|--------|
 E|--------|--------|--------|--------|--------|--------|-----------------|--------|
 B|--------|--------|--------|--------|--------|--------|-----------------|--------|
F#|--------|--------|--------|--------|--------|--------|-----------------|--------|
 B|--------|--------|--------|--------|--------|--------|-----------------|--------|


C#|-11----11--------|------------------------------|------------------------------|
G#|-----------------|------------------------------|------------------------------|
 E|-------------14--|-14------15---------------14--|-14------15---------------14--|
 B|-----------------|------------------------------|------------------------------|
F#|-------------12--|-12------13---------------12--|-12------13---------------12--|
 B|-----------------|------------------------------|------------------------------|


C#|------------------------------|------------------------------|------------------------------|
G#|------------------------------|------------------------------|------------------------------|
 E|-14------15---------------14--|-14------15---------------14--|-14------15---------------14--|
 B|------------------------------|------------------------------|------------------------------|
F#|-12------13---------------12--|-12------13---------------12--|-12------13---------------12--|
 B|------------------------------|------------------------------|------------------------------|


C#|------------------------------|------------------------------|------------------------------|
G#|------------------------------|------------------------------|------------------------------|
 E|-14------15---------------14--|-14------15---------------14--|-14------15---------------14--|
 B|------------------------------|------------------------------|------------------------------|
F#|-12------13---------------12--|-12------13---------------12--|-12------13---------------12--|
 B|------------------------------|------------------------------|------------------------------|


C#|--------|--------|--------|--------|--------|--------|--------|--------|--------|
G#|--------|--------|--------|--------|--------|--------|--------|--------|--------|
 E|--------|--------|--------|--------|--------|--------|--------|--------|--------|
 B|--------|--------|--------|--------|--------|--------|--------|--------|--------|
F#|--------|--------|--------|--------|--------|--------|--------|--------|--------|
 B|--------|--------|--------|--------|--------|--------|--------|--------|--------|


C#|--------|--------|--------|--------|--------|--------|--------|--------|--------|
G#|--------|--------|--------|--------|--------|--------|--------|--------|--------|
 E|--------|--------|--------|--------|--------|--------|--------|--------|--------|
 B|--------|--------|--------|--------|--------|--------|--------|--------|--------|
F#|--------|--------|--------|--------|--------|--------|--------|--------|--------|
 B|--------|--------|--------|--------|--------|--------|--------|--------|--------|


C#|--------|--------|--------|--------|--------|--------|--------|--------|--------|
G#|--------|--------|--------|--------|--------|--------|--------|--------|--------|
 E|--------|--------|--------|--------|--------|--------|--------|--------|--------|
 B|--------|--------|--------|--------|--------|--------|--------|--------|--------|
F#|--------|--------|--------|--------|--------|--------|--------|--------|--------|
 B|--------|--------|--------|--------|--------|--------|--------|--------|--------|


C#|--------|--------|--------|--------|------------------------------|------------------------------|
G#|--------|--------|--------|--------|------------------------------|------------------------------|
 E|--------|--------|--------|--------|-14------15---------------14--|-14------15---------------14--|
 B|--------|--------|--------|--------|------------------------------|------------------------------|
F#|--------|--------|--------|--------|-12------13---------------12--|-12------13---------------12--|
 B|--------|--------|--------|--------|------------------------------|------------------------------|


C#|------------------------------|------------------------------|------------------------------|
G#|------------------------------|------------------------------|------------------------------|
 E|-14------15---------------14--|-14------15---------------14--|-14------15---------------14--|
 B|------------------------------|------------------------------|------------------------------|
F#|-12------13---------------12--|-12------13---------------12--|-12------13---------------12--|
 B|------------------------------|------------------------------|------------------------------|


C#|------------------------------|------------------------------|------------------------------|
G#|------------------------------|------------------------------|------------------------------|
 E|-14------15---------------14--|-14------15---------------14--|-14------15---------------14--|
 B|------------------------------|------------------------------|------------------------------|
F#|-12------13---------------12--|-12------13---------------12--|-12------13---------------12--|
 B|------------------------------|------------------------------|------------------------------|


C#|------------------------------|------------------------------|------------------------------|
G#|------------------------------|------------------------------|------------------------------|
 E|-14------15---------------14--|-14------15---------------14--|-14------15---------------14--|
 B|------------------------------|------------------------------|------------------------------|
F#|-12------13---------------12--|-12------13---------------12--|-12------13---------------12--|
 B|------------------------------|------------------------------|------------------------------|


C#|------------------------------|------------------------------|------------------------------|
G#|------------------------------|------------------------------|------------------------------|
 E|-14------15---------------14--|-14------15---------------14--|-14------15---------------14--|
 B|------------------------------|------------------------------|------------------------------|
F#|-12------13---------------12--|-12------13---------------12--|-12------13---------------12--|
 B|------------------------------|------------------------------|------------------------------|


C#|------------------------------|------------------------------|-------------------------------------------------|
G#|------------------------------|------------------------------|-------------------------------------------------|
 E|-14------15---------------14--|-14------15---------------14--|-------------------------------------------------|
 B|------------------------------|------------------------------|-------------------------------------------------|
F#|-12------13---------------12--|-12------13---------------12--|-6--5--------3--2--------6--5--------3--2--------|
 B|------------------------------|------------------------------|-6--5--0--0--3--2--0--0--6--5--0--0--3--2--0--0--|


C#|-----------------------|
G#|-----------------------|
 E|-----------------------|
 B|-----------------------|
F#|-0---0-------0---------|
 B|-0---0-------0---------|





Track 4: Bass

 E|---------------------------------|---------------------------------|---------------------|
 B|---------------------------------|---------------------------------|---------------------|
F#|---------------------------------|---------------------------------|---------------------|
 B|-6---5---0---0---3---2---0---0---|-6---5---0---0---3---2---0---0---|-0----0----0----0----|


 E|---------------------|---------------------|---------------------|---------------------|
 B|---------------------|---------------------|---------------------|---------------------|
F#|---------------------|-2----3---------2----|---------------------|-2----3---------2----|
 B|-0----1----0----1----|-----------3---------|-0----1----0----1----|-----------3---------|


 E|---------------------|---------------------|---------------------|---------------------|
 B|---------------------|---------------------|---------------------|---------------------|
F#|---------------------|-2----3---------2----|---------------------|-2----3---------2----|
 B|-0----1----0----1----|-----------3---------|-0----1----0----1----|-----------3---------|


 E|---------------------|---------------------|---------------------|---------------------|
 B|---------------------|---------------------|---------------------|---------------------|
F#|---------------------|-2----3---------2----|---------------------|-2----3---------2----|
 B|-0----1----0----1----|-----------3---------|-0----1----0----1----|-----------3---------|


 E|---------------------|---------------------|---------------------|---------------------|
 B|---------------------|---------------------|---------------------|---------------------|
F#|---------------------|-2----3---------2----|---------------------|-2----3---------2----|
 B|-0----1----0----1----|-----------3---------|-0----1----0----1----|-----------3---------|


 E|--------|--------|-----------------------------------|-----------------------------------|
 B|--------|--------|-----------------------------------|-----------------------------------|
F#|--------|--------|-----------------------------------|-----------------------------------|
 B|-1------|-0------|-0--1--1--0--1----0--1--1--0--5----|-0--1--1--0--1----0--1--1--0--5----|


 E|-----------------------------------|-----------------------------------|-----------------------------------|
 B|-----------------------------------|-----------------------------------|-----------------------------------|
F#|-----------------------------------|-----------------------------------|-----------------------------------|
 B|-0--1--1--0--1----0--1--1--0--5----|-0--1--1--0--1----0--1--1--0--5----|-0--1--1--0--1----0--1--1--0--5----|


 E|-----------------------------------|-----------------------------------|-----------------------------------|
 B|-----------------------------------|-----------------------------------|-----------------------------------|
F#|-----------------------------------|-----------------------------------|-----------------------------------|
 B|-0--1--1--0--1----0--1--1--0--5----|-0--1--1--0--1----0--1--1--0--5----|-0--1--1--0--1----0--1--1--0--5----|


 E|-----------------------------------|-----------------------------------|-----------------------------------|
 B|-----------------------------------|-----------------------------------|-----------------------------------|
F#|-----------------------------------|-----------------------------------|-----------------------------------|
 B|-0--1--1--0--1----0--1--1--0--5----|-0--1--1--0--1----0--1--1--0--5----|-0--1--1--0--1----0--1--1--0--5----|


 E|-----------------------------------|-----------------------------------|-----------------------------------|
 B|-----------------------------------|-----------------------------------|-----------------------------------|
F#|-----------------------------------|-----------------------------------|-----------------------------------|
 B|-0--1--1--0--1----0--1--1--0--5----|-0--1--1--0--1----0--1--1--0--5----|-0--1--1--0--1----0--1--1--0--5----|


 E|----------------------------------------|-------------------------------------------|
 B|----------------------------------------|-------------------------------------------|
F#|----------------------------------------|-------------------------------------------|
 B|-0--1--1--0--1----0--0--3--3--3---0--0--|-1--1----0--0--4--3--3---0--0--6--6--5--5--|


 E|----------------------------------------|-------------------------------------------|
 B|----------------------------------------|-------------------------------------------|
F#|----------------------------------------|-------------------------------------------|
 B|-0--1--1--0--1----0--0--3--3--3---0--0--|-1--1----0--0--4--3--3---0--0--6--6--5--5--|


 E|----------------------------------------|-------------------------------------------|
 B|----------------------------------------|-------------------------------------------|
F#|----------------------------------------|-------------------------------------------|
 B|-0--1--1--0--1----0--0--3--3--3---0--0--|-1--1----0--0--4--3--3---0--0--6--6--5--5--|


 E|----------------------------------------|-------------------------------------------|
 B|----------------------------------------|-------------------------------------------|
F#|----------------------------------------|-------------------------------------------|
 B|-0--1--1--0--1----0--0--3--3--3---0--0--|-1--1----0--0--4--3--3---0--0--6--6--5--5--|


 E|---------------------------------|---------------------------------|---------------------------------|
 B|---------------------------------|---------------------------------|---------------------------------|
F#|-----------------------------0---|-----------------------------0---|-----------------------------0---|
 B|-0---0---1-----------4---4-------|-0---0---1-----------4---4-------|-0---0---1-----------4---4-------|


 E|-----------------------|-----------------------------------|-----------------------------------|
 B|-----------------------|-----------------------------------|-----------------------------------|
F#|-----------------------|-----------------------------------|-----------------------------------|
 B|-1---1---1-------------|-0--1--1--0--1----0--1--1--0--5----|-0--1--1--0--1----0--1--1--0--5----|


 E|-----------------------------------|-----------------------------------|-------------------------------------------|
 B|-----------------------------------|-----------------------------------|-------------------------------------------|
F#|-----------------------------------|-----------------------------------|-------------------------------------------|
 B|-0--1--1--0--1----0--1--1--0--5----|-0--1--1--0--1----0--1--1--0--5----|-0--1--1--0--1-------1--1--1--0------0--0--|


 E|-----------------------------------------|-------------------------------------------|
 B|-----------------------------------------|-------------------------------------------|
F#|-----------------------------------------|-------------------------------------------|
 B|-0--1------0--0--0--0------0--0--0---5---|-0--1--1--0--1-------1--1--1--0------0--0--|


 E|----------------------|-----------------------------------|-----------------------------------|
 B|----------------------|-----------------------------------|-----------------------------------|
F#|----------------------|-----------------------------------|-----------------------------------|
 B|-0--1-----------------|-0--1--1--0--1----0--1--1--0--5----|-0--1--1--0--1----0--1--1--0--5----|


 E|-----------------------------------|-----------------------------------|---------------------------------|
 B|-----------------------------------|-----------------------------------|---------------------------------|
F#|-----------------------------------|-----------------------------------|-----------------------------0---|
 B|-0--1--1--0--1----0--1--1--0--5----|-0--1--1--0--1----0--1--1--0--5----|-0---0---1-----------4---4-------|


 E|---------------------------------|---------------------------------|-----------------------|
 B|---------------------------------|---------------------------------|-----------------------|
F#|-----------------------------0---|-----------------------------0---|-----------------------|
 B|-0---0---1-----------4---4-------|-0---0---1-----------4---4-------|-1---1---1-------------|


 E|---------------------------------|---------------------------------|---------------------------------|
 B|---------------------------------|---------------------------------|---------------------------------|
F#|---------------------------------|---------------------------------|---------------------------------|
 B|-7---0---8---1---1---4---4---7---|-7---0---8---1---1---4---4---7---|-7---0---8---1---1---4---4---7---|


 E|---------------------------------|---------------------------------|---------------------------------|
 B|---------------------------------|---------------------------------|---------------------------------|
F#|---------------------------------|---------------------------------|---------------------------------|
 B|-7---0---8---1---1---4---4---7---|-7---0---8---1---1---4---4---7---|-7---0---8---1---1---4---4---7---|


 E|---------------------------------|---------------------------------|--------|--------|
 B|---------------------------------|---------------------------------|--------|--------|
F#|---------------------------------|---------------------------------|--------|--------|
 B|-7---0---8---1---1---4---4---7---|-7---0---8---1---1---4---4---7---|--------|--------|


 E|--------|--------|--------|--------|--------|--------|---------------------------------|
 B|--------|--------|--------|--------|--------|--------|---------------------------------|
F#|--------|--------|--------|--------|--------|--------|---------------------------------|
 B|--------|--------|--------|--------|--------|--------|-1--1----1--1----1--1----2--2----|


 E|---------------------------------|---------------------------------|---------------------------------|
 B|---------------------------------|---------------------------------|---------------------------------|
F#|---------------------------------|---------------------------------|---------------------------------|
 B|-1--1----1--1----2--2----4--4----|-1--1----1--1----1--1----2--2----|-1--1----1--1----2--2----4--4----|


 E|---------------------------------|---------------------------------|---------------------------------|
 B|---------------------------------|---------------------------------|---------------------------------|
F#|---------------------------------|---------------------------------|---------------------------------|
 B|-1--1----1--1----1--1----2--2----|-1--1----1--1----2--2----4--4----|-1--1----1--1----1--1----2--2----|


 E|---------------------------------|---------------------------------|---------------------------------|
 B|---------------------------------|---------------------------------|---------------------------------|
F#|---------------------------------|---------------------------------|---------------------------------|
 B|-1--1----1--1----2--2----4--4----|-1--1----1--1----1--1----2--2----|-1--1----1--1----2--2----4--4----|


 E|---------------------------------|---------------------------------|---------------------------------|
 B|---------------------------------|---------------------------------|---------------------------------|
F#|---------------------------------|---------------------------------|---------------------------------|
 B|-1--1----1--1----1--1----2--2----|-1--1----1--1----2--2----4--4----|-1--1----1--1----1--1----2--2----|


 E|---------------------------------|---------------------------------|---------------------------------|
 B|---------------------------------|---------------------------------|---------------------------------|
F#|---------------------------------|---------------------------------|---------------------------------|
 B|-1--1----1--1----2--2----4--4----|-7---0---8---1---1---4---4---7---|-7---0---8---1---1---4---4---7---|


 E|---------------------------------|---------------------------------|---------------------------------|
 B|---------------------------------|---------------------------------|---------------------------------|
F#|---------------------------------|---------------------------------|---------------------------------|
 B|-7---0---8---1---1---4---4---7---|-7---0---8---1---1---4---4---7---|-7---0---8---1---1---4---4---7---|


 E|---------------------------------|---------------------------------|---------------------------------|
 B|---------------------------------|---------------------------------|---------------------------------|
F#|---------------------------------|---------------------------------|---------------------------------|
 B|-7---0---8---1---1---4---4---7---|-7---0---8---1---1---4---4---7---|-7---0---8---1---1---4---4---7---|


 E|--------------------|---------------------------------|---------------------------------|
 B|--------------------|---------------------------------|---------------------------------|
F#|--------------------|---------------------------------|---------------------------------|
 B|-0------------------|-7---0---8---1---1---4---4---7---|-7---0---8---1---1---4---4---7---|


 E|---------------------------------|---------------------------------|---------------------------------|
 B|---------------------------------|---------------------------------|---------------------------------|
F#|---------------------------------|---------------------------------|---------------------------------|
 B|-7---0---8---1---1---4---4---7---|-7---0---8---1---1---4---4---7---|-7---0---8---1---1---4---4---7---|


 E|---------------------------------|---------------------------------|---------------------------------|
 B|---------------------------------|---------------------------------|---------------------------------|
F#|---------------------------------|---------------------------------|---------------------------------|
 B|-7---0---8---1---1---4---4---7---|-7---0---8---1---1---4---4---7---|-7---0---8---1---1---4---4---7---|


 E|---------------------------------|---------------------------------|---------------------------------|
 B|---------------------------------|---------------------------------|---------------------------------|
F#|---------------------------------|---------------------------------|---------------------------------|
 B|-7---0---8---1---1---4---4---7---|-7---0---8---1---1---4---4---7---|-7---0---8---1---1---4---4---7---|


 E|---------------------------------|---------------------------------|---------------------------------|
 B|---------------------------------|---------------------------------|---------------------------------|
F#|---------------------------------|---------------------------------|---------------------------------|
 B|-7---0---8---1---1---4---4---7---|-7---0---8---1---1---4---4---7---|-7---0---8---1---1---4---4---7---|


 E|---------------------------------|---------------------------------|-------------------------------------------------|
 B|---------------------------------|---------------------------------|-------------------------------------------------|
F#|---------------------------------|---------------------------------|-------------------------------------------------|
 B|-7---0---8---1---1---4---4---7---|-7---0---8---1---1---4---4---7---|-6--5--0--0--3--2--0--0--6--5--0--0--3--2--0--0--|


 E|-----------------------|
 B|-----------------------|
F#|-----------------------|
 B|-0---0-------0---------|