Menu:

 

Search:

 

slipknot - opium of the people:

 



Title: Opium of the People
Artist: 
Album: Volume 3: The Subliminal Verses
Author: Slipknot


Track 1: Distortion 3

C#|---------13-14-13-14-13-14-----13-14-13-14-|---------13-14-13-14-13-14-----13-14-13-14-|
G#|-------------------------------------------|-------------------------------------------|
 E|-------------------------------------------|-------------------------------------------|
 B|-------------------------------------------|-------------------------------------------|
F#|-------------------------------------------|-------------------------------------------|
 B|-------------------------------------------|-------------------------------------------|


C#|---------13-14-13-14-13-14-13-14-13-14-13-14-|-13-14-------------13-14-16-14-13----------------------13-14-16-14-13-|
G#|---------------------------------------------|-------------14-16----------------16-14----------14-16----------------|
 E|---------------------------------------------|-------15-17----------------------------17-15-17----------------------|
 B|---------------------------------------------|----------------------------------------------------------------------|
F#|---------------------------------------------|----------------------------------------------------------------------|
 B|---------------------------------------------|----------------------------------------------------------------------|


C#|---------------------|--------|--------|--------|--------|--------|--------|--------|
G#|-16-14---------------|--------|--------|--------|--------|--------|--------|--------|
 E|-------17------------|--------|--------|--------|--------|--------|--------|--------|
 B|---------------------|--------|--------|--------|--------|--------|--------|--------|
F#|---------------------|--------|--------|--------|--------|--------|--------|--------|
 B|---------------------|--------|--------|--------|--------|--------|--------|--------|


C#|--------|--------|--------|--------|--------|--------|--------|--------|--------|
G#|--------|--------|--------|--------|--------|--------|--------|--------|--------|
 E|--------|--------|--------|--------|--------|--------|--------|--------|--------|
 B|--------|--------|--------|--------|--------|--------|--------|--------|--------|
F#|--------|--------|--------|--------|--------|--------|--------|--------|--------|
 B|--------|--------|--------|--------|--------|--------|--------|--------|--------|


C#|--------|--------|--------|--------|--------|--------|--------|--------|--------|
G#|--------|--------|--------|--------|--------|--------|--------|--------|--------|
 E|--------|--------|--------|--------|--------|--------|--------|--------|--------|
 B|--------|--------|--------|--------|--------|--------|--------|--------|--------|
F#|--------|--------|--------|--------|--------|--------|--------|--------|--------|
 B|--------|--------|--------|--------|--------|--------|--------|--------|--------|


C#|--------|--------|--------|--------|--------|--------|--------|--------|--------|
G#|--------|--------|--------|--------|--------|--------|--------|--------|--------|
 E|--------|--------|--------|--------|--------|--------|--------|--------|--------|
 B|--------|--------|--------|--------|--------|--------|--------|--------|--------|
F#|--------|--------|--------|--------|--------|--------|--------|--------|--------|
 B|--------|--------|--------|--------|--------|--------|--------|--------|--------|


C#|--------|--------|--------|--------|--------|--------|--------|--------|--------|
G#|--------|--------|--------|--------|--------|--------|--------|--------|--------|
 E|--------|--------|--------|--------|--------|--------|--------|--------|--------|
 B|--------|--------|--------|--------|--------|--------|--------|--------|--------|
F#|--------|--------|--------|--------|--------|--------|--------|--------|--------|
 B|--------|--------|--------|--------|--------|--------|--------|--------|--------|


C#|--------|--------|--------|--------|--------|--------|--------|--------|--------|
G#|--------|--------|--------|--------|--------|--------|--------|--------|--------|
 E|--------|--------|--------|--------|--------|--------|--------|--------|--------|
 B|--------|--------|--------|--------|--------|--------|--------|--------|--------|
F#|--------|--------|--------|--------|--------|--------|--------|--------|--------|
 B|--------|--------|--------|--------|--------|--------|--------|--------|--------|


C#|--------|--------|--------|--------|--------|--------|--------|--------|--------|
G#|--------|--------|--------|--------|--------|--------|--------|--------|--------|
 E|--------|--------|--------|--------|--------|--------|--------|--------|--------|
 B|--------|--------|--------|--------|--------|--------|--------|--------|--------|
F#|--------|--------|--------|--------|--------|--------|--------|--------|--------|
 B|--------|--------|--------|--------|--------|--------|--------|--------|--------|


C#|--------|--------|--------|--------|--------|--------|--------|--------|--------|
G#|--------|--------|--------|--------|--------|--------|--------|--------|--------|
 E|--------|--------|--------|--------|--------|--------|--------|--------|--------|
 B|--------|--------|--------|--------|--------|--------|--------|--------|--------|
F#|--------|--------|--------|--------|--------|--------|--------|--------|--------|
 B|--------|--------|--------|--------|--------|--------|--------|--------|--------|


C#|--------|--------|--------|--------|--------|--------|--------|--------|--------|
G#|--------|--------|--------|--------|--------|--------|--------|--------|--------|
 E|--------|--------|--------|--------|--------|--------|--------|--------|--------|
 B|--------|--------|--------|--------|--------|--------|--------|--------|--------|
F#|--------|--------|--------|--------|--------|--------|--------|--------|--------|
 B|--------|--------|--------|--------|--------|--------|--------|--------|--------|


C#|--------|--------|--------|--------|--------------------|---------------------------------|
G#|--------|--------|--------|--------|--------------------|---------------------------------|
 E|--------|--------|--------|--------|--------------------|---------------------------------|
 B|--------|--------|--------|--------|-----------3----6---|-1---1---0-------------------6---|
F#|--------|--------|--------|--------|-----------3----6---|-1---1---0---0---0---3---3---6---|
 B|--------|--------|--------|--------|-----------3----6---|-1---1---0---0---0---3---3---6---|


C#|-----------------------------------|----------------------------------|---------------------------|
G#|---------------------15-15-15--15--|-15-16-15---15-16-15--15--10--10--|-10--11--11--11--10--------|
 E|---------------------12-12-12------|-12---------12--------12--7---7---|-7---8---8---8-------------|
 B|-1---1---0-----------12-12-12--12--|-12-13-12---12-13-12--12--7---7---|-7---8---8---8---8---------|
F#|-1---1---0---0---0-----------------|----------------------------------|---------------------------|
 B|-1---1---0---0---0-----------------|----------------------------------|---------------------------|


C#|--------|--------|--------|--------|--------|--------|--------|--------|--------|
G#|--------|--------|--------|--------|--------|--------|--------|--------|--------|
 E|--------|--------|--------|--------|--------|--------|--------|--------|--------|
 B|--------|--------|--------|--------|--------|--------|--------|--------|--------|
F#|--------|--------|--------|--------|--------|--------|--------|--------|--------|
 B|--------|--------|--------|--------|--------|--------|--------|--------|--------|


C#|--------|--------|--------|--------|--------|
G#|--------|--------|--------|--------|--------|
 E|--------|--------|--------|--------|--------|
 B|--------|--------|--------|--------|--------|
F#|--------|--------|--------|--------|--------|
 B|--------|--------|--------|--------|--------|





Track 2: Distortion 1

C#|------------------------|------------------------|---------------------------------------------|
G#|------------------------|------------------------|---------------------------------------------|
 E|------------------------|------------------------|---------------------------------------------|
 B|-----0---------0--------|-0---0---------0--------|-0---0---------------------------------------|
F#|-----0---------0--------|-0---0---------0--------|-0---0---8--9--8--9--8--9--8--9--8--9--8--9--|
 B|-5---0---------0--------|-0---0---------0--------|-0---0---------------------------------------|


C#|-------------------------13----------------------------------13-------|------------------------------------------------|
G#|----------------13-14-16----16-14-13----------------13-14-16----16-14-|-13---------------------------------------------|
 E|-------11-13-15----------------------15-13-11-13-15-------------------|----15-13---------------------------------------|
 B|----------------------------------------------------------------------|------------------------------------------------|
F#|-8--9-----------------------------------------------------------------|----------0---------------------0---------------|
 B|----------------------------------------------------------------------|----------0---3--4--3--4--3--4--0---3--4--3--4--|


C#|-------------------------------------------|-------------------------------------------|
G#|-------------------------------------------|-------------------------------------------|
 E|-------------------------------------------|-------------------------------------------|
 B|-------------------------------------------|-------------------------------------------|
F#|-0---0---------------------0---------------|-0---0---------------------0---------------|
 B|-0---0---3--4--3--4--3--4--0---3--4--3--4--|-0---0---3--4--3--4--3--4--0---3--4--3--4--|


C#|-------------------------------------------|-----13-14-13-14-13-14-13-14-13-14-13-14-13-14-|
G#|-------------------------------------------|-----------------------------------------------|
 E|-------------------------------------------|-----------------------------------------------|
 B|-------------------------------------------|-----------------------------------------------|
F#|-0---0---------------------0---------------|-0---------------------------------------------|
 B|-0---0---3--4--3--4--3--4--0---3--4--3--4--|-0---------------------------------------------|


C#|-13-14-16-14-13-------------------------------------------------|---------------------------------|
G#|----------------16-14-16-14-13----------------------------------|---------------------------------|
 E|-------------------------------16-14-13-15-13-------------------|---------------------------------|
 B|----------------------------------------------16-15-13-16-15-13-|---------------------------------|
F#|----------------------------------------------------------------|-----0---4---1---0---5---1---1---|
 B|----------------------------------------------------------------|-12--0---4---1---0-------1---1---|


C#|---------------------------------|---------------------------------|---------------------------------|
G#|---------------------------------|---------------------------------|---------------------------------|
 E|---------------------------------|---------------------------------|---------------------------------|
 B|---------------------------------|---------------------------------|---------------------------------|
F#|-0---0---4---1---0---5---1---1---|-0---0---4---1---0---5---1---1---|-0---0---4---1---0---------------|
 B|-0---0---4---1---0-------1---1---|-0---0---4---1---0-------1---1---|-0---0---4---1---0---4---5---6---|


C#|---------------------------|---------------------------------|---------------------------------|
G#|---------------------------|---------------------------------|---------------------------------|
 E|---------------------------|---------------------------------|---------------------------------|
 B|---------------------------|---------------------------------|---------------------------------|
F#|----------5----1---1---1---|-0---0---4---1---0---5---1---1---|-0---0---4---1---0---5---1---1---|
 B|-7---7---------1---1---1---|-0---0---4---1---0-------1---1---|-0---0---4---1---0-------1---1---|


C#|---------------------------------|-----------------|-----------------------------------------------|
G#|---------------------------------|-----------------|-----------------------------------------------|
 E|---------------------------------|-----------------|-----------------------------------------------|
 B|---------------------------------|-----------------|-----------------------------------------------|
F#|-0---0---4---1---0---------------|-----------------|-----------------------------------------------|
 B|-0---0---4---1---0---4---5---6---|-7---7-----------|-----7--7--7--7--1--1--1--1--0--0--0--0--8--8--|


C#|-------------------------------------------------|-------------------------------------------------|
G#|-------------------------------------------------|-------------------------------------------------|
 E|-------------------------------------------------|-------------------------------------------------|
 B|-------------------------------------------------|-------------------------------------------------|
F#|-------------------------------------------------|-------------------------------------------------|
 B|-8--8--7--7--7--7--1--1--1--1--0--0--0--0--8--8--|-8--8--7--7--7--7--1--1--1--1--0--0--0--0--8--8--|


C#|-------------------------------------------------|-------------------------------------------------|
G#|-------------------------------------------------|-------------------------------------------------|
 E|-------------------------------------------------|-------------------------------------------------|
 B|-------------------------------------------------|-------------------------------------------------|
F#|-------------------------------------------------|-------------------------------------------------|
 B|-8--8--7--7--7--7--1--1--1--1--0--0--0--0--8--8--|-8--8--7--7--7--7--1--1--1--1--0--0--0--0--8--8--|


C#|-------------------------------------------------|-------------------------------------------------|
G#|-------------------------------------------------|-------------------------------------------------|
 E|-------------------------------------------------|-------------------------------------------------|
 B|-------------------------------------------------|-------------------------------------------------|
F#|-------------------------------------------------|-------------------------------------------------|
 B|-8--8--7--7--7--7--1--1--1--1--0--0--0--0--8--8--|-8--8--7--7--7--7--1--1--1--1--0--0--0--0--8--8--|


C#|-------------------------------------------------|-----------------------------------|
G#|-------------------------------------------------|-----------------------------------|
 E|-------------------------------------------------|-----------------------------------|
 B|-------------------------------------------------|-----------------------------------|
F#|-------------------------------------------------|-------0---4---1---0---5---1---1---|
 B|-8--8--7--7--7--7--1--1--1--1--0--0--0--0--8--8--|-8--8--0---4---1---0-------1---1---|


C#|---------------------------------|---------------------------------|---------------------------------|
G#|---------------------------------|---------------------------------|---------------------------------|
 E|---------------------------------|---------------------------------|---------------------------------|
 B|---------------------------------|---------------------------------|---------------------------------|
F#|-0---0---4---1---0---5---1---1---|-0---0---4---1---0---5---1---1---|-0---0---4---1---0---------------|
 B|-0---0---4---1---0-------1---1---|-0---0---4---1---0-------1---1---|-0---0---4---1---0---4---5---6---|


C#|---------------------------|---------------------------------|---------------------------------|
G#|---------------------------|---------------------------------|---------------------------------|
 E|---------------------------|---------------------------------|---------------------------------|
 B|---------------------------|---------------------------------|---------------------------------|
F#|----------5----1---1---1---|-0---0---4---1---0---5---1---1---|-0---0---4---1---0---5---1---1---|
 B|-7---7---------1---1---1---|-0---0---4---1---0-------1---1---|-0---0---4---1---0-------1---1---|


C#|---------------------------------|-----------------------------------------------|
G#|---------------------------------|-----------------------------------------------|
 E|---------------------------------|-----------------------------------------------|
 B|---------------------------------|-----7--7--7--7--7-----------------------8--8--|
F#|-0---0---4---1---0---------------|--------------------6--6--6--6--5--5--5--------|
 B|-0---0---4---1---0---4---5---6---|-7---------------------------------------------|


C#|-------------------------------------------------|-------------------------------------------------|
G#|-------------------------------------------------|-------------------------------------------------|
 E|-------------------------------------------------|-------------------------------------------------|
 B|-8--8--7--7--7--7--------------------------8--8--|-8--8--7--7--7--7--------------------------8--8--|
F#|-------------------6--6--6--6--5--5--5--5--------|-------------------6--6--6--6--5--5--5--5--------|
 B|-------------------------------------------------|-------------------------------------------------|


C#|-------------------------------------------------|--------------------------|------------------------|
G#|-------------------------------------------------|--------------------------|------------------------|
 E|-------------------------------------------------|--------------------------|------------------------|
 B|-8--8--7--7--7--7--------------------------8--8--|-8--8--7----1----0----8---|-----7----1----0----8---|
F#|-------------------6--6--6--6--5--5--5--5--------|-------7----1----0----8---|-----7----1----0----8---|
 B|-------------------------------------------------|-------7----1----0----8---|-----7----1----0----8---|


C#|------------------------|------------------------|------------------------------|
G#|------------------------|------------------------|------------------------------|
 E|-----9----12---14---10--|-----9----12---14-------|------------------------------|
 B|-----7----10---12---8---|-----7----10---12-------|-----3----6---1---1---0-------|
F#|-----7----10---12---8---|-----7----10---12---12--|-----3----6---1---1---0---0---|
 B|------------------------|------------------------|-----3----6---1---1---0---0---|


C#|---------------------------------|---------------------------------|-------------------------------|
G#|---------------------------------|---------15------10------13------|-8---8--8--10--10-10-11--11----|
 E|---------------------------------|---------------------------------|-----5---------7---------8-----|
 B|-------------6---1---1---0-------|-----12------7-------10------5---|-----5--5--7---7--7--8---8-----|
F#|-0---3---3---6---1---1---0---0---|-0-------------------------------|-------------------------------|
 B|-0---3---3---6---1---1---0---0---|-0-------------------------------|-------------------------------|


C#|------------------------------|---------------------------------|---------------------------------|
G#|------------------------------|---------------------------------|---------15------10------13------|
 E|------------------------------|---------------------------------|---------------------------------|
 B|-----3----6---1---1---0-------|-------------6---1---1---0-------|-----12------7-------10------5---|
F#|-0---3----6---1---1---0---0---|-0---3---3---6---1---1---0---0---|-0-------------------------------|
 B|-0---3----6---1---1---0---0---|-0---3---3---6---1---1---0---0---|-0-------------------------------|


C#|-------------------------------|------------------------------|---------------------------------|
G#|-8---8--8--10--10-10-11--11----|------------------------------|---------------------------------|
 E|-----5---------7---------8-----|------------------------------|---------------------------------|
 B|-----5--5--7---7--7--8---8-----|-----3----6---1---1---0-------|-------------6---1---1---0-------|
F#|-------------------------------|-0---3----6---1---1---0-------|-----3---3---6---1---1---0-------|
 B|-------------------------------|-0---3----6---1---1---0-------|-----3---3---6---1---1---0-------|


C#|------------------------------|---------------------------------|-----13-14-13-14-13-14-13-14-13-14-13-14-13-14-|
G#|------------------------------|---------------------------------|-----------------------------------------------|
 E|------------------------------|---------------------------------|-----------------------------------------------|
 B|-----3----6---1---1---0-------|-------------6---1---1---0-------|-----------------------------------------------|
F#|-----3----6---1---1---0-------|-----3---3---6---1---1---0-------|-----------------------------------------------|
 B|-----3----6---1---1---0-------|-----3---3---6---1---1---0-------|-----------------------------------------------|


C#|-13-14-13-14-13-14-13-14-1313161614-13----------------1313----|--------------------------------------------------------|
G#|---------------------------------------15-14-13-14-15-----1514|-1414---------------------------------------------------|
 E|--------------------------------------------------------------|-----191910-11-10-11-10-11-10-11-10-11-10-11-10-10-11-11|
 B|--------------------------------------------------------------|--------------------------------------------------------|
F#|--------------------------------------------------------------|--------------------------------------------------------|
 B|--------------------------------------------------------------|--------------------------------------------------------|


C#|------------------------------------------------------------------|-------13-14-13-14-13-14-13-14-13-14-13-13-14-13-13-14-|
G#|------------------------------------------------------------------|-------------------------------------------------------|
 E|---10-10-11-1011131310121414121315131314151413-11-10-11-10----20--|-10-11-------------------------------------------------|
 B|-----------------------------------------------------------13-----|-------------------------------------------------------|
F#|------------------------------------------------------------------|-------------------------------------------------------|
 B|------------------------------------------------------------------|-------------------------------------------------------|


C#|-13-13-14-16-14-13----------------------16-14-16-14-13------------------|---------------------------------------------------|
G#|-------------------16-14-13-13-14-16-13----------------16-14-13-111311--|---------------------------------------------------|
 E|----------------------------------------------------------------------13|-1113111010-11-10-11-10-11-10-11-10-11-10-11-10-11-|
 B|------------------------------------------------------------------------|---------------------------------------------------|
F#|------------------------------------------------------------------------|---------------------------------------------------|
 B|------------------------------------------------------------------------|---------------------------------------------------|


C#|--------------------------------------------------------------------|-----------------------------------------------|
G#|-------------------------------9--9--10-9--10-9--13-14-13-13-14-----|-----------------------------------------------|
 E|-10-10-11-10-10-11-10-11-10-11--------------------------------------|-----------------------------------------------|
 B|--------------------------------------------------------------------|-----15-16-15-16-15-16-15-16-15-16-15-16-15-16-|
F#|--------------------------------------------------------------------|-----------------------------------------------|
 B|--------------------------------------------------------------------|-----------------------------------------------|


C#|-------------------------------------------------|-------------------------------------------------|
G#|-------------------------------------------------|-------------------------------------------------|
 E|-------------------------------------------------|-------------------------------------------------|
 B|-15-16-15-16-15-16-15-16-15-16-15-16-15-16-15-16-|-15-16-15-16-15-16-15-16-15-16-15-16-15-16-15-16-|
F#|-------------------------------------------------|-------------------------------------------------|
 B|-------------------------------------------------|-------------------------------------------------|


C#|-------------------------------------------------|-------------------------------------------------|
G#|-------------------------------------------------|-------------------------------------------------|
 E|-------------------------------------------------|-------------------------------------------------|
 B|-15-16-15-16-15-16-15-16-15-16-15-16-15-16-15-16-|-15-16-15-16-15-16-15-16-15-16-15-16-15-16-15-16-|
F#|-------------------------------------------------|-------------------------------------------------|
 B|-------------------------------------------------|-------------------------------------------------|


C#|------------------------|--------------|-----------------------------|------------------------|
G#|------------------------|--------------|-----------------------------|------------------------|
 E|------------------------|--------------|-----------------------------|------------------------|
 B|-15-16-15-16------------|--------------|-----------------------------|------------------------|
F#|------------------------|--------------|------1---1--0---------------|------------------------|
 B|------------------------|--------------|--------------------0----1---|-0----0----1---0----0---|


C#|---------------------------|------------------------|------------------------|------------------------|
G#|---------------------------|------------------------|------------------------|------------------------|
 E|---------------------------|------------------------|------------------------|------------------------|
 B|---------------------------|------------------------|------------------------|------------------------|
F#|---------------------------|------------------------|------------------------|------------------------|
 B|-----1---0----0----1---0---|-----0----1---0----0----|-1---0----0----1---0----|-0----1---0----0----1---|


C#|------------------------|---------------------------|------------------------|------------------------|
G#|------------------------|---------------------------|------------------------|------------------------|
 E|------------------------|---------------------------|------------------------|------------------------|
 B|------------------------|---------------------------|------------------------|------------------------|
F#|------------------------|---------------------------|------------------------|------------------------|
 B|-0----0----1---0----0---|-----1---0----0----1---0---|-----0----1---0----0----|-1---0----0----1---0----|


C#|------------------------|---------------------------------|---------------------------------|
G#|------------------------|---------------------------------|-------------------------15------|
 E|------------------------|---------------------------------|---------------------------------|
 B|---------------3----6---|-1---1---0-------------------6---|-1---1---0-----------12------7---|
F#|---------------3----6---|-1---1---0---0---0---3---3---6---|-1---1---0---0---0---------------|
 B|-0----1---0----3----6---|-1---1---0---0---0---3---3---6---|-1---1---0---0---0---------------|


C#|-------------------------------------|------------------------|---------------------------------|
G#|-10------13------8---8--8--10--10-10-|-11--11-----------------|---------------------------------|
 E|---------------------5---------7-----|-----8------------------|---------------------------------|
 B|-----10------5-------5--5--7---7--7--|-8---8---------3----6---|-1---1---0-------------------6---|
F#|-------------------------------------|-----------0---3----6---|-1---1---0---0---0---3---3---6---|
 B|-------------------------------------|-----------0---3----6---|-1---1---0---0---0---3---3---6---|


C#|---------------------------------|-------------------------------------|-----------------------------|
G#|-------------------------10------|-----13----------13--13-13-15--15-15-|-17--17-17-18--18------------|
 E|---------------------------------|---------------------10--------12----|-----14--------15------------|
 B|-1---1---0-----------7-------7---|-9-------9---10------10-10-12--12-12-|-14--14-14-15--15---3----6---|
F#|-1---1---0---0---0---------------|-------------------------------------|--------------------3----6---|
 B|-1---1---0---0---0---------------|-------------------------------------|--------------------3----6---|


C#|---------------------------------|------------------------------|---------------------------------|
G#|---------------------------------|------------------------------|---------------------------------|
 E|---------------------------------|------------------------------|---------------------------------|
 B|-1---1---0-------------------6---|-1---1---0-----------0----0---|-0---0---0---0---1---1---1---1---|
F#|-1---1---0---0---0---3---3---6---|-1---1---0---0---0---0----0---|-0---0---0---0---1---1---1---1---|
 B|-1---1---0---0---0---3---3---6---|-1---1---0---0---0---0----0---|-0---0---0---0---1---1---1---1---|


C#|--------------------------------------|---------------------------------|------------------------------|
G#|--------------------------------------|---------------------------------|----------------------15------|
 E|--------------------------------------|---------------------------------|-------------12---------------|
 B|-1---1---1---1---1---1---0---3----6---|-1---1---0-------------------6---|-1---1---0---10---12------12--|
F#|-1---1---1---1---1---1---0---3----6---|-1---1---0---0---0---3---3---6---|-1---1---0---10---------------|
 B|-1---1---1---1---1---1---0---3----6---|-1---1---0---0---0---3---3---6---|-1---1---0--------------------|


C#|------------------------------|------------------------|------------------------|
G#|-----17---17--12--12--14--15--|-14--15---15------------|------------------------|
 E|--------------10--10--10--7---|-7---8------------------|------------------------|
 B|-14-----------10--10--12--13--|-12--13---13------------|------------------------|
F#|------------------------------|------------------------|------------------------|
 B|------------------------------|---------------0----1---|-0----0----1---0----0---|


C#|---------------------------|------------------------|------------------------|-----------------------------|
G#|---------------------------|------------------------|------------------------|-----------------------------|
 E|---------------------------|------------------------|------------------------|-----------------------------|
 B|---------------------------|------------------------|------------------------|-----------------------------|
F#|---------------------------|------------------------|------------------------|---------------1--0----1--0--|
 B|-----1---0----0----1---0---|-----0----1---0----0----|-1---0----0----1---0----|-0----1---0----1--0----1--0--|


C#|-------------------------------------|---------------------------------------|-----------------------------------|
G#|-------------------------------------|---------------------------------------|-----------------------------------|
 E|-------------------------------------|---------------------------------------|-----------------------------------|
 B|-------------------------------------|---------------------------------------|-----------------------------------|
F#|-1--0----1--0----1--0--1--0----1--0--|-----1--0--1--0----1--0----1--0--1--0--|-----1--0----1--0--1--0----1--0----|
 B|-1--0----1--0----1--0--1--0----1--0--|-----1--0--1--0----1--0----1--0--1--0--|-----1--0----1--0--1--0----1--0----|


C#|-----------------------------------------|---------------------------------|
G#|-----------------------------------------|---------------------------------|
 E|-----------------------------------------|---------------------------------|
 B|-----------------------------------------|---------------------------------|
F#|-1--0--1--0----1--0------1--0--1--0------|-1--0------1--0--1--0------------|
 B|-1--0--1--0----1--0------1--0--1--0------|-1--0------1--0--1--0------------|





Track 3: Distortion 1

C#|--------|--------|--------|--------|--------|--------|--------|--------|-----------------------------------------------|
G#|--------|--------|--------|--------|--------|--------|--------|--------|-----------------------------------------------|
 E|--------|--------|--------|--------|--------|--------|--------|--------|-----------------------------------------------|
 B|--------|--------|--------|--------|--------|--------|--------|--------|-----------------------------------------------|
F#|--------|--------|--------|--------|--------|--------|--------|--------|-----8--9--8--9--8--9--8--9--8--9--8--9--8--9--|
 B|--------|--------|--------|--------|--------|--------|--------|--------|-----------------------------------------------|


C#|------------------------|--------|--------|--------|--------|--------|--------|
G#|------------------------|--------|--------|--------|--------|--------|--------|
 E|------------------------|--------|--------|--------|--------|--------|--------|
 B|------------------------|--------|--------|--------|--------|--------|--------|
F#|-8----------------------|--------|--------|--------|--------|--------|--------|
 B|-----11---11---11---11--|--------|--------|--------|--------|--------|--------|


C#|--------|--------|--------|--------|--------|--------|--------|--------|--------|
G#|--------|--------|--------|--------|--------|--------|--------|--------|--------|
 E|--------|--------|--------|--------|--------|--------|--------|--------|--------|
 B|--------|--------|--------|--------|--------|--------|--------|--------|--------|
F#|--------|--------|--------|--------|--------|--------|--------|--------|--------|
 B|--------|--------|--------|--------|--------|--------|--------|--------|--------|


C#|--------|--------|--------|--------|--------|--------|--------|--------|--------|
G#|--------|--------|--------|--------|--------|--------|--------|--------|--------|
 E|--------|--------|--------|--------|--------|--------|--------|--------|--------|
 B|--------|--------|--------|--------|--------|--------|--------|--------|--------|
F#|--------|--------|--------|--------|--------|--------|--------|--------|--------|
 B|--------|--------|--------|--------|--------|--------|--------|--------|--------|


C#|--------|--------|--------|--------|--------|--------|--------|--------|--------|
G#|--------|--------|--------|--------|--------|--------|--------|--------|--------|
 E|--------|--------|--------|--------|--------|--------|--------|--------|--------|
 B|--------|--------|--------|--------|--------|--------|--------|--------|--------|
F#|--------|--------|--------|--------|--------|--------|--------|--------|--------|
 B|--------|--------|--------|--------|--------|--------|--------|--------|--------|


C#|--------|--------|--------|--------|--------|--------|--------|--------|--------|
G#|--------|--------|--------|--------|--------|--------|--------|--------|--------|
 E|--------|--------|--------|--------|--------|--------|--------|--------|--------|
 B|--------|--------|--------|--------|--------|--------|--------|--------|--------|
F#|--------|--------|--------|--------|--------|--------|--------|--------|--------|
 B|--------|--------|--------|--------|--------|--------|--------|--------|--------|


C#|--------|--------|--------|-----------------------------------------------|-------------------------------------------------------------------10-------|
G#|--------|--------|--------|-----------------------------------------------|-------------------------------------------------10-11-10-9--11-13----11-10-|
 E|--------|--------|--------|-----------------------------------------------|-------------------------------------------9--10----------------------------|
 B|--------|--------|--------|-----------------------------------------------|----------------------8--9--11-9--8-----------------------------------------|
F#|--------|--------|--------|-----8--9--8--9--8--9--8--9--8--9--8--9--8--9--|-8--6--6--8--9--10-11----------------9--8-----------------------------------|
 B|--------|--------|--------|-----------------------------------------------|----------------------------------------------------------------------------|


C#|----------------------------------------------------|-------------------------------------------------|
G#|-9--------------------------------------------------|-------------------------------------------------|
 E|----9--10-10-11-10-11-10-11-10-11-10-11-10-11-10-11-|-10-11-10-11-------10-11-------10-11-------10-11-|
 B|----------------------------------------------------|-------------------------------------------------|
F#|----------------------------------------------------|-------------8--9--------9--10-------8--9--------|
 B|----------------------------------------------------|-------------------------------------------------|


C#|-------------13-14-------13-14-------13-14-------|-13-14-16-14-13-17-14-13-16-14-13-17-14-13-16-14-13-------------------|
G#|-------------------------------------------------|----------------------------------------------------16-14-13-14-13----|
 E|-10-11-10-11-------10-11-------10-11-------10-11-|-------------------------------------------------------------------15-|
 B|-------------------------------------------------|----------------------------------------------------------------------|
F#|-------------------------------------------------|----------------------------------------------------------------------|
 B|-------------------------------------------------|----------------------------------------------------------------------|


C#|----------------------------------------------------|-------------13-14-------13-14-------------------|
G#|----------------------------------------------------|-------------------------------------------------|
 E|-13-------10-11-------10-11-------10-11-------10-11-|-------10-11-------10-11-------10-11-------10-11-|
 B|----15-3--------------------------------------------|-------------------------------------------------|
F#|----------------8--9--------8--9--------8--9--------|-8--9--------------------------------8--9--------|
 B|----------------------------------------------------|-------------------------------------------------|


C#|--------------------------|------------------------|------------------------|------------------------|
G#|--------------------------|------------------------|------------------------|------------------------|
 E|--------------------------|------------------------|------------------------|------------------------|
 B|--------------------------|------------------------|------------------------|------------------------|
F#|-8--9---------------------|------------------------|------------------------|------------------------|
 B|-------0----1---0----0----|-1---0----0----1---0----|-0----1---0----0----1---|-0----0----1---0----0---|


C#|---------------------------|------------------------|------------------------|-------------|
G#|---------------------------|------------------------|------------------------|-------------|
 E|---------------------------|------------------------|------------------------|-------------|
 B|---------------------------|------------------------|------------------------|-------------|
F#|---------------------------|------------------------|------------------------|-------------|
 B|-----1---0----0----1---0---|-----0----1---0----0----|-1---0----0----1---0----|-0-----------|


C#|--------|--------|--------|--------|--------|--------|--------|--------|--------|
G#|--------|--------|--------|--------|--------|--------|--------|--------|--------|
 E|--------|--------|--------|--------|--------|--------|--------|--------|--------|
 B|--------|--------|--------|--------|--------|--------|--------|--------|--------|
F#|--------|--------|--------|--------|--------|--------|--------|--------|--------|
 B|--------|--------|--------|--------|--------|--------|--------|--------|--------|


C#|--------|--------|--------|--------|--------|--------|--------|--------|--------|
G#|--------|--------|--------|--------|--------|--------|--------|--------|--------|
 E|--------|--------|--------|--------|--------|--------|--------|--------|--------|
 B|--------|--------|--------|--------|--------|--------|--------|--------|--------|
F#|--------|--------|--------|--------|--------|--------|--------|--------|--------|
 B|--------|--------|--------|--------|--------|--------|--------|--------|--------|


C#|--------|--------|--------|--------|--------|--------|--------|--------|--------|
G#|--------|--------|--------|--------|--------|--------|--------|--------|--------|
 E|--------|--------|--------|--------|--------|--------|--------|--------|--------|
 B|--------|--------|--------|--------|--------|--------|--------|--------|--------|
F#|--------|--------|--------|--------|--------|--------|--------|--------|--------|
 B|--------|--------|--------|--------|--------|--------|--------|--------|--------|


C#|--------|--------|--------|--------|--------|--------|--------|--------|--------|
G#|--------|--------|--------|--------|--------|--------|--------|--------|--------|
 E|--------|--------|--------|--------|--------|--------|--------|--------|--------|
 B|--------|--------|--------|--------|--------|--------|--------|--------|--------|
F#|--------|--------|--------|--------|--------|--------|--------|--------|--------|
 B|--------|--------|--------|--------|--------|--------|--------|--------|--------|





Track 4: Distortion 2

C#|--------|--------|--------|--------|--------|--------|--------|--------|--------|
G#|--------|--------|--------|--------|--------|--------|--------|--------|--------|
 E|--------|--------|--------|--------|--------|--------|--------|--------|--------|
 B|--------|--------|--------|--------|--------|--------|--------|--------|--------|
F#|--------|--------|--------|--------|--------|--------|--------|--------|--------|
 B|--------|--------|--------|--------|--------|--------|--------|--------|--------|


C#|--------|--------|--------|--------|--------|--------|--------|--------|--------|
G#|--------|--------|--------|--------|--------|--------|--------|--------|--------|
 E|--------|--------|--------|--------|--------|--------|--------|--------|--------|
 B|--------|--------|--------|--------|--------|--------|--------|--------|--------|
F#|--------|--------|--------|--------|--------|--------|--------|--------|--------|
 B|--------|--------|--------|--------|--------|--------|--------|--------|--------|


C#|--------|--------|--------|--------|--------|--------|--------|--------|--------|
G#|--------|--------|--------|--------|--------|--------|--------|--------|--------|
 E|--------|--------|--------|--------|--------|--------|--------|--------|--------|
 B|--------|--------|--------|--------|--------|--------|--------|--------|--------|
F#|--------|--------|--------|--------|--------|--------|--------|--------|--------|
 B|--------|--------|--------|--------|--------|--------|--------|--------|--------|


C#|--------|--------|--------|--------|--------|--------|--------|--------|--------|
G#|--------|--------|--------|--------|--------|--------|--------|--------|--------|
 E|--------|--------|--------|--------|--------|--------|--------|--------|--------|
 B|--------|--------|--------|--------|--------|--------|--------|--------|--------|
F#|--------|--------|--------|--------|--------|--------|--------|--------|--------|
 B|--------|--------|--------|--------|--------|--------|--------|--------|--------|


C#|--------|------------|-----------------------------------------------|--------------------------|
G#|--------|------------|-----------------------------------------------|--------------------------|
 E|--------|------------|-----------------------------------------------|--------------------------|
 B|--------|------------|-----------------------------------------------|-------7----1----0----8---|
F#|--------|------------|-----------------------------------------------|-------7----1----0----8---|
 B|--------|------------|-----7--7--7--7--1--1--1--1--0--0--0--0--8--8--|-8--8--7----1----0----8---|


C#|------------------------|------------------------|------------------------|--------|
G#|------------------------|------------------------|------------------------|--------|
 E|------------------------|------------------------|------------------------|--------|
 B|-----7----1----0----8---|-----7----1----0----8---|-----7----1----0----8---|--------|
F#|-----7----1----0----8---|-----7----1----0----8---|-----7----1----0----8---|--------|
 B|-----7----1----0----8---|-----7----1----0----8---|-----7----1----0----8---|--------|


C#|--------|--------|--------|--------|--------|--------|--------|--------|--------|
G#|--------|--------|--------|--------|--------|--------|--------|--------|--------|
 E|--------|--------|--------|--------|--------|--------|--------|--------|--------|
 B|--------|--------|--------|--------|--------|--------|--------|--------|--------|
F#|--------|--------|--------|--------|--------|--------|--------|--------|--------|
 B|--------|--------|--------|--------|--------|--------|--------|--------|--------|


C#|--------|--------|--------|--------|--------|--------|--------|--------|--------|
G#|--------|--------|--------|--------|--------|--------|--------|--------|--------|
 E|--------|--------|--------|--------|--------|--------|--------|--------|--------|
 B|--------|--------|--------|--------|--------|--------|--------|--------|--------|
F#|--------|--------|--------|--------|--------|--------|--------|--------|--------|
 B|--------|--------|--------|--------|--------|--------|--------|--------|--------|


C#|--------|--------|--------|--------|--------|--------|--------|--------|--------|
G#|--------|--------|--------|--------|--------|--------|--------|--------|--------|
 E|--------|--------|--------|--------|--------|--------|--------|--------|--------|
 B|--------|--------|--------|--------|--------|--------|--------|--------|--------|
F#|--------|--------|--------|--------|--------|--------|--------|--------|--------|
 B|--------|--------|--------|--------|--------|--------|--------|--------|--------|


C#|--------|--------|--------|--------|--------|--------|--------|--------|--------|
G#|--------|--------|--------|--------|--------|--------|--------|--------|--------|
 E|--------|--------|--------|--------|--------|--------|--------|--------|--------|
 B|--------|--------|--------|--------|--------|--------|--------|--------|--------|
F#|--------|--------|--------|--------|--------|--------|--------|--------|--------|
 B|--------|--------|--------|--------|--------|--------|--------|--------|--------|


C#|--------------------|---------------------------------|---------------------------|
G#|--------------------|---------------------------------|---------------------------|
 E|--------------------|---------------------------------|---------------------------|
 B|-----------3----6---|-1---1---0-------------------6---|-1---1---0-----------0-----|
F#|-----------3----6---|-1---1---0---0---0---3---3---6---|-1---1---0---0---0---0-----|
 B|-----------3----6---|-1---1---0---0---0---3---3---6---|-1---1---0---0---0---0-----|


C#|-----------------|--------------------|---------------------------------|---------------------------|
G#|-----------------|--------------------|---------------------------------|---------------------------|
 E|-----------------|--------------------|---------------------------------|---------------------------|
 B|-------1---1-----|-------0---3----6---|-1---1---0-------------------6---|-1---1---0-----------0-----|
F#|-------1---1-----|-------0---3----6---|-1---1---0---0---0---3---3---6---|-1---1---0---0---0---0-----|
 B|-------1---1-----|-------0---3----6---|-1---1---0---0---0---3---3---6---|-1---1---0---0---0---0-----|


C#|-----------------|-----------------|--------|--------|--------|--------------------|
G#|-----------------|-----------------|--------|--------|--------|--------------------|
 E|-----------------|-----------------|--------|--------|--------|--------------------|
 B|-------1---1-----|-------0---------|--------|--------|--------|-----------3----6---|
F#|-------1---1-----|-------0---------|--------|--------|--------|-----------3----6---|
 B|-------1---1-----|-------0---------|--------|--------|--------|-----------3----6---|


C#|---------------------------------|------------------------------|---------------------------|
G#|---------------------------------|------------------------------|---------------------------|
 E|---------------------------------|------------------------------|---------------------------|
 B|-1---1---0-------------------6---|-1---1---0-----------0----0---|-0---0---0---0---1---1-----|
F#|-1---1---0---0---0---3---3---6---|-1---1---0---0---0---0----0---|-0---0---0---0---1---1-----|
 B|-1---1---0---0---0---3---3---6---|-1---1---0---0---0---0----0---|-0---0---0---0---1---1-----|


C#|-------------------|--------|--------|--------|--------|--------|--------|--------|
G#|-------------------|--------|--------|--------|--------|--------|--------|--------|
 E|-------------------|--------|--------|--------|--------|--------|--------|--------|
 B|-------0--0--------|--------|--------|--------|--------|--------|--------|--------|
F#|-------0--0--------|--------|--------|--------|--------|--------|--------|--------|
 B|-------0--0--------|--------|--------|--------|--------|--------|--------|--------|


C#|--------|--------|--------|
G#|--------|--------|--------|
 E|--------|--------|--------|
 B|--------|--------|--------|
F#|--------|--------|--------|
 B|--------|--------|--------|





Track 5: Distortion 1

C#|--------|--------|--------|--------|--------|--------|--------|--------|--------|
G#|--------|--------|--------|--------|--------|--------|--------|--------|--------|
 E|--------|--------|--------|--------|--------|--------|--------|--------|--------|
 B|--------|--------|--------|--------|--------|--------|--------|--------|--------|
F#|--------|--------|--------|--------|--------|--------|--------|--------|--------|
 B|--------|--------|--------|--------|--------|--------|--------|--------|--------|


C#|--------|--------|--------|--------|--------|--------|--------|--------|--------|
G#|--------|--------|--------|--------|--------|--------|--------|--------|--------|
 E|--------|--------|--------|--------|--------|--------|--------|--------|--------|
 B|--------|--------|--------|--------|--------|--------|--------|--------|--------|
F#|--------|--------|--------|--------|--------|--------|--------|--------|--------|
 B|--------|--------|--------|--------|--------|--------|--------|--------|--------|


C#|--------|--------|--------|--------|--------|--------|--------|--------|--------|
G#|--------|--------|--------|--------|--------|--------|--------|--------|--------|
 E|--------|--------|--------|--------|--------|--------|--------|--------|--------|
 B|--------|--------|--------|--------|--------|--------|--------|--------|--------|
F#|--------|--------|--------|--------|--------|--------|--------|--------|--------|
 B|--------|--------|--------|--------|--------|--------|--------|--------|--------|


C#|--------|--------|--------|--------|--------|--------|--------|--------|--------|
G#|--------|--------|--------|--------|--------|--------|--------|--------|--------|
 E|--------|--------|--------|--------|--------|--------|--------|--------|--------|
 B|--------|--------|--------|--------|--------|--------|--------|--------|--------|
F#|--------|--------|--------|--------|--------|--------|--------|--------|--------|
 B|--------|--------|--------|--------|--------|--------|--------|--------|--------|


C#|--------|--------|--------|--------|--------|--------|--------|------------------------------|
G#|--------|--------|--------|--------|--------|--------|--------|------------------------------|
 E|--------|--------|--------|--------|--------|--------|--------|------------------------------|
 B|--------|--------|--------|--------|--------|--------|--------|-----3----6---1---1---0-------|
F#|--------|--------|--------|--------|--------|--------|--------|-----3----6---1---1---0---0---|
 B|--------|--------|--------|--------|--------|--------|--------|-----3----6---1---1---0---0---|


C#|---------------------------------|------------|------------|------------------------------|
G#|---------------------------------|------------|------------|------------------------------|
 E|---------------------------------|------------|------------|------------------------------|
 B|-------------6---1---1---0-------|-----0------|-1---1------|-0---3----6---1---1---0-------|
F#|-0---3---3---6---1---1---0---0---|-0---0------|-1---1------|-0---3----6---1---1---0---0---|
 B|-0---3---3---6---1---1---0---0---|-0---0------|-1---1------|-0---3----6---1---1---0---0---|


C#|---------------------------------|------------|------------|----------------|--------|
G#|---------------------------------|------------|------------|----------------|--------|
 E|---------------------------------|------------|------------|----------------|--------|
 B|-------------6---1---1---0-------|-----0------|-1---1------|-0--------------|--------|
F#|-0---3---3---6---1---1---0---0---|-0---0------|-1---1------|-0--------------|--------|
 B|-0---3---3---6---1---1---0---0---|-0---0------|-1---1------|-0--------------|--------|


C#|--------|--------|--------|--------|--------|--------|--------|--------|--------|
G#|--------|--------|--------|--------|--------|--------|--------|--------|--------|
 E|--------|--------|--------|--------|--------|--------|--------|--------|--------|
 B|--------|--------|--------|--------|--------|--------|--------|--------|--------|
F#|--------|--------|--------|--------|--------|--------|--------|--------|--------|
 B|--------|--------|--------|--------|--------|--------|--------|--------|--------|


C#|--------|--------|--------|--------|--------|--------|--------|--------|--------|
G#|--------|--------|--------|--------|--------|--------|--------|--------|--------|
 E|--------|--------|--------|--------|--------|--------|--------|--------|--------|
 B|--------|--------|--------|--------|--------|--------|--------|--------|--------|
F#|--------|--------|--------|--------|--------|--------|--------|--------|--------|
 B|--------|--------|--------|--------|--------|--------|--------|--------|--------|


C#|--------|--------|--------|--------|--------|--------|--------|--------|--------|
G#|--------|--------|--------|--------|--------|--------|--------|--------|--------|
 E|--------|--------|--------|--------|--------|--------|--------|--------|--------|
 B|--------|--------|--------|--------|--------|--------|--------|--------|--------|
F#|--------|--------|--------|--------|--------|--------|--------|--------|--------|
 B|--------|--------|--------|--------|--------|--------|--------|--------|--------|


C#|--------|--------|--------|--------|--------|--------|--------|--------|--------|
G#|--------|--------|--------|--------|--------|--------|--------|--------|--------|
 E|--------|--------|--------|--------|--------|--------|--------|--------|--------|
 B|--------|--------|--------|--------|--------|--------|--------|--------|--------|
F#|--------|--------|--------|--------|--------|--------|--------|--------|--------|
 B|--------|--------|--------|--------|--------|--------|--------|--------|--------|


C#|--------|--------|--------|--------|--------|--------|--------|--------|--------|
G#|--------|--------|--------|--------|--------|--------|--------|--------|--------|
 E|--------|--------|--------|--------|--------|--------|--------|--------|--------|
 B|--------|--------|--------|--------|--------|--------|--------|--------|--------|
F#|--------|--------|--------|--------|--------|--------|--------|--------|--------|
 B|--------|--------|--------|--------|--------|--------|--------|--------|--------|


C#|--------|--------|--------|--------|--------|--------|--------|--------|--------|
G#|--------|--------|--------|--------|--------|--------|--------|--------|--------|
 E|--------|--------|--------|--------|--------|--------|--------|--------|--------|
 B|--------|--------|--------|--------|--------|--------|--------|--------|--------|
F#|--------|--------|--------|--------|--------|--------|--------|--------|--------|
 B|--------|--------|--------|--------|--------|--------|--------|--------|--------|





Track 6: Pick Scrapes

C#|--------|--------|--------|--------|--------|--------|--------|--------|--------|
G#|--------|--------|--------|--------|--------|--------|--------|--------|--------|
 E|--------|--------|--------|--------|--------|--------|--------|--------|--------|
 B|--------|--------|--------|--------|--------|--------|--------|--------|--------|
F#|--------|--------|--------|--------|--------|--------|--------|--------|--------|
 B|--------|--------|--------|--------|--------|--------|--------|--------|--------|


C#|--------|--------|--------|--------|--------|--------|--------|--------|--------|
G#|--------|--------|--------|--------|--------|--------|--------|--------|--------|
 E|--------|--------|--------|--------|--------|--------|--------|--------|--------|
 B|--------|--------|--------|--------|--------|--------|--------|--------|--------|
F#|--------|--------|--------|--------|--------|--------|--------|--------|--------|
 B|--------|--------|--------|--------|--------|--------|--------|--------|--------|


C#|--------|--------|--------|--------|--------|--------|--------|--------|--------|
G#|--------|--------|--------|--------|--------|--------|--------|--------|--------|
 E|--------|--------|--------|--------|--------|--------|--------|--------|--------|
 B|--------|--------|--------|--------|--------|--------|--------|--------|--------|
F#|--------|--------|--------|--------|--------|--------|--------|--------|--------|
 B|--------|--------|--------|--------|--------|--------|--------|--------|--------|


C#|--------|--------|--------|--------|--------|--------|--------|--------|--------|
G#|--------|--------|--------|--------|--------|--------|--------|--------|--------|
 E|--------|--------|--------|--------|--------|--------|--------|--------|--------|
 B|--------|--------|--------|--------|--------|--------|--------|--------|--------|
F#|--------|--------|--------|--------|--------|--------|--------|--------|--------|
 B|--------|--------|--------|--------|--------|--------|--------|--------|--------|


C#|--------|--------|--------|--------|--------|--------|--------|--------|--------|
G#|--------|--------|--------|--------|--------|--------|--------|--------|--------|
 E|--------|--------|--------|--------|--------|--------|--------|--------|--------|
 B|--------|--------|--------|--------|--------|--------|--------|--------|--------|
F#|--------|--------|--------|--------|--------|--------|--------|--------|--------|
 B|--------|--------|--------|--------|--------|--------|--------|--------|--------|


C#|--------|--------|--------|--------|--------|--------|--------|--------|--------|
G#|--------|--------|--------|--------|--------|--------|--------|--------|--------|
 E|--------|--------|--------|--------|--------|--------|--------|--------|--------|
 B|--------|--------|--------|--------|--------|--------|--------|--------|--------|
F#|--------|--------|--------|--------|--------|--------|--------|--------|--------|
 B|--------|--------|--------|--------|--------|--------|--------|--------|--------|


C#|--------|--------|--------|--------|--------|--------|--------|--------|--------|
G#|--------|--------|--------|--------|--------|--------|--------|--------|--------|
 E|--------|--------|--------|--------|--------|--------|--------|--------|--------|
 B|--------|--------|--------|--------|--------|--------|--------|--------|--------|
F#|--------|--------|--------|--------|--------|--------|--------|--------|--------|
 B|--------|--------|--------|--------|--------|--------|--------|--------|--------|


C#|--------|--------|--------|--------|--------|--------|--------|----------------|
G#|--------|--------|--------|--------|--------|--------|--------|----------------|
 E|--------|--------|--------|--------|--------|--------|--------|----------------|
 B|--------|--------|--------|--------|--------|--------|--------|-----0----------|
F#|--------|--------|--------|--------|--------|--------|--------|----------------|
 B|--------|--------|--------|--------|--------|--------|--------|----------------|


C#|--------|--------|--------|--------|--------|--------|--------|--------|--------|
G#|--------|--------|--------|--------|--------|--------|--------|--------|--------|
 E|--------|--------|--------|--------|--------|--------|--------|--------|--------|
 B|--------|--------|--------|--------|--------|--------|--------|--------|--------|
F#|--------|--------|--------|--------|--------|--------|--------|--------|--------|
 B|--------|--------|--------|--------|--------|--------|--------|--------|--------|


C#|--------|--------|--------|--------|--------|--------|--------|--------|--------|
G#|--------|--------|--------|--------|--------|--------|--------|--------|--------|
 E|--------|--------|--------|--------|--------|--------|--------|--------|--------|
 B|--------|--------|--------|--------|--------|--------|--------|--------|--------|
F#|--------|--------|--------|--------|--------|--------|--------|--------|--------|
 B|--------|--------|--------|--------|--------|--------|--------|--------|--------|


C#|--------|--------|--------|--------|--------|--------|--------|--------|--------|
G#|--------|--------|--------|--------|--------|--------|--------|--------|--------|
 E|--------|--------|--------|--------|--------|--------|--------|--------|--------|
 B|--------|--------|--------|--------|--------|--------|--------|--------|--------|
F#|--------|--------|--------|--------|--------|--------|--------|--------|--------|
 B|--------|--------|--------|--------|--------|--------|--------|--------|--------|


C#|--------|--------|--------|--------|--------|--------|--------|--------|--------|
G#|--------|--------|--------|--------|--------|--------|--------|--------|--------|
 E|--------|--------|--------|--------|--------|--------|--------|--------|--------|
 B|--------|--------|--------|--------|--------|--------|--------|--------|--------|
F#|--------|--------|--------|--------|--------|--------|--------|--------|--------|
 B|--------|--------|--------|--------|--------|--------|--------|--------|--------|





Track 7: Distortion 1

C#|--------|--------|--------|--------|--------|--------|--------|--------|--------|
G#|--------|--------|--------|--------|--------|--------|--------|--------|--------|
 E|--------|--------|--------|--------|--------|--------|--------|--------|--------|
 B|--------|--------|--------|--------|--------|--------|--------|--------|--------|
F#|--------|--------|--------|--------|--------|--------|--------|--------|--------|
 B|--------|--------|--------|--------|--------|--------|--------|--------|--------|


C#|--------|--------|--------|--------|--------|--------|--------|--------|--------|
G#|--------|--------|--------|--------|--------|--------|--------|--------|--------|
 E|--------|--------|--------|--------|--------|--------|--------|--------|--------|
 B|--------|--------|--------|--------|--------|--------|--------|--------|--------|
F#|--------|--------|--------|--------|--------|--------|--------|--------|--------|
 B|--------|--------|--------|--------|--------|--------|--------|--------|--------|


C#|--------|--------|--------|--------|--------|--------|--------|--------|--------|
G#|--------|--------|--------|--------|--------|--------|--------|--------|--------|
 E|--------|--------|--------|--------|--------|--------|--------|--------|--------|
 B|--------|--------|--------|--------|--------|--------|--------|--------|--------|
F#|--------|--------|--------|--------|--------|--------|--------|--------|--------|
 B|--------|--------|--------|--------|--------|--------|--------|--------|--------|


C#|--------|--------|--------|--------|--------|--------|--------|--------|--------|
G#|--------|--------|--------|--------|--------|--------|--------|--------|--------|
 E|--------|--------|--------|--------|--------|--------|--------|--------|--------|
 B|--------|--------|--------|--------|--------|--------|--------|--------|--------|
F#|--------|--------|--------|--------|--------|--------|--------|--------|--------|
 B|--------|--------|--------|--------|--------|--------|--------|--------|--------|


C#|--------|--------|--------|--------|--------|--------|--------|--------|--------|
G#|--------|--------|--------|--------|--------|--------|--------|--------|--------|
 E|--------|--------|--------|--------|--------|--------|--------|--------|--------|
 B|--------|--------|--------|--------|--------|--------|--------|--------|--------|
F#|--------|--------|--------|--------|--------|--------|--------|--------|--------|
 B|--------|--------|--------|--------|--------|--------|--------|--------|--------|


C#|--------|--------|--------|--------|--------|--------|--------|--------|--------|
G#|--------|--------|--------|--------|--------|--------|--------|--------|--------|
 E|--------|--------|--------|--------|--------|--------|--------|--------|--------|
 B|--------|--------|--------|--------|--------|--------|--------|--------|--------|
F#|--------|--------|--------|--------|--------|--------|--------|--------|--------|
 B|--------|--------|--------|--------|--------|--------|--------|--------|--------|


C#|--------|--------|--------|--------|--------|--------|--------|--------|--------|
G#|--------|--------|--------|--------|--------|--------|--------|--------|--------|
 E|--------|--------|--------|--------|--------|--------|--------|--------|--------|
 B|--------|--------|--------|--------|--------|--------|--------|--------|--------|
F#|--------|--------|--------|--------|--------|--------|--------|--------|--------|
 B|--------|--------|--------|--------|--------|--------|--------|--------|--------|


C#|--------|--------|--------|--------|--------|--------|--------|---------------------|
G#|--------|--------|--------|--------|--------|--------|--------|---------------------|
 E|--------|--------|--------|--------|--------|--------|--------|---------------------|
 B|--------|--------|--------|--------|--------|--------|--------|---------------------|
F#|--------|--------|--------|--------|--------|--------|--------|---------------------|
 B|--------|--------|--------|--------|--------|--------|--------|------1---0----------|


C#|--------|--------|--------|--------|--------|--------|--------|--------|--------|
G#|--------|--------|--------|--------|--------|--------|--------|--------|--------|
 E|--------|--------|--------|--------|--------|--------|--------|--------|--------|
 B|--------|--------|--------|--------|--------|--------|--------|--------|--------|
F#|--------|--------|--------|--------|--------|--------|--------|--------|--------|
 B|--------|--------|--------|--------|--------|--------|--------|--------|--------|


C#|--------|--------|--------|--------|--------|--------|--------|--------|--------|
G#|--------|--------|--------|--------|--------|--------|--------|--------|--------|
 E|--------|--------|--------|--------|--------|--------|--------|--------|--------|
 B|--------|--------|--------|--------|--------|--------|--------|--------|--------|
F#|--------|--------|--------|--------|--------|--------|--------|--------|--------|
 B|--------|--------|--------|--------|--------|--------|--------|--------|--------|


C#|--------|--------|--------|--------|--------|--------|--------|--------|--------|
G#|--------|--------|--------|--------|--------|--------|--------|--------|--------|
 E|--------|--------|--------|--------|--------|--------|--------|--------|--------|
 B|--------|--------|--------|--------|--------|--------|--------|--------|--------|
F#|--------|--------|--------|--------|--------|--------|--------|--------|--------|
 B|--------|--------|--------|--------|--------|--------|--------|--------|--------|


C#|--------|--------|--------|--------|--------|--------|--------|--------|--------|
G#|--------|--------|--------|--------|--------|--------|--------|--------|--------|
 E|--------|--------|--------|--------|--------|--------|--------|--------|--------|
 B|--------|--------|--------|--------|--------|--------|--------|--------|--------|
F#|--------|--------|--------|--------|--------|--------|--------|--------|--------|
 B|--------|--------|--------|--------|--------|--------|--------|--------|--------|





Track 8: Untitled

G|--------|--------|--------|--------|--------|--------|--------|--------|--------|
D|--------|--------|--------|--------|--------|--------|--------|--------|--------|
A|--------|--------|--------|--------|--------|--------|--------|--------|--------|
E|--------|--------|--------|--------|--------|--------|--------|--------|--------|


G|--------|--------|--------|--------|--------|--------|--------|--------|--------|
D|--------|--------|--------|--------|--------|--------|--------|--------|--------|
A|--------|--------|--------|--------|--------|--------|--------|--------|--------|
E|--------|--------|--------|--------|--------|--------|--------|--------|--------|


G|--------|--------|--------|--------|--------|--------|--------|--------|--------|
D|--------|--------|--------|--------|--------|--------|--------|--------|--------|
A|--------|--------|--------|--------|--------|--------|--------|--------|--------|
E|--------|--------|--------|--------|--------|--------|--------|--------|--------|


G|--------|--------|--------|--------|--------|--------|--------|--------|--------|
D|--------|--------|--------|--------|--------|--------|--------|--------|--------|
A|--------|--------|--------|--------|--------|--------|--------|--------|--------|
E|--------|--------|--------|--------|--------|--------|--------|--------|--------|


G|--------|--------|--------|--------|--------|--------|--------|--------|--------|
D|--------|--------|--------|--------|--------|--------|--------|--------|--------|
A|--------|--------|--------|--------|--------|--------|--------|--------|--------|
E|--------|--------|--------|--------|--------|--------|--------|--------|--------|


G|--------|--------|--------|--------|--------|--------|--------|--------|--------|
D|--------|--------|--------|--------|--------|--------|--------|--------|--------|
A|--------|--------|--------|--------|--------|--------|--------|--------|--------|
E|--------|--------|--------|--------|--------|--------|--------|--------|--------|


G|--------|--------|--------|--------|--------|--------|--------|--------|--------|
D|--------|--------|--------|--------|--------|--------|--------|--------|--------|
A|--------|--------|--------|--------|--------|--------|--------|--------|--------|
E|--------|--------|--------|--------|--------|--------|--------|--------|--------|


G|--------|--------|--------|--------|--------|--------|--------|--------|--------|
D|--------|--------|--------|--------|--------|--------|--------|--------|--------|
A|--------|--------|--------|--------|--------|--------|--------|--------|--------|
E|--------|--------|--------|--------|--------|--------|--------|--------|--------|


G|--------|--------|--------|--------|--------|--------|--------|--------|--------|
D|--------|--------|--------|--------|--------|--------|--------|--------|--------|
A|--------|--------|--------|--------|--------|--------|--------|--------|--------|
E|--------|--------|--------|--------|--------|--------|--------|--------|--------|


G|--------|--------|--------|--------|--------|--------|--------|--------|--------|
D|--------|--------|--------|--------|--------|--------|--------|--------|--------|
A|--------|--------|--------|--------|--------|--------|--------|--------|--------|
E|--------|--------|--------|--------|--------|--------|--------|--------|--------|


G|--------|--------|--------|--------|--------|--------|--------|--------|--------|
D|--------|--------|--------|--------|--------|--------|--------|--------|--------|
A|--------|--------|--------|--------|--------|--------|--------|--------|--------|
E|--------|--------|--------|--------|--------|--------|--------|--------|--------|


G|--------|--------|--------|--------|--------|--------|--------|--------|
D|--------|--------|--------|--------|--------|--------|--------|--------|
A|--------|--------|--------|--------|--------|--------|--------|--------|
E|--------|--------|--------|--------|--------|--------|--------|--------|