Menu:

 

Search:

 

slipknot - only one:

 



Title: Only One
Artist: 
Album: Slipknot
Author: Slipknot


Track 1: Guitar 1

C#|--------|--------|--------|--------|--------|--------|-------------|---------------------------|
G#|--------|--------|--------|--------|--------|--------|-------------|---------------------------|
 E|--------|--------|--------|--------|--------|--------|-------------|---------------------------|
 B|--------|--------|--------|--------|--------|--------|-------------|------3---2---2------------|
F#|--------|-1------|--------|-1------|--------|-1------|-1-----------|-0----1---0---0---3----2---|
 B|-3------|--------|-3------|--------|-3------|--------|-------------|-0----------------3----2---|


C#|---------------------------|---------------------------|---------------------------|
G#|---------------------------|---------------------------|---------------------------|
 E|---------------------------|---------------------------|---------------------------|
 B|-3----------------2--------|------3---2---2------------|-3----------------2--------|
F#|-1----2---1---1---0----1---|-0----1---0---0---3----2---|-1----2---1---1---0----1---|
 B|------2---1---1--------1---|-0----------------3----2---|------2---1---1--------1---|


C#|---------------------------|---------------------------|---------------------------|
G#|---------------------------|---------------------------|---------------------------|
 E|---------------------------|---------------------------|---------------------------|
 B|------3---2---2------------|-3----------------2--------|------3---2---2------------|
F#|-0----1---0---0---3----2---|-1----2---1---1---0----1---|-0----1---0---0---3----2---|
 B|-0----------------3----2---|------2---1---1--------1---|-0----------------3----2---|


C#|---------------------------------|--------|-----------4----4---|-4------------------|
G#|---------------------------------|--------|-----------4--------|--------------------|
 E|---------------------------------|--------|-----------3--------|------3-------------|
 B|-3------------------2----2-------|--------|-----------3--------|------3-------------|
F#|-1----2--2---1---1--0----0---1---|--------|--------------------|----------2---2-----|
 B|------2--2---1---1-----------1---|--------|--------------------|----------2---2-----|


C#|-----------4----4---|-4---4-----------------|-----------4----4---|-4------------------|
G#|-----------4--------|-----------------------|-----------4--------|--------------------|
 E|-----------3--------|---------3-------------|-----------3--------|------3-------------|
 B|-----------3--------|---------3-------------|-----------3--------|------3-------------|
F#|-2-----2------------|-------------2---2-----|-2-----2------------|----------2---2-----|
 B|-2-----2------------|-------------2---2-----|-2-----2------------|----------2---2-----|


C#|---------------------------------|-4----------------4----4---|-4------------------4----4---|
G#|------------------------------4--|------------------4--------|--------------------4--------|
 E|---------------------------------|------------------3--------|--------------------3--------|
 B|-3------------------2----2-------|------3-----------3--------|------3--3----------3--------|
F#|-1----2--2---1---1--0----0-------|----------2---2------------|------------2---2------------|
 B|------2--2---1---1---------------|----------2---2------------|------------2---2------------|


C#|-4------------------4-----|---------------------------------|---------------------------|
G#|--------------------4-----|---------------------------------|---------------------------|
 E|--------------------3-----|---------------------------------|---------------------------|
 B|------3--3----------3-----|-3------------------2----2-------|------3---2---2------------|
F#|------------2---2---------|-1----2--2---1---1--0----0---1---|-0----1---0---0---3----2---|
 B|------------0---0---------|------2--2---1---1-----------1---|-0----------------3----2---|


C#|---------------------------|---------------------------|---------------------------------|
G#|---------------------------|---------------------------|---------------------------------|
 E|---------------------------|---------------------------|---------------------------------|
 B|-3----------------2--------|------3---2---2------------|-3------------------2----2-------|
F#|-1----2---1---1---0----1---|-0----1---0---0---3----2---|-1----2--2---1---1--0----0---1---|
 B|------2---1---1--------1---|-0----------------3----2---|------2--2---1---1-----------1---|


C#|-------------------------------------|-------------------------------------|-------------------------------------|
G#|-------------------------------------|-------------------------------------|-------------------------------------|
 E|-------------------------------------|-------------------------------------|-------------------------------------|
 B|-------------------------------------|-------------------------------------|-------------------------------------|
F#|-----------5---6-------------5---6---|-----------5---6-------------5---6---|-----------5---6-------------5---6---|
 B|-3--0---0--5---6---3--0---0--5---6---|-3--0---0--5---6---3--0---0--5---6---|-3--0---0--5---6---3--0---0--5---6---|


C#|-------------------------------------|------------------------------|------------------------------|
G#|-------------------------------------|------------------------------|------------------------------|
 E|-------------------------------------|------------------------------|------------------------------|
 B|-------------------------------------|------------------------------|------------------------------|
F#|-----------5---6-------------5---6---|--------------5---3-----------|---------5---3----------------|
 B|-3--0---0--5---6---3--0---0--5---6---|-1---0----3-----------1---0---|-----3-----------1---0----3---|


C#|---------------------------------|------------------------------|------------------------------|
G#|---------------------------------|------------------------------|------------------------------|
 E|---------------------------------|------------------------------|------------------------------|
 B|---------------------------------|------------------------------|------------------------------|
F#|-5---3---1---2---1---2---3---2---|-1------------5---3-----------|---------5---3----------------|
 B|---------1---2---1---2---3---2---|-1---0----3-----------1---0---|-----3-----------1---0----3---|


C#|---------------------------------|------------------------------|------------------------------|
G#|---------------------------------|------------------------------|------------------------------|
 E|---------------------------------|------------------------------|------------------------------|
 B|---------------------------------|------------------------------|------------------------------|
F#|-5---3---1---2---1---2---3---2---|-1------------5---3-----------|---------5---3----------------|
 B|---------1---2---1---2---3---2---|-1---0----3-----------1---0---|-----3-----------1---0----3---|


C#|---------------------------------|------------------------------|------------------------------|
G#|---------------------------------|------------------------------|------------------------------|
 E|---------------------------------|------------------------------|------------------------------|
 B|---------------------------------|------------------------------|------------------------------|
F#|-5---3---1---2---1---2---3---2---|-1------------5---3-----------|---------5---3----------------|
 B|---------1---2---1---2---3---2---|-1---0----3-----------1---0---|-----3-----------1---0----3---|


C#|---------------------------------|---------------------------|-------------|------------------------------|
G#|---------------------------------|---------------------------|-------------|------------------------------|
 E|---------------------------------|---------------------------|-------------|------------------------------|
 B|---------------------------------|---------------------------|-------------|------------------------------|
F#|-5---3---1---2---1---2---3---2---|-1---2---3---2-------------|-------------|------1---0---1---3---4---3---|
 B|---------1---2---1---2---3---2---|-1---2---3---2-------------|-------------|------1---0---1---3---4---3---|


C#|---------------------------------|---------------------------------|---------------------------------|
G#|---------------------------------|---------------------------------|---------------------------------|
 E|---------------------------------|---------------------------------|---------------------------------|
 B|---------------------------------|---------------------------------|---------------------------------|
F#|-1---3---1---0---1---3---4---3---|-1---3---1---0---1---3---4---3---|-1---3---1---0---1---3---4---3---|
 B|-1---3---1---0---1---3---4---3---|-1---3---1---0---1---3---4---3---|-1---3---1---0---1---3---4---3---|


C#|---------------------------------|---------------------------------|---------------------------------|
G#|---------------------------------|---------------------------------|---------------------------------|
 E|---------------------------------|---------------------------------|---------------------------------|
 B|---------------------------------|---------------------------------|---------------------------------|
F#|-1---3---1---0---1---3---4---3---|-1---3---1---0---1---3---4---3---|-1---3---1---0---1---3---4---3---|
 B|-1---3---1---0---1---3---4---3---|-1---3---1---0---1---3---4---3---|-1---3---1---0---1---3---4---3---|


C#|---------------------------------|---------------------------------|---------------------------------|
G#|---------------------------------|---------------------------------|---------------------------------|
 E|---------------------------------|---------------------------------|---------------------------------|
 B|---------------------------------|---------------------------------|---------------------------------|
F#|-1---3---1---0---1---3---4---3---|-1---3---1---0---1---3---4---3---|-1---3---1---0---1---3---4---3---|
 B|-1---3---1---0---1---3---4---3---|-1---3---1---0---1---3---4---3---|-1---3---1---0---1---3---4---3---|


C#|------------------------------|---------------------------|------------------------------|
G#|------------------------------|---------------------------|------------------------------|
 E|------------------------------|---------------------------|------------------------------|
 B|------------------------------|---------------------------|------------------------------|
F#|-1---3----------------5---3---|-----------------------5---|-3----------------5---3-------|
 B|-1---3---1---0----3-----------|-1---0----3---0----3-------|-----1---0----3-----------1---|


C#|------------------------------|------------------------------|------------------------------|
G#|------------------------------|------------------------------|------------------------------|
 E|------------------------------|------------------------------|------------------------------|
 B|------------------------------|------------------------------|------------------------------|
F#|----------5---3---1---2---1---|-2---3---2---1------------5---|-3----------------5---3-------|
 B|-0----3-----------1---2---1---|-2---3---2---1---0----3-------|-----1---0----3-----------1---|


C#|------------------------------|------------------------------|------------------------------|
G#|------------------------------|------------------------------|------------------------------|
 E|------------------------------|------------------------------|------------------------------|
 B|------------------------------|------------------------------|------------------------------|
F#|----------5---3---1---2---1---|-2---3---2---1------------5---|-3----------------5---3-------|
 B|-0----3-----------1---2---1---|-2---3---2---1---0----3-------|-----1---0----3-----------1---|


C#|------------------------------|------------------------------|------------------------------|
G#|------------------------------|------------------------------|------------------------------|
 E|------------------------------|------------------------------|------------------------------|
 B|------------------------------|------------------------------|------------------------------|
F#|----------5---3---1---2---1---|-2---3---2---1------------5---|-3----------------5---3-------|
 B|-0----3-----------1---2---1---|-2---3---2---1---0----3-------|-----1---0----3-----------1---|


C#|------------------------------|------------------------------|-----------------|
G#|------------------------------|------------------------------|-----------------|
 E|------------------------------|------------------------------|-----------------|
 B|------------------------------|------------------------------|-----------------|
F#|----------5---3---1---2---1---|-2---3---2---1---2---3---2----|-----------------|
 B|-0----3-----------1---2---1---|-2---3---2---1---2---3---2----|-----------------|


C#|--------|--------|-----------------------|---------------------------------|---------------------------------|
G#|--------|--------|-----------------------|---------------------------------|---------------------------------|
 E|--------|--------|-----------------------|---------------------------------|---------------------------------|
 B|--------|--------|-----------------------|---------------------------------|---------------------------------|
F#|--------|--------|-----------1---0---1---|-3---4---3---1---3---1---0---1---|-3---4---3---1---3---1---0---1---|
 B|--------|--------|-----------1---0---1---|-3---4---3---1---3---1---0---1---|-3---4---3---1---3---1---0---1---|


C#|---------------------------------|---------------------------------|---------------------------------|
G#|---------------------------------|---------------------------------|---------------------------------|
 E|---------------------------------|---------------------------------|---------------------------------|
 B|---------------------------------|---------------------------------|---------------------------------|
F#|-3---4---3---1---3---1---0---1---|-3---4---3---1---3---1---0---1---|-3---4---3---1---3---1---0---1---|
 B|-3---4---3---1---3---1---0---1---|-3---4---3---1---3---1---0---1---|-3---4---3---1---3---1---0---1---|


C#|---------------------------------|---------------------------------|---------------------------------|
G#|---------------------------------|---------------------------------|---------------------------------|
 E|---------------------------------|---------------------------------|---------------------------------|
 B|---------------------------------|---------------------------------|---------------------------------|
F#|-3---4---3---1---3---1---0---1---|-3---4---3---1---3---1---0---1---|-3---4---3---1---3---1---0---1---|
 B|-3---4---3---1---3---1---0---1---|-3---4---3---1---3---1---0---1---|-3---4---3---1---3---1---0---1---|


C#|---------------------------------|---------------------------------|---------------------------------|
G#|---------------------------------|---------------------------------|---------------------------------|
 E|---------------------------------|---------------------------------|---------------------------------|
 B|---------------------------------|---------------------------------|---------------------------------|
F#|-3---4---3---1---3---1---0---1---|-3---4---3---1---3---1---0---1---|-3---4---3---1---3---1---0---1---|
 B|-3---4---3---1---3---1---0---1---|-3---4---3---1---3---1---0---1---|-3---4---3---1---3---1---0---1---|


C#|---------------------------------|-----------------|--------|
G#|---------------------------------|-----------------|--------|
 E|---------------------------------|-----------------|--------|
 B|---------------------------------|-----------------|--------|
F#|-3---4---3---1---3---1---0-------|-----------------|--------|
 B|-3---4---3---1---3---1---0-------|-----------------|--------|





Track 2: Guiatr 2

C#|--------|-17-----|--------|-17-----|--------|-17-----|-17----------|---------------------------|
G#|-17-----|--------|-17-----|--------|-17-----|--------|-------------|---------------------------|
 E|--------|--------|--------|--------|--------|--------|-------------|---------------------------|
 B|--------|--------|--------|--------|--------|--------|-------------|------3---2---2------------|
F#|--------|--------|--------|--------|--------|--------|-------------|-0----1---0---0---3----2---|
 B|--------|--------|--------|--------|--------|--------|-------------|-0----------------3----2---|


C#|--------|--------|--------|--------|--------|--------|--------|--------|--------|
G#|--------|--------|--------|--------|--------|--------|--------|--------|--------|
 E|--------|--------|--------|--------|--------|--------|--------|--------|--------|
 B|--------|--------|--------|--------|--------|--------|--------|--------|--------|
F#|--------|--------|--------|--------|--------|--------|--------|--------|--------|
 B|--------|--------|--------|--------|--------|--------|--------|--------|--------|


C#|--------|--------|--------|--------|--------|--------|--------|--------|--------|
G#|--------|--------|--------|--------|--------|--------|--------|--------|--------|
 E|--------|--------|--------|--------|--------|--------|--------|--------|--------|
 B|--------|--------|--------|--------|--------|--------|--------|--------|--------|
F#|--------|--------|--------|--------|--------|--------|--------|--------|--------|
 B|--------|--------|--------|--------|--------|--------|--------|--------|--------|


C#|--------|--------|--------|--------|--------|--------|--------|--------|--------|
G#|--------|--------|--------|--------|--------|--------|--------|--------|--------|
 E|--------|--------|--------|--------|--------|--------|--------|--------|--------|
 B|--------|--------|--------|--------|--------|--------|--------|--------|--------|
F#|--------|--------|--------|--------|--------|--------|--------|--------|--------|
 B|--------|--------|--------|--------|--------|--------|--------|--------|--------|


C#|--------|--------|--------|--------|--------|--------|--------|--------|--------|
G#|--------|--------|--------|--------|--------|--------|--------|--------|--------|
 E|--------|--------|--------|--------|--------|--------|--------|--------|--------|
 B|--------|--------|--------|--------|--------|--------|--------|--------|--------|
F#|--------|--------|--------|--------|--------|--------|--------|--------|--------|
 B|--------|--------|--------|--------|--------|--------|--------|--------|--------|


C#|--------|--------|--------|--------|--------|--------|--------|--------|--------|
G#|--------|--------|--------|--------|--------|--------|--------|--------|--------|
 E|--------|--------|--------|--------|--------|--------|--------|--------|--------|
 B|--------|--------|--------|--------|--------|--------|--------|--------|--------|
F#|--------|--------|--------|--------|--------|--------|--------|--------|--------|
 B|--------|--------|--------|--------|--------|--------|--------|--------|--------|


C#|--------|--------|--------|--------|--------|--------|--------|--------|--------|
G#|--------|--------|--------|--------|--------|--------|--------|--------|--------|
 E|--------|--------|--------|--------|--------|--------|--------|--------|--------|
 B|--------|--------|--------|--------|--------|--------|--------|--------|--------|
F#|--------|--------|--------|--------|--------|--------|--------|--------|--------|
 B|--------|--------|--------|--------|--------|--------|--------|--------|--------|


C#|--------|--------|--------|--------|--------|--------|--------|--------|--------|
G#|--------|--------|--------|--------|--------|--------|--------|--------|--------|
 E|--------|--------|--------|--------|--------|--------|--------|--------|--------|
 B|--------|--------|--------|--------|--------|--------|--------|--------|--------|
F#|--------|--------|--------|--------|--------|--------|--------|--------|--------|
 B|--------|--------|--------|--------|--------|--------|--------|--------|--------|


C#|--------|--------|--------|--------|--------|--------|--------|--------|--------|
G#|--------|--------|--------|--------|--------|--------|--------|--------|--------|
 E|--------|--------|--------|--------|--------|--------|--------|--------|--------|
 B|--------|--------|--------|--------|--------|--------|--------|--------|--------|
F#|--------|--------|--------|--------|--------|--------|--------|--------|--------|
 B|--------|--------|--------|--------|--------|--------|--------|--------|--------|


C#|--------|--------|--------|--------|--------|--------|--------|--------|--------|
G#|--------|--------|--------|--------|--------|--------|--------|--------|--------|
 E|--------|--------|--------|--------|--------|--------|--------|--------|--------|
 B|--------|--------|--------|--------|--------|--------|--------|--------|--------|
F#|--------|--------|--------|--------|--------|--------|--------|--------|--------|
 B|--------|--------|--------|--------|--------|--------|--------|--------|--------|


C#|--------|--------|
G#|--------|--------|
 E|--------|--------|
 B|--------|--------|
F#|--------|--------|
 B|--------|--------|





Track 3: Guitar 1

C#|--------|--------|--------|--------|--------|--------|--------|--------|--------|
G#|--------|--------|--------|--------|--------|--------|--------|--------|--------|
 E|--------|--------|--------|--------|--------|--------|--------|--------|--------|
 B|--------|--------|--------|--------|--------|--------|--------|--------|--------|
F#|--------|--------|--------|--------|--------|--------|--------|--------|--------|
 B|--------|--------|--------|--------|--------|--------|--------|--------|--------|


C#|---------------------------|--------|--------|--------|--------|--------|--------|
G#|---------------------------|--------|--------|--------|--------|--------|--------|
 E|---------------------------|--------|--------|--------|--------|--------|--------|
 B|------3---2---2------------|--------|--------|--------|--------|--------|--------|
F#|-0----1---0---0---3----2---|--------|--------|--------|--------|--------|--------|
 B|-0----------------3----2---|--------|--------|--------|--------|--------|--------|


C#|--------|--------|--------|--------|--------|--------|--------|--------|--------|
G#|--------|--------|--------|--------|--------|--------|--------|--------|--------|
 E|--------|--------|--------|--------|--------|--------|--------|--------|--------|
 B|--------|--------|--------|--------|--------|--------|--------|--------|--------|
F#|--------|--------|--------|--------|--------|--------|--------|--------|--------|
 B|--------|--------|--------|--------|--------|--------|--------|--------|--------|


C#|--------|--------|--------|--------|--------|--------|--------|--------|--------|
G#|--------|--------|--------|--------|--------|--------|--------|--------|--------|
 E|--------|--------|--------|--------|--------|--------|--------|--------|--------|
 B|--------|--------|--------|--------|--------|--------|--------|--------|--------|
F#|--------|--------|--------|--------|--------|--------|--------|--------|--------|
 B|--------|--------|--------|--------|--------|--------|--------|--------|--------|


C#|--------|--------|--------|--------|--------|--------|--------|--------|--------|
G#|--------|--------|--------|--------|--------|--------|--------|--------|--------|
 E|--------|--------|--------|--------|--------|--------|--------|--------|--------|
 B|--------|--------|--------|--------|--------|--------|--------|--------|--------|
F#|--------|--------|--------|--------|--------|--------|--------|--------|--------|
 B|--------|--------|--------|--------|--------|--------|--------|--------|--------|


C#|--------|--------|--------|--------|--------|--------|--------|--------|--------|
G#|--------|--------|--------|--------|--------|--------|--------|--------|--------|
 E|--------|--------|--------|--------|--------|--------|--------|--------|--------|
 B|--------|--------|--------|--------|--------|--------|--------|--------|--------|
F#|--------|--------|--------|--------|--------|--------|--------|--------|--------|
 B|--------|--------|--------|--------|--------|--------|--------|--------|--------|


C#|--------|--------|--------|--------|--------|--------|--------|--------|--------|
G#|--------|--------|--------|--------|--------|--------|--------|--------|--------|
 E|--------|--------|--------|--------|--------|--------|--------|--------|--------|
 B|--------|--------|--------|--------|--------|--------|--------|--------|--------|
F#|--------|--------|--------|--------|--------|--------|--------|--------|--------|
 B|--------|--------|--------|--------|--------|--------|--------|--------|--------|


C#|--------|--------|--------|--------|--------|--------|--------|--------|--------|
G#|--------|--------|--------|--------|--------|--------|--------|--------|--------|
 E|--------|--------|--------|--------|--------|--------|--------|--------|--------|
 B|--------|--------|--------|--------|--------|--------|--------|--------|--------|
F#|--------|--------|--------|--------|--------|--------|--------|--------|--------|
 B|--------|--------|--------|--------|--------|--------|--------|--------|--------|


C#|--------|--------|--------|--------|--------|--------|--------|--------|--------|
G#|--------|--------|--------|--------|--------|--------|--------|--------|--------|
 E|--------|--------|--------|--------|--------|--------|--------|--------|--------|
 B|--------|--------|--------|--------|--------|--------|--------|--------|--------|
F#|--------|--------|--------|--------|--------|--------|--------|--------|--------|
 B|--------|--------|--------|--------|--------|--------|--------|--------|--------|


C#|--------|--------|--------|--------|--------|--------|--------|--------|--------|
G#|--------|--------|--------|--------|--------|--------|--------|--------|--------|
 E|--------|--------|--------|--------|--------|--------|--------|--------|--------|
 B|--------|--------|--------|--------|--------|--------|--------|--------|--------|
F#|--------|--------|--------|--------|--------|--------|--------|--------|--------|
 B|--------|--------|--------|--------|--------|--------|--------|--------|--------|


C#|--------|--------|--------|
G#|--------|--------|--------|
 E|--------|--------|--------|
 B|--------|--------|--------|
F#|--------|--------|--------|
 B|--------|--------|--------|





Track 4: Guitar 1

C#|--------|--------|--------|--------|--------|--------|--------|--------|--------|
G#|--------|--------|--------|--------|--------|--------|--------|--------|--------|
 E|--------|--------|--------|--------|--------|--------|--------|--------|--------|
 B|--------|--------|--------|--------|--------|--------|--------|--------|--------|
F#|--------|--------|--------|--------|--------|--------|--------|--------|--------|
 B|--------|--------|--------|--------|--------|--------|--------|--------|--------|


C#|--------|--------|---------------------------|--------|--------|--------|--------|
G#|--------|--------|---------------------------|--------|--------|--------|--------|
 E|--------|--------|---------------------------|--------|--------|--------|--------|
 B|--------|--------|------3---2---2------------|--------|--------|--------|--------|
F#|--------|--------|-0----1---0---0---3----2---|--------|--------|--------|--------|
 B|--------|--------|-0----------------3----2---|--------|--------|--------|--------|


C#|--------|--------|--------|--------|--------|--------|--------|--------|--------|
G#|--------|--------|--------|--------|--------|--------|--------|--------|--------|
 E|--------|--------|--------|--------|--------|--------|--------|--------|--------|
 B|--------|--------|--------|--------|--------|--------|--------|--------|--------|
F#|--------|--------|--------|--------|--------|--------|--------|--------|--------|
 B|--------|--------|--------|--------|--------|--------|--------|--------|--------|


C#|--------|--------|--------|--------|--------|--------|--------|--------|--------|
G#|--------|--------|--------|--------|--------|--------|--------|--------|--------|
 E|--------|--------|--------|--------|--------|--------|--------|--------|--------|
 B|--------|--------|--------|--------|--------|--------|--------|--------|--------|
F#|--------|--------|--------|--------|--------|--------|--------|--------|--------|
 B|--------|--------|--------|--------|--------|--------|--------|--------|--------|


C#|--------|--------|--------|--------|--------|--------|--------|--------|--------|
G#|--------|--------|--------|--------|--------|--------|--------|--------|--------|
 E|--------|--------|--------|--------|--------|--------|--------|--------|--------|
 B|--------|--------|--------|--------|--------|--------|--------|--------|--------|
F#|--------|--------|--------|--------|--------|--------|--------|--------|--------|
 B|--------|--------|--------|--------|--------|--------|--------|--------|--------|


C#|--------|--------|--------|--------|--------|--------|--------|--------|--------|
G#|--------|--------|--------|--------|--------|--------|--------|--------|--------|
 E|--------|--------|--------|--------|--------|--------|--------|--------|--------|
 B|--------|--------|--------|--------|--------|--------|--------|--------|--------|
F#|--------|--------|--------|--------|--------|--------|--------|--------|--------|
 B|--------|--------|--------|--------|--------|--------|--------|--------|--------|


C#|--------|--------|--------|--------|--------|--------|--------|--------|--------|
G#|--------|--------|--------|--------|--------|--------|--------|--------|--------|
 E|--------|--------|--------|--------|--------|--------|--------|--------|--------|
 B|--------|--------|--------|--------|--------|--------|--------|--------|--------|
F#|--------|--------|--------|--------|--------|--------|--------|--------|--------|
 B|--------|--------|--------|--------|--------|--------|--------|--------|--------|


C#|--------|--------|--------|--------|--------|--------|--------|--------|--------|
G#|--------|--------|--------|--------|--------|--------|--------|--------|--------|
 E|--------|--------|--------|--------|--------|--------|--------|--------|--------|
 B|--------|--------|--------|--------|--------|--------|--------|--------|--------|
F#|--------|--------|--------|--------|--------|--------|--------|--------|--------|
 B|--------|--------|--------|--------|--------|--------|--------|--------|--------|


C#|--------|--------|--------|--------|--------|--------|--------|--------|--------|
G#|--------|--------|--------|--------|--------|--------|--------|--------|--------|
 E|--------|--------|--------|--------|--------|--------|--------|--------|--------|
 B|--------|--------|--------|--------|--------|--------|--------|--------|--------|
F#|--------|--------|--------|--------|--------|--------|--------|--------|--------|
 B|--------|--------|--------|--------|--------|--------|--------|--------|--------|


C#|--------|--------|--------|--------|--------|--------|--------|--------|--------|
G#|--------|--------|--------|--------|--------|--------|--------|--------|--------|
 E|--------|--------|--------|--------|--------|--------|--------|--------|--------|
 B|--------|--------|--------|--------|--------|--------|--------|--------|--------|
F#|--------|--------|--------|--------|--------|--------|--------|--------|--------|
 B|--------|--------|--------|--------|--------|--------|--------|--------|--------|


C#|--------|--------|--------|
G#|--------|--------|--------|
 E|--------|--------|--------|
 B|--------|--------|--------|
F#|--------|--------|--------|
 B|--------|--------|--------|





Track 5: Guitar 1

C#|--------|--------|--------|--------|--------|--------|--------|--------|--------|
G#|--------|--------|--------|--------|--------|--------|--------|--------|--------|
 E|--------|--------|--------|--------|--------|--------|--------|--------|--------|
 B|--------|--------|--------|--------|--------|--------|--------|--------|--------|
F#|--------|--------|--------|--------|--------|--------|--------|--------|--------|
 B|--------|--------|--------|--------|--------|--------|--------|--------|--------|


C#|--------|--------|--------|--------|---------------------------|--------|--------|
G#|--------|--------|--------|--------|---------------------------|--------|--------|
 E|--------|--------|--------|--------|---------------------------|--------|--------|
 B|--------|--------|--------|--------|------3---2---2------------|--------|--------|
F#|--------|--------|--------|--------|-0----1---0---0---3----2---|--------|--------|
 B|--------|--------|--------|--------|-0----------------3----2---|--------|--------|


C#|--------|--------|--------|--------|--------|--------|--------|--------|--------|
G#|--------|--------|--------|--------|--------|--------|--------|--------|--------|
 E|--------|--------|--------|--------|--------|--------|--------|--------|--------|
 B|--------|--------|--------|--------|--------|--------|--------|--------|--------|
F#|--------|--------|--------|--------|--------|--------|--------|--------|--------|
 B|--------|--------|--------|--------|--------|--------|--------|--------|--------|


C#|--------|--------|--------|--------|--------|--------|--------|--------|--------|
G#|--------|--------|--------|--------|--------|--------|--------|--------|--------|
 E|--------|--------|--------|--------|--------|--------|--------|--------|--------|
 B|--------|--------|--------|--------|--------|--------|--------|--------|--------|
F#|--------|--------|--------|--------|--------|--------|--------|--------|--------|
 B|--------|--------|--------|--------|--------|--------|--------|--------|--------|


C#|--------|--------|--------|--------|--------|--------|--------|--------|--------|
G#|--------|--------|--------|--------|--------|--------|--------|--------|--------|
 E|--------|--------|--------|--------|--------|--------|--------|--------|--------|
 B|--------|--------|--------|--------|--------|--------|--------|--------|--------|
F#|--------|--------|--------|--------|--------|--------|--------|--------|--------|
 B|--------|--------|--------|--------|--------|--------|--------|--------|--------|


C#|--------|--------|--------|--------|--------|--------|--------|--------|--------|
G#|--------|--------|--------|--------|--------|--------|--------|--------|--------|
 E|--------|--------|--------|--------|--------|--------|--------|--------|--------|
 B|--------|--------|--------|--------|--------|--------|--------|--------|--------|
F#|--------|--------|--------|--------|--------|--------|--------|--------|--------|
 B|--------|--------|--------|--------|--------|--------|--------|--------|--------|


C#|--------|--------|--------|--------|--------|--------|--------|--------|--------|
G#|--------|--------|--------|--------|--------|--------|--------|--------|--------|
 E|--------|--------|--------|--------|--------|--------|--------|--------|--------|
 B|--------|--------|--------|--------|--------|--------|--------|--------|--------|
F#|--------|--------|--------|--------|--------|--------|--------|--------|--------|
 B|--------|--------|--------|--------|--------|--------|--------|--------|--------|


C#|--------|--------|--------|--------|--------|--------|--------|--------|--------|
G#|--------|--------|--------|--------|--------|--------|--------|--------|--------|
 E|--------|--------|--------|--------|--------|--------|--------|--------|--------|
 B|--------|--------|--------|--------|--------|--------|--------|--------|--------|
F#|--------|--------|--------|--------|--------|--------|--------|--------|--------|
 B|--------|--------|--------|--------|--------|--------|--------|--------|--------|


C#|--------|--------|--------|--------|--------|--------|--------|--------|--------|
G#|--------|--------|--------|--------|--------|--------|--------|--------|--------|
 E|--------|--------|--------|--------|--------|--------|--------|--------|--------|
 B|--------|--------|--------|--------|--------|--------|--------|--------|--------|
F#|--------|--------|--------|--------|--------|--------|--------|--------|--------|
 B|--------|--------|--------|--------|--------|--------|--------|--------|--------|


C#|--------|--------|--------|--------|--------|--------|--------|--------|--------|
G#|--------|--------|--------|--------|--------|--------|--------|--------|--------|
 E|--------|--------|--------|--------|--------|--------|--------|--------|--------|
 B|--------|--------|--------|--------|--------|--------|--------|--------|--------|
F#|--------|--------|--------|--------|--------|--------|--------|--------|--------|
 B|--------|--------|--------|--------|--------|--------|--------|--------|--------|


C#|--------|--------|--------|
G#|--------|--------|--------|
 E|--------|--------|--------|
 B|--------|--------|--------|
F#|--------|--------|--------|
 B|--------|--------|--------|





Track 6: Bass

 E|--------|--------|--------|--------|--------|--------|--------|--------|---------------------------|
 B|--------|--------|--------|--------|--------|--------|--------|--------|---------------------------|
F#|--------|--------|--------|--------|--------|--------|--------|--------|---------------------------|
 B|--------|--------|--------|--------|--------|--------|--------|--------|-0----8---7---7---3----0---|


 E|---------------------------|---------------------------|---------------------------|
 B|---------------------------|---------------------------|---------------------------|
F#|------------------0--------|---------------------------|------------------0--------|
 B|-8----2---1---1--------1---|-0----8---7---7---3----0---|-8----2---1---1--------1---|


 E|---------------------------|---------------------------|---------------------------|
 B|---------------------------|---------------------------|---------------------------|
F#|---------------------------|------------------0--------|---------------------------|
 B|-0----8---7---7---3----0---|-8----2---1---1--------1---|-0----8---7---7---3----0---|


 E|---------------------------------|---------------------------|---------------------------------|
 B|---------------------------------|---------------------------|---------------------------------|
F#|--------------------0----0-------|---------------------------|---------------------------------|
 B|-8----2--2---1---1-----------1---|-0----7---6---6---1----0---|-5----4--4---3---3--0----1---0---|


 E|---------------------------|---------------------------------|---------------------------|
 B|---------------------------|---------------------------------|---------------------------|
F#|---------------------------|---------------------------------|---------------------------|
 B|-0----7---6---6---1----0---|-5----4--4---3---3--0----1---0---|-0----7---6---6---1----0---|


 E|---------------------------------|---------------------------|---------------------------------|
 B|---------------------------------|---------------------------|---------------------------------|
F#|---------------------------------|---------------------------|---------------------------------|
 B|-5----4--4---3---3--0----1---0---|-0----7---6---6---1----0---|-5----4--4---3---3--0----1---0---|


 E|---------------------------|---------------------------------|---------------------------|
 B|---------------------------|---------------------------------|---------------------------|
F#|---------------------------|---------------------------------|---------------------------|
 B|-0----7---6---6---1----0---|-5----4--4---3---3--0----1---0---|-0----7---6---6---1----0---|


 E|---------------------------------|---------------------------|---------------------------|
 B|---------------------------------|---------------------------|---------------------------|
F#|---------------------------------|---------------------------|------------------0--------|
 B|-5----4--4---3---3--0----1---0---|-0----8---7---7---3----0---|-8----2---1---1--------1---|


 E|---------------------------|---------------------------------|-------------------------------------|
 B|---------------------------|---------------------------------|-------------------------------------|
F#|---------------------------|--------------------0----0-------|-------------------------------------|
 B|-0----8---7---7---3----0---|-8----2--2---1---1-----------1---|-3--0---0--5---6---3--0---0--5---6---|


 E|-------------------------------------|-------------------------------------|-------------------------------------|
 B|-------------------------------------|-------------------------------------|-------------------------------------|
F#|-------------------------------------|-------------------------------------|-------------------------------------|
 B|-3--0---0--5---6---3--0---0--5---6---|-3--0---0--5---6---3--0---0--5---6---|-3--0---0--5---6---3--0---0--5---6---|


 E|------------------------------|------------------------------|---------------------------------|
 B|------------------------------|------------------------------|---------------------------------|
F#|--------------5---3-----------|---------5---3----------------|-5---3---------------------------|
 B|-1---0----3-----------1---0---|-----3-----------1---0----3---|---------1---2---1---2---3---2---|


 E|------------------------------|------------------------------|---------------------------------|
 B|------------------------------|------------------------------|---------------------------------|
F#|--------------5---3-----------|---------5---3----------------|-5---3---------------------------|
 B|-1---0----3-----------1---0---|-----3-----------1---0----3---|---------1---2---1---2---3---2---|


 E|------------------------------|------------------------------|---------------------------------|
 B|------------------------------|------------------------------|---------------------------------|
F#|--------------5---3-----------|---------5---3----------------|-5---3---------------------------|
 B|-1---0----3-----------1---0---|-----3-----------1---0----3---|---------1---2---1---2---3---2---|


 E|------------------------------|------------------------------|---------------------------------|
 B|------------------------------|------------------------------|---------------------------------|
F#|--------------5---3-----------|---------5---3----------------|-5---3---------------------------|
 B|-1---0----3-----------1---0---|-----3-----------1---0----3---|---------1---2---1---2---3---2---|


 E|---------------------------|-------------|------------------------------|---------------------------------|
 B|---------------------------|-------------|------------------------------|---------------------------------|
F#|---------------------------|-------------|------------------------------|---------------------------------|
 B|-1---2---3---2-------------|-------------|------1---0---1---3---4---3---|-1---3---1---0---1---3---4---3---|


 E|---------------------------------|---------------------------------|---------------------------------|
 B|---------------------------------|---------------------------------|---------------------------------|
F#|---------------------------------|---------------------------------|---------------------------------|
 B|-1---3---1---0---1---3---4---3---|-1---3---1---0---1---3---4---3---|-1---3---1---0---1---3---4---3---|


 E|---------------------------------|---------------------------------|---------------------------------|
 B|---------------------------------|---------------------------------|---------------------------------|
F#|---------------------------------|---------------------------------|---------------------------------|
 B|-1---3---1---0---1---3---4---3---|-1---3---1---0---1---3---4---3---|-1---3---1---0---1---3---4---3---|


 E|---------------------------------|---------------------------------|------------------------------|
 B|---------------------------------|---------------------------------|------------------------------|
F#|---------------------------------|---------------------------------|----------------------5---3---|
 B|-1---3---1---0---1---3---4---3---|-1---3---1---0---1---3---4---3---|-1---3---1---0----3-----------|


 E|---------------------------|------------------------------|------------------------------|
 B|---------------------------|------------------------------|------------------------------|
F#|-----------------------5---|-3----------------5---3-------|----------5---3---------------|
 B|-1---0----3---0----3-------|-----1---0----3-----------1---|-0----3-----------1---2---1---|


 E|------------------------------|------------------------------|------------------------------|
 B|------------------------------|------------------------------|------------------------------|
F#|--------------------------5---|-3----------------5---3-------|----------5---3---------------|
 B|-2---3---2---1---0----3-------|-----1---0----3-----------1---|-0----3-----------1---2---1---|


 E|------------------------------|------------------------------|------------------------------|
 B|------------------------------|------------------------------|------------------------------|
F#|--------------------------5---|-3----------------5---3-------|----------5---3---------------|
 B|-2---3---2---1---0----3-------|-----1---0----3-----------1---|-0----3-----------1---2---1---|


 E|------------------------------|------------------------------|------------------------------|
 B|------------------------------|------------------------------|------------------------------|
F#|--------------------------5---|-3----------------5---3-------|----------5---3---------------|
 B|-2---3---2---1---0----3-------|-----1---0----3-----------1---|-0----3-----------1---2---1---|


 E|------------------------------|-----------------|--------|--------|-----------------------|
 B|------------------------------|-----------------|--------|--------|-----------------------|
F#|------------------------------|-----------------|--------|--------|-----------------------|
 B|-2---3---2---1---2---3---2----|-----------------|--------|--------|-----------1---0---1---|


 E|---------------------------------|---------------------------------|---------------------------------|
 B|---------------------------------|---------------------------------|---------------------------------|
F#|---------------------------------|---------------------------------|---------------------------------|
 B|-3---4---3---1---3---1---0---1---|-3---4---3---1---3---1---0---1---|-3---4---3---1---3---1---0---1---|


 E|---------------------------------|---------------------------------|---------------------------------|
 B|---------------------------------|---------------------------------|---------------------------------|
F#|---------------------------------|---------------------------------|---------------------------------|
 B|-3---4---3---1---3---1---0---1---|-3---4---3---1---3---1---0---1---|-3---4---3---1---3---1---0---1---|


 E|---------------------------------|---------------------------------|---------------------------------|
 B|---------------------------------|---------------------------------|---------------------------------|
F#|---------------------------------|---------------------------------|---------------------------------|
 B|-3---4---3---1---3---1---0---1---|-3---4---3---1---3---1---0---1---|-3---4---3---1---3---1---0---1---|


 E|---------------------------------|---------------------------------|---------------------------------|
 B|---------------------------------|---------------------------------|---------------------------------|
F#|---------------------------------|---------------------------------|---------------------------------|
 B|-3---4---3---1---3---1---0---1---|-3---4---3---1---3---1---0---1---|-3---4---3---1---3---1---0-------|


 E|-----------------|
 B|-----------------|
F#|-----------------|
 B|-----------------|