Menu:

 

Search:

 

slipknot - no life:

 



Title: No Life
Artist: 
Album: Slipknot
Author: Slipknot


Track 1: Guitar 1

C#|----------------------------------|----------------------------------|----------------------------------|
G#|----------------------------------|----------------------------------|----------------------------------|
 E|----------------------------------|----------------------------------|----------------------------------|
 B|----------------------------------|----------------------------------|----------------------------------|
F#|----------------------------------|----------------------------------|----------------------------------|
 B|-6----0---6---6---0---0--7--7--0--|-6----0---6---6---0---0--7--7--0--|-6----0---6---6---0---0--7--7--0--|


C#|----------------------------------|----------------------------------|----------------------------------|
G#|----------------------------------|----------------------------------|----------------------------------|
 E|----------------------------------|----------------------------------|----------------------------------|
 B|----------------------------------|----------------------------------|----------------------------------|
F#|----------------------------------|----------------------------------|----------------------------------|
 B|-6----0---6---6---0---0--7--7--0--|-6----0---6---6---0---0--7--7--0--|-6----0---6---6---0---0--7--7--0--|


C#|----------------------------------|----------------------------------|---------------------------|
G#|----------------------------------|----------------------------------|---------------------------|
 E|----------------------------------|----------------------------------|---------------------------|
 B|----------------------------------|----------------------------------|---------------------------|
F#|----------------------------------|----------------------------------|---------------------------|
 B|-6----0---6---6---0---0--7--7--0--|-6----0---6---6---0---0--7--7--0--|-6----0---6---6---0--------|


C#|----------------------------------|----------------------------------|----------------------------------|
G#|----------------------------------|----------------------------------|----------------------------------|
 E|----------------------5--5--5--5--|----------------------5--5--5--5--|----------------------5--5--------|
 B|----------------------------------|----------------------------------|----------------------------5-----|
F#|-2----0---1---1---0---------------|-2----0---1---1---0---------------|-2----0---1---1---0------------5--|
 B|-2----0---1---1---0---------------|-2----0---1---1---0---------------|-2----0---1---1---0---------------|


C#|----------------------------------|----------------------------------|----------------------------------|
G#|----------------------------------|----------------------------------|----------------------------------|
 E|----------------------5--5--------|----------------------5--5--------|----------------------5--5--------|
 B|----------------------------5-----|----------------------------5-----|----------------------------5-----|
F#|-2----0---1---1---0------------5--|-2----0---1---1---0------------5--|-2----0---1---1---0------------5--|
 B|-2----0---1---1---0---------------|-2----0---1---1---0---------------|-2----0---1---1---0---------------|


C#|----------------------------------|----------------------------------|--------|
G#|----------------------------------|----------------------------------|--------|
 E|----------------------5--5--------|----------------------5--5--------|--------|
 B|----------------------------5-----|----------------------------5-----|--------|
F#|-2----0---1---1---0------------5--|-2----0---1---1---0------------5--|--------|
 B|-2----0---1---1---0---------------|-2----0---1---1---0---------------|--------|


C#|--------|--------|-----------------|-----------------------------------|-----------------------------------|
G#|--------|--------|-----------------|-----------------------------------|-----------------------------------|
 E|--------|--------|-----------------|-----------------------------------|-----------------------------------|
 B|--------|--------|-----------------|-2---1---1--1--2---2---1---2---3---|-----2---1--1--2---2---1---2---3---|
F#|--------|--------|-----------------|-----------------------------------|-----------------------------------|
 B|--------|--------|------------15---|-----------------------------------|-----------------------------------|


C#|-----------------------------------|-----------------------------------|----------------------------------|
G#|-----------------------------------|-----------------------------------|----------------------------------|
 E|-----------------------------------|-----------------------------------|----------------------------------|
 B|-3---2---1--1--2---2---1---2---3---|-----2---1--1--2---2---1---2---3---|----------------------5--5--5--5--|
F#|-----------------------------------|-----------------------------------|-7----0---4---4---3---------------|
 B|-----------------------------------|-----------------------------------|-7----0---4---4---3---------------|


C#|----------------------------------|----------------------------------|----------------------------------|
G#|----------------------------------|----------------------------------|----------------------------------|
 E|----------------------------------|----------------------------------|----------------------------------|
 B|----------------------5--5--5--5--|----------------------5--5--5--5--|----------------------5--5--5--5--|
F#|-7----0---4---4---3---------------|-7----0---4---4---3---------------|-7----0---4---4---3---------------|
 B|-7----0---4---4---3---------------|-7----0---4---4---3---------------|-7----0---4---4---3---------------|


C#|----------------------------------|----------------------------------|----------------------------------|
G#|----------------------------------|----------------------------------|----------------------------------|
 E|----------------------------------|----------------------------------|----------------------------------|
 B|----------------------5--5--5--5--|----------------------5--5--5--5--|----------------------5--5--5--5--|
F#|-7----0---4---4---3---------------|-7----0---4---4---3---------------|-7----0---4---4---3---------------|
 B|-7----0---4---4---3---------------|-7----0---4---4---3---------------|-7----0---4---4---3---------------|


C#|---------------------------------|--------|--------|--------|-----------------|
G#|---------------------------------|--------|--------|--------|-----------------|
 E|---------------------------------|--------|--------|--------|-----------------|
 B|---------------------------------|--------|--------|--------|-----------------|
F#|-7---7---7---2---4---3---2---2---|--------|--------|--------|-----------------|
 B|-7---7---7---2---4---3---2---2---|--------|--------|--------|------------18---|


C#|-----------------------------------|-----------------------------------|-----------------------------------|
G#|-----------------------------------|-----------------------------------|-----------------------------------|
 E|-----------------------------------|-----------------------------------|-----------------------------------|
 B|-----------------------------------|-----------------------------------|-----------------------------------|
F#|-----------------------------------|-----------------------------------|-----------------------------------|
 B|-2---1---1--1--2---2---1---2---3---|-----2---1--1--2---2---1---2---3---|-3---2---1--1--2---2---1---2---3---|


C#|-----------------------------------|-----------------------------------|-----------------------------------|
G#|-----------------------------------|-----------------------------------|-----------------------------------|
 E|-----------------------------------|-----------------------------------|-----------------------------------|
 B|-----------------------------------|-----------------------------------|-----------------------------------|
F#|-----------------------------------|-----------------------------------|-----------------------------------|
 B|-----2---1--1--2---2---1---2---3---|-3---2---1--1--2---2---1---2---3---|-3---2---1--1--2---2---1---2---3---|


C#|-----------------------------------|-----------------------------------|----------------------------------|
G#|-----------------------------------|-----------------------------------|----------------------------------|
 E|-----------------------------------|-----------------------------------|----------------------------------|
 B|-----------------------------------|-----------------------------------|----------------------5--5--5--5--|
F#|-----------------------------------|-----------------------------------|-7----0---4---4---3---------------|
 B|-3---2---1--1--2---2---1---2---3---|-3---2---1--1--2---2---1---2---3---|-7----0---4---4---3---------------|


C#|----------------------------------|----------------------------------|---------------------------------|
G#|----------------------------------|----------------------------------|---------------------------------|
 E|----------------------------------|----------------------------------|---------------------------------|
 B|----------------------5--5--5--5--|----------------------5--5--5--5--|---------------------------------|
F#|-7----0---4---4---3---------------|-7----0---4---4---3---------------|-7---7---7---2---4---3---2---2---|
 B|-7----0---4---4---3---------------|-7----0---4---4---3---------------|-7---7---7---2---4---3---2---2---|


C#|----------------------------------|----------------------------------|----------------------------------|
G#|----------------------------------|----------------------------------|----------------------------------|
 E|----------------------------------|----------------------------------|----------------------------------|
 B|----------------------5--5--5--5--|----------------------5--5--5--5--|----------------------5--5--5--5--|
F#|-7----0---4---4---3---------------|-7----0---4---4---3---------------|-7----0---4---4---3---------------|
 B|-7----0---4---4---3---------------|-7----0---4---4---3---------------|-7----0---4---4---3---------------|


C#|---------------------------------|-------------------------------|-------------------------------|
G#|---------------------------------|-------------------------------|-------------------------------|
 E|---------------------------------|-------------------------------|-------------------------------|
 B|---------------------------------|-------------------------------|-------------------------------|
F#|-7---7---7---2---4---3---2---2---|----------------0----0----0----|----------------0----0----0----|
 B|-7---7---7---2---4---3---2---2---|-0----1----0----0----0----0----|-0----1----0----0----0----0----|


C#|-------------------------------|-------------------------------|-------------------------------|
G#|-------------------------------|-------------------------------|-------------------------------|
 E|-------------------------------|-------------------------------|-------------------------------|
 B|-------------------------------|-------------------------------|-------------------------------|
F#|----------------0----0----0----|----------------0--------------|----------------0----0----0----|
 B|-0----1----0----0----0----0----|-0----1----0----0----4----4----|-0----1----0----0----0----0----|


C#|-------------------------------|-------------------------------|-------------------------------|
G#|-------------------------------|-------------------------------|-------------------------------|
 E|-------------------------------|-------------------------------|-------------------------------|
 B|-------------------------------|-------------------------------|-------------------------------|
F#|----------------0----0----0----|----------------0----0----0----|----------------0--------------|
 B|-0----1----0----0----0----0----|-0----1----0----0----0----0----|-0----1----0----0----4----4----|


C#|-------------------------------|-------------------------------|-------------------------------|
G#|-------------------------------|-------------------------------|-------------------------------|
 E|-------------------------------|-------------------------------|-------------------------------|
 B|-7----7----7----7----7----7----|-5----5----5----5----5----5----|-------------------------------|
F#|-------------------------------|-------------------------------|-1----1----1----1----1----1----|
 B|-------------------------------|-------------------------------|-------------------------------|


C#|-------------------------------|-------------------------------|-------------------------------|
G#|-------------------------------|-------------------------------|-------------------------------|
 E|-------------------------------|-------------------------------|-------------------------------|
 B|-------------------------------|-7----7----7----7----7----7----|-5----5----5----5----5----5----|
F#|-2----2----2----2----2----2----|-------------------------------|-------------------------------|
 B|-------------------------------|-------------------------------|-------------------------------|


C#|-------------------------------|--------|-------------------------------------|
G#|-------------------------------|--------|-------------------------------------|
 E|-------------------------------|--------|-------------------------------------|
 B|-------------------------------|--------|-------------------------------------|
F#|-1----1----1----1----1----1----|-2------|-2---1---0--0--3---2---0--0--3---3---|
 B|-------------------------------|--------|-2---1---0--0--3---2---0--0--3---3---|


C#|-------------------------------------|-------------------------------------|--------|
G#|-------------------------------------|-------------------------------------|--------|
 E|-------------------------------------|-------------------------------------|--------|
 B|-------------------------------------|-------------------------------------|--------|
F#|-2---1---0--0--3---2---0--0--3---3---|-2---1---0--0--3---2---0--0--3---3---|--------|
 B|-2---1---0--0--3---2---0--0--3---3---|-2---1---0--0--3---2---0--0--3---3---|--------|


C#|-------------------------------------|-------------------------------------|-------------------------------------|
G#|-------------------------------------|-------------------------------------|-------------------------------------|
 E|-------------------------------------|-------------------------------------|-------------------------------------|
 B|-------------------------------------|-------------------------------------|-------------------------------------|
F#|-2---1---0--0--3---2---0--0--3---3---|-2---1---0--0--3---2---0--0--3---3---|-2---1---0--0--3---2---0--0--3---3---|
 B|-2---1---0--0--3---2---0--0--3---3---|-2---1---0--0--3---2---0--0--3---3---|-2---1---0--0--3---2---0--0--3---3---|


C#|-------------------------------------|-------------------------------------|-------------------------------------|
G#|-------------------------------------|-------------------------------------|-------------------------------------|
 E|-------------------------------------|-------------------------------------|-------------------------------------|
 B|-------------------------------------|-------------------------------------|-------------------------------------|
F#|-2---1---0--0--3---2---0--0--3---3---|-2---1---0--0--3---2---0--0--3---3---|-2---1---0--0--3---2---0--0--3---3---|
 B|-2---1---0--0--3---2---0--0--3---3---|-2---1---0--0--3---2---0--0--3---3---|-2---1---0--0--3---2---0--0--3---3---|


C#|-------------------------------------|-------------------------------------|----------------------------------|
G#|-------------------------------------|-------------------------------------|----------------------------------|
 E|-------------------------------------|-------------------------------------|----------------------------------|
 B|-------------------------------------|-------------------------------------|----------------------5--5--5--5--|
F#|-2---1---0--0--3---2---0--0--3---3---|-2---1---0--0--3---2---0--0--3---3---|-7----0---4---4---3---------------|
 B|-2---1---0--0--3---2---0--0--3---3---|-2---1---0--0--3---2---0--0--3---3---|-7----0---4---4---3---------------|


C#|----------------------------------|----------------------------------|---------------------------------|
G#|----------------------------------|----------------------------------|---------------------------------|
 E|----------------------------------|----------------------------------|---------------------------------|
 B|----------------------5--5--5--5--|----------------------5--5--5--5--|---------------------------------|
F#|-7----0---4---4---3---------------|-7----0---4---4---3---------------|-7---7---7---2---4---3---2---2---|
 B|-7----0---4---4---3---------------|-7----0---4---4---3---------------|-7---7---7---2---4---3---2---2---|


C#|----------------------------------|----------------------------------|----------------------------------|
G#|----------------------------------|----------------------------------|----------------------------------|
 E|----------------------------------|----------------------------------|----------------------------------|
 B|----------------------5--5--5--5--|----------------------5--5--5--5--|----------------------5--5--5--5--|
F#|-7----0---4---4---3---------------|-7----0---4---4---3---------------|-7----0---4---4---3---------------|
 B|-7----0---4---4---3---------------|-7----0---4---4---3---------------|-7----0---4---4---3---------------|


C#|---------------------------------|----------------------------------|----------------------------------|
G#|---------------------------------|----------------------------------|----------------------------------|
 E|---------------------------------|----------------------------------|----------------------------------|
 B|---------------------------------|----------------------------------|----------------------------------|
F#|-7---7---7---2---4---3---2---2---|----------------------------------|----------------------------------|
 B|-7---7---7---2---4---3---2---2---|-6----0---6---6---0---0--7--7--0--|-6----0---6---6---0---0--7--7--0--|


C#|----------------------------------|----------------------------------|----------------------------------|
G#|----------------------------------|----------------------------------|----------------------------------|
 E|----------------------------------|----------------------------------|----------------------------------|
 B|----------------------------------|----------------------------------|----------------------------------|
F#|----------------------------------|----------------------------------|----------------------------------|
 B|-6----0---6---6---0---0--7--7--0--|-6----0---6---6---0---0--7--7--0--|-6----0---6---6---0---0--7--7--0--|


C#|----------------------------------|----------------------------------|----------------------------------|
G#|----------------------------------|----------------------------------|----------------------------------|
 E|----------------------------------|----------------------------------|----------------------------------|
 B|----------------------------------|----------------------------------|----------------------------------|
F#|----------------------------------|----------------------------------|----------------------------------|
 B|-6----0---6---6---0---0--7--7--0--|-6----0---6---6---0---0--7--7--0--|-6----0---6---6---0---0--7--7--0--|


C#|----------------------------------|----------------------------------|----------------------------------|
G#|----------------------------------|----------------------------------|----------------------------------|
 E|----------------------------------|----------------------------------|----------------------------------|
 B|----------------------------------|----------------------------------|----------------------------------|
F#|----------------------------------|----------------------------------|----------------------------------|
 B|-6----0---6---6---0---0--7--7--0--|-6----0---6---6---0---0--7--7--0--|-6----0---6---6---0---0--7--7--0--|


C#|--------|--------|--------|--------|--------|--------|--------------------------------|
G#|--------|--------|--------|--------|--------|--------|--------------------------------|
 E|--------|--------|--------|--------|--------|--------|--------------------------------|
 B|--------|--------|--------|--------|--------|--------|----------------------6--6------|
F#|--------|--------|--------|--------|--------|--------|----------------------6--6------|
 B|--------|--------|--------|--------|--------|--------|-6----0---6---6---0-------------|





Track 2: Guitar 2

C#|--------|--------|--------|--------|--------|--------|--------|--------|--------|
G#|--------|--------|--------|--------|--------|--------|--------|--------|--------|
 E|--------|--------|--------|--------|--------|--------|--------|--------|--------|
 B|--------|--------|--------|--------|--------|--------|--------|--------|--------|
F#|--------|--------|--------|--------|--------|--------|--------|--------|--------|
 B|--------|--------|--------|--------|--------|--------|--------|--------|--------|


C#|--------|--------|--------|--------|--------|--------|--------|--------|--------|
G#|--------|--------|--------|--------|--------|--------|--------|--------|--------|
 E|--------|--------|--------|--------|--------|--------|--------|--------|--------|
 B|--------|--------|--------|--------|--------|--------|--------|--------|--------|
F#|--------|--------|--------|--------|--------|--------|--------|--------|--------|
 B|--------|--------|--------|--------|--------|--------|--------|--------|--------|


C#|--------|--------|-----------------|-----------------------------------|-----------------------------------|
G#|--------|--------|-----------------|-----------------------------------|-----------------------------------|
 E|--------|--------|-----------------|-----------------------------------|-----------------------------------|
 B|--------|--------|-----------------|-----------------------------------|-----------------------------------|
F#|--------|--------|-----------------|-----------------------------------|-----------------------------------|
 B|--------|--------|------------15---|-2---1---1--1--2---2---1---2---3---|-----2---1--1--2---2---1---2---3---|


C#|-----------------------------------|-----------------------------------|----------------------------------|
G#|-----------------------------------|-----------------------------------|----------------------------------|
 E|-----------------------------------|-----------------------------------|----------------------------------|
 B|-----------------------------------|-----------------------------------|----------------------5--5--5--5--|
F#|-----------------------------------|-----------------------------------|-7----0---4---4---3---------------|
 B|-3---2---1--1--2---2---1---2---3---|-----2---1--1--2---2---1---2---3---|-7----0---4---4---3---------------|


C#|----------------------------------|----------------------------------|----------------------------------|
G#|----------------------------------|----------------------------------|----------------------------------|
 E|----------------------------------|----------------------------------|----------------------------------|
 B|----------------------5--5--5--5--|----------------------5--5--5--5--|----------------------5--5--5--5--|
F#|-7----0---4---4---3---------------|-7----0---4---4---3---------------|-7----0---4---4---3---------------|
 B|-7----0---4---4---3---------------|-7----0---4---4---3---------------|-7----0---4---4---3---------------|


C#|----------------------------------|----------------------------------|----------------------------------|
G#|----------------------------------|----------------------------------|----------------------------------|
 E|----------------------------------|----------------------------------|----------------------------------|
 B|----------------------5--5--5--5--|----------------------5--5--5--5--|----------------------5--5--5--5--|
F#|-7----0---4---4---3---------------|-7----0---4---4---3---------------|-7----0---4---4---3---------------|
 B|-7----0---4---4---3---------------|-7----0---4---4---3---------------|-7----0---4---4---3---------------|


C#|--------|--------|--------|--------|--------|--------|--------|--------|--------|
G#|--------|--------|--------|--------|--------|--------|--------|--------|--------|
 E|--------|--------|--------|--------|--------|--------|--------|--------|--------|
 B|--------|--------|--------|--------|--------|--------|--------|--------|--------|
F#|--------|--------|--------|--------|--------|--------|--------|--------|--------|
 B|--------|--------|--------|--------|--------|--------|--------|--------|--------|


C#|--------|--------|--------|--------|--------|--------|--------|--------|--------|
G#|--------|--------|--------|--------|--------|--------|--------|--------|--------|
 E|--------|--------|--------|--------|--------|--------|--------|--------|--------|
 B|--------|--------|--------|--------|--------|--------|--------|--------|--------|
F#|--------|--------|--------|--------|--------|--------|--------|--------|--------|
 B|--------|--------|--------|--------|--------|--------|--------|--------|--------|


C#|--------|--------|--------|--------|--------|--------|--------|--------|--------|
G#|--------|--------|--------|--------|--------|--------|--------|--------|--------|
 E|--------|--------|--------|--------|--------|--------|--------|--------|--------|
 B|--------|--------|--------|--------|--------|--------|--------|--------|--------|
F#|--------|--------|--------|--------|--------|--------|--------|--------|--------|
 B|--------|--------|--------|--------|--------|--------|--------|--------|--------|


C#|--------|--------|-------------------------------|-------------------------------|
G#|--------|--------|-------------------------------|-------------------------------|
 E|--------|--------|-------------------------------|-------------------------------|
 B|--------|--------|-------------------------------|-------------------------------|
F#|--------|--------|-------------------------------|-------------------------------|
 B|--------|--------|-0----1----0----0----0----0----|-0----1----0----0----0----0----|


C#|-------------------------------|-------------------------------|-------------------------------|
G#|-------------------------------|-------------------------------|-------------------------------|
 E|-------------------------------|-------------------------------|-------------------------------|
 B|-------------------------------|-------------------------------|-------------------------------|
F#|-------------------------------|----------------0----0----0----|-------------------------------|
 B|-0----1----0----0----0----0----|-0----1----0-------------------|-0----1----0----0----0----0----|


C#|-------------------------------|-------------------------------|-----------------------------|
G#|-------------------------------|-------------------------------|-----------------------------|
 E|-------------------------------|-------------------------------|-----------------------------|
 B|-------------------------------|-------------------------------|-----------------------------|
F#|-------------------------------|------6------------------------|-0----1----------------------|
 B|-0----1----0----0----0----0----|-0----6----0----0----0----0----|-0----1----0----4----4---4---|


C#|--------|--------|--------|--------|--------|--------|--------|--------|--------|
G#|--------|--------|--------|--------|--------|--------|--------|--------|--------|
 E|--------|--------|--------|--------|--------|--------|--------|--------|--------|
 B|--------|--------|--------|--------|--------|--------|--------|--------|--------|
F#|--------|--------|--------|--------|--------|--------|--------|--------|--------|
 B|--------|--------|--------|--------|--------|--------|--------|--------|--------|


C#|--------|--------|--------|--------|--------|--------|--------|--------|--------|
G#|--------|--------|--------|--------|--------|--------|--------|--------|--------|
 E|--------|--------|--------|--------|--------|--------|--------|--------|--------|
 B|--------|--------|--------|--------|--------|--------|--------|--------|--------|
F#|--------|--------|--------|--------|--------|--------|--------|--------|--------|
 B|--------|--------|--------|--------|--------|--------|--------|--------|--------|


C#|--------|--------|--------|--------|--------|--------|--------|--------|--------|
G#|--------|--------|--------|--------|--------|--------|--------|--------|--------|
 E|--------|--------|--------|--------|--------|--------|--------|--------|--------|
 B|--------|--------|--------|--------|--------|--------|--------|--------|--------|
F#|--------|--------|--------|--------|--------|--------|--------|--------|--------|
 B|--------|--------|--------|--------|--------|--------|--------|--------|--------|


C#|--------|--------|--------|--------|--------|--------|--------|--------|--------|
G#|--------|--------|--------|--------|--------|--------|--------|--------|--------|
 E|--------|--------|--------|--------|--------|--------|--------|--------|--------|
 B|--------|--------|--------|--------|--------|--------|--------|--------|--------|
F#|--------|--------|--------|--------|--------|--------|--------|--------|--------|
 B|--------|--------|--------|--------|--------|--------|--------|--------|--------|


C#|--------|--------|
G#|--------|--------|
 E|--------|--------|
 B|--------|--------|
F#|--------|--------|
 B|--------|--------|





Track 3: Bass

 E|----------------------------------|----------------------------------|----------------------------------|
 B|----------------------------------|----------------------------------|----------------------------------|
F#|----------------------------------|----------------------------------|----------------------------------|
 B|-6----0---6---6---0---0--7--7--0--|-6----0---6---6---0---0--7--7--0--|-6----0---6---6---0---0--7--7--0--|


 E|----------------------------------|----------------------------------|----------------------------------|
 B|----------------------------------|----------------------------------|----------------------------------|
F#|----------------------------------|----------------------------------|----------------------------------|
 B|-6----0---6---6---0---0--7--7--0--|-6----0---6---6---0---0--7--7--0--|-6----0---6---6---0---0--7--7--0--|


 E|----------------------------------|----------------------------------|---------------------------|
 B|----------------------------------|----------------------------------|---------------------------|
F#|----------------------------------|----------------------------------|---------------------------|
 B|-6----0---6---6---0---0--7--7--0--|-6----0---6---6---0---0--7--7--0--|-6----0---6---6---0--------|


 E|---------------------------|---------------------------|---------------------------|
 B|---------------------------|---------------------------|---------------------------|
F#|---------------------------|---------------------------|---------------------------|
 B|-2----0---1---1---0--------|-2----0---1---1---0--------|-2----0---1---1---0--------|


 E|---------------------------|---------------------------|---------------------------|
 B|---------------------------|---------------------------|---------------------------|
F#|---------------------------|---------------------------|---------------------------|
 B|-2----0---1---1---0--------|-2----0---1---1---0--------|-2----0---1---1---0--------|


 E|---------------------------|---------------------------|--------|--------|--------|
 B|---------------------------|---------------------------|--------|--------|--------|
F#|---------------------------|---------------------------|--------|--------|--------|
 B|-2----0---1---1---0--------|-2----0---1---1---0--------|--------|--------|--------|


 E|--------|-----------------------------------|-----------------------------------|
 B|--------|-----------------------------------|-----------------------------------|
F#|--------|-----------------------------------|-----------------------------------|
 B|--------|-2---1---1--1--2---2---1---2---3---|-----2---1--1--2---2---1---2---3---|


 E|-----------------------------------|-----------------------------------|---------------------------|
 B|-----------------------------------|-----------------------------------|---------------------------|
F#|-----------------------------------|-----------------------------------|---------------------------|
 B|-3---2---1--1--2---2---1---2---3---|-----2---1--1--2---2---1---2---3---|-2----0---1---1---0--------|


 E|---------------------------|---------------------------|---------------------------|
 B|---------------------------|---------------------------|---------------------------|
F#|---------------------------|---------------------------|---------------------------|
 B|-2----0---1---1---0--------|-2----0---1---1---0--------|-2----0---1---1---0--------|


 E|---------------------------|---------------------------|---------------------------|
 B|---------------------------|---------------------------|---------------------------|
F#|---------------------------|---------------------------|---------------------------|
 B|-2----0---1---1---0--------|-2----0---1---1---0--------|-2----0---1---1---0--------|


 E|---------------------------------|--------|--------|--------|--------|-----------------------------------|
 B|---------------------------------|--------|--------|--------|--------|-----------------------------------|
F#|---------------------------------|--------|--------|--------|--------|-----------------------------------|
 B|-7---7---7---2---4---3---2---2---|--------|--------|--------|--------|-2---1---1--1--2---2---1---2---3---|


 E|-----------------------------------|-----------------------------------|-----------------------------------|
 B|-----------------------------------|-----------------------------------|-----------------------------------|
F#|-----------------------------------|-----------------------------------|-----------------------------------|
 B|-----2---1--1--2---2---1---2---3---|-3---2---1--1--2---2---1---2---3---|-----2---1--1--2---2---1---2---3---|


 E|-----------------------------------|-----------------------------------|-----------------------------------|
 B|-----------------------------------|-----------------------------------|-----------------------------------|
F#|-----------------------------------|-----------------------------------|-----------------------------------|
 B|-3---2---1--1--2---2---1---2---3---|-3---2---1--1--2---2---1---2---3---|-3---2---1--1--2---2---1---2---3---|


 E|-----------------------------------|---------------------------|---------------------------|
 B|-----------------------------------|---------------------------|---------------------------|
F#|-----------------------------------|---------------------------|---------------------------|
 B|-3---2---1--1--2---2---1---2---3---|-7----0---4---4---3--------|-7----0---4---4---3--------|


 E|---------------------------|---------------------------------|---------------------------|
 B|---------------------------|---------------------------------|---------------------------|
F#|---------------------------|---------------------------------|---------------------------|
 B|-7----0---4---4---3--------|-7---7---7---2---4---3---2---2---|-7----0---4---4---3--------|


 E|---------------------------|---------------------------|---------------------------------|
 B|---------------------------|---------------------------|---------------------------------|
F#|---------------------------|---------------------------|---------------------------------|
 B|-7----0---4---4---3--------|-7----0---4---4---3--------|-7---7---7---2---4---3---2---2---|


 E|-------------------------------|-------------------------------|-------------------------------|
 B|-------------------------------|-------------------------------|-------------------------------|
F#|-------------------------------|-------------------------------|-------------------------------|
 B|-0----1----0----0----0----0----|-0----1----0----0----0----0----|-0----1----0----0----0----0----|


 E|-------------------------------|-------------------------------|-------------------------------|
 B|-------------------------------|-------------------------------|-------------------------------|
F#|-------------------------------|-------------------------------|-------------------------------|
 B|-0----1----0----0----4----4----|-0----1----0----0----0----0----|-0----1----0----0----0----0----|


 E|-------------------------------|-------------------------------|-------------------------------|
 B|-------------------------------|-------------------------------|-------------------------------|
F#|-------------------------------|-------------------------------|-------------------------------|
 B|-0----1----0----0----0----0----|-0----1----0----0----4----4----|-0----1----0----0----0----0----|


 E|-------------------------------|-------------------------------|-------------------------------|
 B|-------------------------------|-------------------------------|-------------------------------|
F#|-------------------------------|-------------------------------|----------------0----0----0----|
 B|-0----1----0----0----0----0----|-0----1----0----0----0----0----|-0----1----0-------------------|


 E|-------------------------------|-------------------------------|-------------------------------|
 B|-------------------------------|-------------------------------|-------------------------------|
F#|-------------------------------|-------------------------------|-------------------------------|
 B|-0----1----0----0----0----0----|-0----1----0----0----0----0----|-0----6----0----0----0----0----|


 E|-----------------------------|-------------------------------------|-------------------------------------|
 B|-----------------------------|-------------------------------------|-------------------------------------|
F#|-----------------------------|-------------------------------------|-------------------------------------|
 B|-0----1----0----4----4---4---|-2---1---0--0--3---2---0--0--3---3---|-2---1---0--0--3---2---0--0--3---3---|


 E|-------------------------------------|--------|-------------------------------------|
 B|-------------------------------------|--------|-------------------------------------|
F#|-------------------------------------|--------|-------------------------------------|
 B|-2---1---0--0--3---2---0--0--3---3---|--------|-2---1---0--0--3---2---0--0--3---3---|


 E|-------------------------------------|-------------------------------------|-------------------------------------|
 B|-------------------------------------|-------------------------------------|-------------------------------------|
F#|-------------------------------------|-------------------------------------|-------------------------------------|
 B|-2---1---0--0--3---2---0--0--3---3---|-2---1---0--0--3---2---0--0--3---3---|-2---1---0--0--3---2---0--0--3---3---|


 E|-------------------------------------|-------------------------------------|-------------------------------------|
 B|-------------------------------------|-------------------------------------|-------------------------------------|
F#|-------------------------------------|-------------------------------------|-------------------------------------|
 B|-2---1---0--0--3---2---0--0--3---3---|-2---1---0--0--3---2---0--0--3---3---|-2---1---0--0--3---2---0--0--3---3---|


 E|-------------------------------------|---------------------------|---------------------------|
 B|-------------------------------------|---------------------------|---------------------------|
F#|-------------------------------------|---------------------------|---------------------------|
 B|-2---1---0--0--3---2---0--0--3---3---|-7----0---4---4---3--------|-7----0---4---4---3--------|


 E|---------------------------|---------------------------------|---------------------------|
 B|---------------------------|---------------------------------|---------------------------|
F#|---------------------------|---------------------------------|---------------------------|
 B|-7----0---4---4---3--------|-7---7---7---2---4---3---2---2---|-7----0---4---4---3--------|


 E|---------------------------|---------------------------|---------------------------------|
 B|---------------------------|---------------------------|---------------------------------|
F#|---------------------------|---------------------------|---------------------------------|
 B|-7----0---4---4---3--------|-7----0---4---4---3--------|-7---7---7---2---4---3---2---2---|


 E|----------------------------------|----------------------------------|----------------------------------|
 B|----------------------------------|----------------------------------|----------------------------------|
F#|----------------------------------|----------------------------------|----------------------------------|
 B|-6----0---6---6---0---0--7--7--0--|-6----0---6---6---0---0--7--7--0--|-6----0---6---6---0---0--7--7--0--|


 E|----------------------------------|----------------------------------|----------------------------------|
 B|----------------------------------|----------------------------------|----------------------------------|
F#|----------------------------------|----------------------------------|----------------------------------|
 B|-6----0---6---6---0---0--7--7--0--|-6----0---6---6---0---0--7--7--0--|-6----0---6---6---0---0--7--7--0--|


 E|----------------------------------|----------------------------------|----------------------------------|
 B|----------------------------------|----------------------------------|----------------------------------|
F#|----------------------------------|----------------------------------|----------------------------------|
 B|-6----0---6---6---0---0--7--7--0--|-6----0---6---6---0---0--7--7--0--|-6----0---6---6---0---0--7--7--0--|


 E|----------------------------------|----------------------------------|--------|
 B|----------------------------------|----------------------------------|--------|
F#|----------------------------------|----------------------------------|--------|
 B|-6----0---6---6---0---0--7--7--0--|-6----0---6---6---0---0--7--7--0--|--------|


 E|--------|--------|--------|--------|--------|--------------------------------|
 B|--------|--------|--------|--------|--------|--------------------------------|
F#|--------|--------|--------|--------|--------|----------------------6--6------|
 B|--------|--------|--------|--------|--------|-6----0---6---6---0-------------|