Menu:

 

Search:

 

slipknot - me inside:

 



Title: Me Inside
Artist: 
Album: Slipknot
Author: Slipknot


Track 1: Guitar 1

C#|--------|--------|--------|--------|-------------------------------|-------------------------------|
G#|--------|--------|--------|--------|-------------------------------|-------------------------------|
 E|--------|--------|--------|--------|-------------------------------|-------------------------------|
 B|--------|--------|--------|--------|-------------------------------|-------------------------------|
F#|--------|--------|--------|--------|-0---1-0--------0---1-0--------|-0---1-0--------0---1-0--------|
 B|--------|--------|--------|--------|-0---1-0--------0---1-0--------|-0---1-0--------0---1-0--------|


C#|-------------------------------|-------------------------------|-------------------------------|
G#|-------------------------------|-------------------------------|-------------------------------|
 E|-------------------------------|-------------------------------|-------------------------------|
 B|-------------------------------|-------------------------------|-------------------------------|
F#|-0---1-0--------0---1-0--------|-0---1-0--------0---1-0--------|-0---1-0--------0---1-0--------|
 B|-0---1-0--------0---1-0--------|-0---1-0--------0---1-0--------|-0---1-0--------0---1-0--------|


C#|-------------------------------|-------------------------------|-------------------------------|
G#|-------------------------------|-------------------------------|-------------------------------|
 E|-------------------------------|-------------------------------|-------------------------------|
 B|-------------------------------|-------------------------------|-------------------------------|
F#|-0---1-0--------0---1-0--------|-0---1-0--------0---1-0--------|-0---1-0--------0---1-0--------|
 B|-0---1-0--------0---1-0--------|-0---1-0--------0---1-0--------|-0---1-0--------0---1-0--------|


C#|-----------------------------------------|-----------------------------------------|
G#|-----------------------------------------|-----------------------------------------|
 E|-----------------------------------------|-----------------------------------------|
 B|-----------------------------------------|-----------------------------------------|
F#|-1--0--1--0---0---1--1--0--1--0---0---1--|-1--0--1--0---0---1--1--0--1--0---0---1--|
 B|-1--0--1--0---0---11-1--0--1--0---0---11-|-1--0--1--0---0---11-1--0--1--0---0---11-|


C#|-----------------------------------------|-----------------------------------------|
G#|-----------------------------------------|-----------------------------------------|
 E|-----------------------------------------|-----------------------------------------|
 B|-----------------------------------------|-----------------------------------------|
F#|-1--0--1--0---0---1--1--0--1--0---0---1--|-1--0--1--0---0---1--1--0--1--0---0---1--|
 B|-1--0--1--0---0---11-1--0--1--0---0---11-|-1--0--1--0---0---11-1--0--1--0---0---11-|


C#|-----------------------------------------|-----------------------------------------|
G#|-----------------------------------------|-----------------------------------------|
 E|-----------------------------------------|-----------------------------------------|
 B|-----------------------------------------|-----------------------------------------|
F#|-1--0--1--0---0---1--1--0--1--0---0---1--|-1--0--1--0---0---1--1--0--1--0---0---1--|
 B|-1--0--1--0---0---11-1--0--1--0---0---11-|-1--0--1--0---0---11-1--0--1--0---0---11-|


C#|-----------------------------------------|-----------------------------------------|
G#|-----------------------------------------|-----------------------------------------|
 E|-----------------------------------------|-----------------------------------------|
 B|-----------------------------------------|-----------------------------------------|
F#|-1--0--1--0---0---1--1--0--1--0---0---1--|-1--0--1--0---0---1--1--0--1--0---0------|
 B|-1--0--1--0---0---11-1--0--1--0---0---11-|-1--0--1--0---0---11-1--0--1--0---0------|


C#|-20-16----17-15-14---------14-17-14-16-14-21------|----161417-14---------------141714-14-21---|
G#|-------17-----------------------------------------|--------------17---------------------------|
 E|--------------------------------------------------|-----------------14------------------------|
 B|--------------------------------------------------|-------------------------------------------|
F#|--------------------------------------------------|-------------------------------------------|
 B|--------------------------------------------------|-------------------------------------------|


C#|----16---------15------------17------|----16---------15------------17------|----16---------15------------17------|
G#|-------15---------14---------15------|-------15---------14---------15------|-------15---------14---------15------|
 E|-14------------------13------15------|-14------------------13------15------|-14------------------13------15------|
 B|-------------------------------------|-------------------------------------|-------------------------------------|
F#|-------------------------------------|-------------------------------------|-------------------------------------|
 B|-------------------------------------|-------------------------------------|-------------------------------------|


C#|----16---------15------------17------|----16---------15------------17------|----16---------15------------17------|
G#|-------15---------14---------15------|-------15---------14---------15------|-------15---------14---------15------|
 E|-14------------------13------15------|-14------------------13------15------|-14------------------13------15------|
 B|-------------------------------------|-------------------------------------|-------------------------------------|
F#|-------------------------------------|-------------------------------------|-------------------------------------|
 B|-------------------------------------|-------------------------------------|-------------------------------------|


C#|----16---------15------------17------|----16---------15------------17------|---------------------------|
G#|-------15---------14---------15------|-------15---------14---------15------|---------------------------|
 E|-14------------------13------15------|-14------------------13------15------|--------------7----7---7---|
 B|-------------------------------------|-------------------------------------|---------------------------|
F#|-------------------------------------|-------------------------------------|-1--1----1-----------------|
 B|-------------------------------------|-------------------------------------|-1--1----1-----------------|


C#|---------------------------|---------------------------|---------------------------|
G#|---------------------------|---------------------------|---------------------------|
 E|--------------7----7---7---|--------------7----7---7---|--------------7----7---7---|
 B|---------------------------|---------------------------|---------------------------|
F#|-1--1----1-----------------|-1--1----1-----------------|-1--1----1-----------------|
 B|-1--1----1-----------------|-1--1----1-----------------|-1--1----1-----------------|


C#|----16---------15------------17------|----16---------15---------------16-----|-----15------------17---------16-----|
G#|-------15---------14---------15------|-------15---------14---------------15--|--------14---------15------------15--|
 E|-14------------------13------15------|-14------------------13------14--------|-----------13------15------14--------|
 B|-------------------------------------|---------------------------------------|-------------------------------------|
F#|-------------------------------------|---------------------------------------|-------------------------------------|
 B|-------------------------------------|---------------------------------------|-------------------------------------|


C#|-----15------------17---------16-----|-----15------------17---------16-----|-----15------------17---------16-----|
G#|--------14---------15------------15--|--------14---------15------------15--|--------14---------15------------15--|
 E|-----------13------15------14--------|-----------13------15------14--------|-----------13------15------14--------|
 B|-------------------------------------|-------------------------------------|-------------------------------------|
F#|-------------------------------------|-------------------------------------|-------------------------------------|
 B|-------------------------------------|-------------------------------------|-------------------------------------|


C#|-----15------------17---------16-----|-----15------------17---------16-----|-----15------------17---------16-----|
G#|--------14---------15------------15--|--------14---------15------------15--|--------14---------15------------15--|
 E|-----------13------15------14--------|-----------13------15------14--------|-----------13------15------14--------|
 B|-------------------------------------|-------------------------------------|-------------------------------------|
F#|-------------------------------------|-------------------------------------|-------------------------------------|
 B|-------------------------------------|-------------------------------------|-------------------------------------|


C#|-----15------------17--------------|---------------------------|---------------------------|
G#|--------14---------15--------------|---------------------------|---------------------------|
 E|-----------13------15--------------|------7----7---7-----------|------7----7---7-----------|
 B|-----------------------------------|---------------------------|---------------------------|
F#|---------------------------1--1----|-1-----------------1--1----|-1-----------------1--1----|
 B|---------------------------1--1----|-1-----------------1--1----|-1-----------------1--1----|


C#|---------------------------|------------------------|-----------------------------------|
G#|---------------------------|------------------------|-----------------------------------|
 E|------7----7---7-----------|------7----7---7--------|-----------------------------------|
 B|---------------------------|------------------------|-----------------------------------|
F#|-1-----------------1--1----|-1-----------------0----|-6---5---3----1--1--3--1-------0---|
 B|-1-----------------1--1----|-1-----------------0----|-6---5---3----1--1--3--1-------0---|


C#|-----------------------------------|-----------------------------------|-----------------------------------|
G#|-----------------------------------|-----------------------------------|-----------------------------------|
 E|------5--7--7--7--7--8--8--8-------|-----------------------------------|------5--7--7--7--7--8--8--8-------|
 B|------3-----5--5--5-----6--6-------|-----------------------------------|------3-----5--5--5-----6--6-------|
F#|------3--5--5--5--5--6--6--6--0----|-6---5---3----1--1--3--1-------0---|------3--5--5--5--5--6--6--6--0----|
 B|------------------------------0----|-6---5---3----1--1--3--1-------0---|------------------------------0----|


C#|-----------------------------------|-----------------------------------|-----------------------------------|
G#|-----------------------------------|-----------------------------------|-----------------------------------|
 E|-----------------------------------|------5--7--7--7--7--8--8--8-------|-----------------------------------|
 B|-----------------------------------|------3-----5--5--5-----6--6-------|-----------------------------------|
F#|-6---5---3----1--1--3--1-------0---|------3--5--5--5--5--6--6--6--0----|-6---5---3----1--1--3--1-------0---|
 B|-6---5---3----1--1--3--1-------0---|------------------------------0----|-6---5---3----1--1--3--1-------0---|


C#|--------------------------------------|-----------------------------------|-------------------------------------|
G#|--------------------------------------|-----------------------------------|-------------------------------------|
 E|------5--7--7--7--7--8--8--8----------|-----------------------------------|-------------------------------------|
 B|------3-----5--5--5-----6--6----------|-----------------------------------|-------------------------------------|
F#|------3--5--5--5--5--6--6--6--1---0---|----0---0--1---0----0---0--1---0---|----0---0--1---0----0---0--1--0--0---|
 B|------------------------------1---0---|----0---0--1---0----0---0--1---0---|----0---0--1---0----0---0--1--0--0---|


C#|---------------------------------------|-------------------------------------|-------------------------------------|
G#|---------------------------------------|-------------------------------------|-------------------------------------|
 E|---------------------------------------|-------------------------------------|-------------------------------------|
 B|---------------------------------------|-------------------------------------|-------------------------------------|
F#|----0---0--0---0------0---0--1--0--0---|----0---0--0---0------0---0--1---0---|-0--0---0--1---0---0--0---0--1---0---|
 B|----0---0--0---0------0---0--1--0--0---|----0---0--0---0------0---0--1---0---|-0--0---0--1---0---0--0---0--1---0---|


C#|---------------------------------------|---------------------------------------|
G#|---------------------------------------|---------------------------------------|
 E|---------------------------------------|---------------------------------------|
 B|---------------------------------------|---------------------------------------|
F#|-0--0---0--1---0---0--0---0--1--0--0---|----0---0--0---0------0---0--1--0--0---|
 B|-0--0---0--1---0---0--0---0--1--0--0---|----0---0--0---0------0---0--1--0--0---|


C#|----------------------------------|-----------------------------------|-----------------------------------|
G#|----------------------------------|-----------------------------------|-----------------------------------|
 E|----------------------------------|-----------------------------------|------5--7--7--7--7--8--8--8-------|
 B|----------------------------------|-----------------------------------|------3-----5--5--5-----6--6-------|
F#|----0---0--0---0------0---0--0----|-6---5---3----1--1--3--1-------0---|------3--5--5--5--5--6--6--6--0----|
 B|----0---0--0---0------0---0--0----|-6---5---3----1--1--3--1-------0---|------------------------------0----|


C#|-----------------------------------|-----------------------------------|-----------------------------------|
G#|-----------------------------------|-----------------------------------|-----------------------------------|
 E|-----------------------------------|------5--7--7--7--7--8--8--8-------|-----------------------------------|
 B|-----------------------------------|------3-----5--5--5-----6--6-------|-----------------------------------|
F#|-6---5---3----1--1--3--1-------0---|------3--5--5--5--5--6--6--6--0----|-6---5---3----1--1--3--1-------0---|
 B|-6---5---3----1--1--3--1-------0---|------------------------------0----|-6---5---3----1--1--3--1-------0---|


C#|-----------------------------------|-----------------------------------|-----------------------------------|
G#|-----------------------------------|-----------------------------------|-----------------------------------|
 E|------5--7--7--7--7--8--8--8-------|-----------------------------------|------5--7--7--7--7--8--8--8-------|
 B|------3-----5--5--5-----6--6-------|-----------------------------------|------3-----5--5--5-----6--6-------|
F#|------3--5--5--5--5--6--6--6--0----|-6---5---3----1--1--3--1-------0---|------3--5--5--5--5--6--6--6-------|
 B|------------------------------0----|-6---5---3----1--1--3--1-------0---|-----------------------------------|


C#|--------|--------|--------|--------------------|---------------------------------------------|
G#|--------|--------|--------|--------------------|---------------------------------------------|
 E|--------|--------|--------|--------------------|---------------------------------------------|
 B|--------|--------|--------|--------------------|---------------------------------------------|
F#|--------|--------|--------|--------0--0--0--0--|-0--1---0--0--0--0--0--0--1---0--0--0--0--0--|
 B|--------|--------|--------|--------0--0--0--0--|-0--1---0--0--0--0--0--0--1---0--0--0--0--0--|


C#|---------------------------------------------|---------------------------------------------|
G#|---------------------------------------------|---------------------------------------------|
 E|---------------------------------------------|---------------------------------------------|
 B|---------------------------------------------|---------------------------------------------|
F#|-0--1---0--0--0--0--0--0--1---0--0--0--0--0--|-0--1---0--0--0--0--0--0--1---0--0--0--0--0--|
 B|-0--1---0--0--0--0--0--0--1---0--0--0--0--0--|-0--1---0--0--0--0--0--0--1---0--0--0--0--0--|


C#|----------------------|
G#|----------------------|
 E|----------------------|
 B|----------------------|
F#|-0--1-----------------|
 B|-0--1-----------------|





Track 2: Guitar 2

C#|--------|--------|--------|--------|-----------------|-----------------|-----------------|
G#|--------|--------|--------|--------|-----------------|-----------------|-----------------|
 E|--------|--------|--------|--------|-7----7-----7----|-7----7-----7----|-7----7-----7----|
 B|--------|--------|--------|--------|-----------------|-----------------|-----------------|
F#|--------|--------|--------|--------|-----------------|-----------------|-----------------|
 B|--------|--------|--------|--------|-----------------|-----------------|-----------------|


C#|-----------------|-----------------|-----------------|-----------------|-----------------|
G#|-----------------|-----------------|-----------------|-----------------|-----------------|
 E|-7----7-----7----|-7----7-----7----|-7----7-----7----|-7----7-----7----|-7----7-----7----|
 B|-----------------|-----------------|-----------------|-----------------|-----------------|
F#|-----------------|-----------------|-----------------|-----------------|-----------------|
 B|-----------------|-----------------|-----------------|-----------------|-----------------|


C#|---------------------------------|---------------------------------|---------------------------------|
G#|---------------------------------|---------------------------------|---------------------------------|
 E|-7---7---7---7---7---7---7---7---|-7---7---7---7---7---7---7---7---|-7---7---7---7---7---7---7---7---|
 B|---------------------------------|---------------------------------|---------------------------------|
F#|---------------------------------|---------------------------------|---------------------------------|
 B|---------------------------------|---------------------------------|---------------------------------|


C#|---------------------------------|--------|--------|--------|--------|---------7--------------6------|
G#|---------------------------------|--------|--------|--------|--------|---------6--------------6------|
 E|-7---7---7---7---7---7---7---7---|--------|--------|--------|--------|-------------------------------|
 B|---------------------------------|--------|--------|--------|--------|-------------------------------|
F#|---------------------------------|--------|--------|--------|--------|-------------------------------|
 B|---------------------------------|--------|--------|--------|--------|-------------------------------|


C#|---------8------6----6----|---------------------------------------------|---------------------------------------------|
G#|---------6------6----6----|---------------------------------------------|---------------------------------------------|
 E|--------------------------|---------------------------------------------|---------------------------------------------|
 B|--------------------------|---------------------------------------------|---------------------------------------------|
F#|--------------------------|---------------------------------------------|---------------------------------------------|
 B|--------------------------|-3--0--2--3--1--2------3--0--2--3--1--2------|-3--0--2--3--1--2------3--0--2--3--1--2------|


C#|---------------------------------------------|---------------------------------------------|
G#|---------------------------------------------|---------------------------------------------|
 E|---------------------------------------------|---------------------------------------------|
 B|---------------------------------------------|---------------------------------------------|
F#|---------------------------------------------|---------------------------------------------|
 B|-3--0--2--3--1--2------3--0--2--3--1--2------|-3--0--2--3--1--2------3--0--2--3--1--2------|


C#|---------------------------------------------|---------------------------------------------|
G#|---------------------------------------------|---------------------------------------------|
 E|---------------------------------------------|---------------------------------------------|
 B|---------------------------------------------|---------------------------------------------|
F#|---------------------------------------------|---------------------------------------------|
 B|-3--0--2--3--1--2------3--0--2--3--1--2------|-3--0--2--3--1--2------3--0--2--3--1--2------|


C#|---------------------------------------------|---------------------------------------------|
G#|---------------------------------------------|---------------------------------------------|
 E|---------------------------------------------|---------------------------------------------|
 B|---------------------------------------------|---------------------------------------------|
F#|---------------------------------------------|---------------------------------------------|
 B|-3--0--2--3--1--2------3--0--2--3--1--2------|-3--0--2--3--1--2------3--0--2--3--1--2------|


C#|---------------------------|---------------------------|---------------------------|
G#|---------------------------|---------------------------|---------------------------|
 E|---------------------------|---------------------------|---------------------------|
 B|---------------------------|---------------------------|---------------------------|
F#|-1--1----1----5----5---5---|-1--1----1----5----5---5---|-1--1----1----5----5---5---|
 B|-1--1----1-----------------|-1--1----1-----------------|-1--1----1-----------------|


C#|---------------------------|--------|--------------------|---------------------------------------------|
G#|---------------------------|--------|--------------------|---------------------------------------------|
 E|---------------------------|--------|--------------------|---------------------------------------------|
 B|---------------------------|--------|--------------------|---------------------------------------------|
F#|-1--1----1----5----5---5---|--------|--------------------|---------------------------------------------|
 B|-1--1----1-----------------|--------|--------3--0--2--3--|-1--2------3--0--2--3--1--2------3--0--2--3--|


C#|---------------------------------------------|---------------------------------------------|
G#|---------------------------------------------|---------------------------------------------|
 E|---------------------------------------------|---------------------------------------------|
 B|---------------------------------------------|---------------------------------------------|
F#|---------------------------------------------|---------------------------------------------|
 B|-1--2------3--0--2--3--1--2------3--0--2--3--|-1--2------3--0--2--3--1--2------3--0--2--3--|


C#|---------------------------------------------|---------------------------------------------|
G#|---------------------------------------------|---------------------------------------------|
 E|---------------------------------------------|---------------------------------------------|
 B|---------------------------------------------|---------------------------------------------|
F#|---------------------------------------------|---------------------------------------------|
 B|-1--2------3--0--2--3--1--2------3--0--2--3--|-1--2------3--0--2--3--1--2------3--0--2--3--|


C#|---------------------------------------------|---------------------------------------------|
G#|---------------------------------------------|---------------------------------------------|
 E|---------------------------------------------|---------------------------------------------|
 B|---------------------------------------------|---------------------------------------------|
F#|---------------------------------------------|---------------------------------------------|
 B|-1--2------3--0--2--3--1--2------3--0--2--3--|-1--2------3--0--2--3--1--2------3--0--2--3--|


C#|-----------------------------------------|---------------------------|---------------------------|
G#|-----------------------------------------|---------------------------|---------------------------|
 E|-----------------------------------------|---------------------------|---------------------------|
 B|-----------------------------------------|---------------------------|---------------------------|
F#|---------------------------------1--1----|-1----5----5---5---1--1----|-1----5----5---5---1--1----|
 B|-1--2------3--0--2--3--1--2------1--1----|-1-----------------1--1----|-1-----------------1--1----|


C#|---------------------------|------------------------|--------|--------|--------|
G#|---------------------------|------------------------|--------|--------|--------|
 E|---------------------------|------------------------|--------|--------|--------|
 B|---------------------------|------------------------|--------|--------|--------|
F#|-1----5----5---5---1--1----|-1----5----5---5--------|--------|--------|--------|
 B|-1-----------------1--1----|-1----------------------|--------|--------|--------|


C#|--------|--------|--------|--------|--------|--------|--------|--------|--------|
G#|--------|--------|--------|--------|--------|--------|--------|--------|--------|
 E|--------|--------|--------|--------|--------|--------|--------|--------|--------|
 B|--------|--------|--------|--------|--------|--------|--------|--------|--------|
F#|--------|--------|--------|--------|--------|--------|--------|--------|--------|
 B|--------|--------|--------|--------|--------|--------|--------|--------|--------|


C#|--------|--------|--------|--------|--------|--------|--------|--------|--------|
G#|--------|--------|--------|--------|--------|--------|--------|--------|--------|
 E|--------|--------|--------|--------|--------|--------|--------|--------|--------|
 B|--------|--------|--------|--------|--------|--------|--------|--------|--------|
F#|--------|--------|--------|--------|--------|--------|--------|--------|--------|
 B|--------|--------|--------|--------|--------|--------|--------|--------|--------|


C#|--------|--------|--------------------|-------------------------------------------------|
G#|--------|--------|--------------------|-------------------------------------------------|
 E|--------|--------|--------7--7--7--7--|-7--7--7--7--7--7--7--7--7--7--7--7--7--7--7--7--|
 B|--------|--------|--------5--5--5--5--|-5--5--5--5--5--5--5--5--5--5--5--5--5--5--5--5--|
F#|--------|--------|--------5--5--5--5--|-5--5--5--5--5--5--5--5--5--5--5--5--5--5--5--5--|
 B|--------|--------|--------------------|-------------------------------------------------|


C#|-------------------------------------------------|-------------------------------------------------|
G#|-------------------------------------------------|-------------------------------------------------|
 E|-7--7--7--7--7--7--7--7--7--7--7--7--7--7--7--7--|-7--7--7--7--7--7--7--7--7--7--7--7--7--7--7--7--|
 B|-5--5--5--5--5--5--5--5--5--5--5--5--5--5--5--5--|-5--5--5--5--5--5--5--5--5--5--5--5--5--5--5--5--|
F#|-5--5--5--5--5--5--5--5--5--5--5--5--5--5--5--5--|-5--5--5--5--5--5--5--5--5--5--5--5--5--5--5--5--|
 B|-------------------------------------------------|-------------------------------------------------|


C#|------------------------------------------|--------|--------|--------|--------|
G#|------------------------------------------|--------|--------|--------|--------|
 E|-7--7--7--7--7--7--7--7--7--7--7--7-------|--------|--------|--------|--------|
 B|-5--5--5--5--5--5--5--5--5--5--5--5-------|--------|--------|--------|--------|
F#|-5--5--5--5--5--5--5--5--5--5--5--5-------|--------|--------|--------|--------|
 B|------------------------------------------|--------|--------|--------|--------|





Track 3: Untitled

 E|--------|--------|--------|--------|-------------------------------|-------------------------------|
 B|--------|--------|--------|--------|-------------------------------|-------------------------------|
F#|--------|--------|--------|--------|-------------------------------|-------------------------------|
 B|--------|--------|--------|--------|-0---1-0--------0---1-0--------|-0---1-0--------0---1-0--------|


 E|-------------------------------|-------------------------------|-------------------------------|
 B|-------------------------------|-------------------------------|-------------------------------|
F#|-------------------------------|-------------------------------|-------------------------------|
 B|-0---1-0--------0---1-0--------|-0---1-0--------0---1-0--------|-0---1-0--------0---1-0--------|


 E|-------------------------------|-------------------------------|-------------------------------|
 B|-------------------------------|-------------------------------|-------------------------------|
F#|-------------------------------|-------------------------------|-------------------------------|
 B|-0---1-0--------0---1-0--------|-0---1-0--------0---1-0--------|-0---1-0--------0---1-0--------|


 E|-----------------------------------------|-----------------------------------------|
 B|-----------------------------------------|-----------------------------------------|
F#|-----------------------------------------|-----------------------------------------|
 B|-1--0--1--0---0---0--1--0--1--0---0---0--|-1--0--1--0---0---0--1--0--1--0---0---0--|


 E|-----------------------------------------|-----------------------------------------|
 B|-----------------------------------------|-----------------------------------------|
F#|-----------------------------------------|-----------------------------------------|
 B|-1--0--1--0---0---0--1--0--1--0---0---0--|-1--0--1--0---0---0--1--0--1--0---0---0--|


 E|-----------------------------------------|-----------------------------------------|
 B|-----------------------------------------|-----------------------------------------|
F#|-----------------------------------------|-----------------------------------------|
 B|-1--0--1--0---0---0--1--0--1--0---0---0--|-1--0--1--0---0---0--1--0--1--0---0---0--|


 E|-----------------------------------------|-----------------------------------------|
 B|-----------------------------------------|-----------------------------------------|
F#|-----------------------------------------|-----------------------------------------|
 B|-1--0--1--0---0---0--1--0--1--0---0---0--|-1--0--1--0---0---0--1--0--1--0---0------|


 E|---------------------------------|---------------------------------|---------------------------------------------|
 B|---------------------------------|---------------------------------|---------------------------------------------|
F#|-----------------2---2---2---2---|-----------------2---2---2---2---|---------------------------------------------|
 B|-1---1---1---1-------------------|-1---1---1---1-------------------|-3--0--2--3--1--2------3--0--2--3--1--2------|


 E|---------------------------------------------|---------------------------------------------|
 B|---------------------------------------------|---------------------------------------------|
F#|---------------------------------------------|---------------------------------------------|
 B|-3--0--2--3--1--2------3--0--2--3--1--2------|-3--0--2--3--1--2------3--0--2--3--1--2------|


 E|---------------------------------------------|---------------------------------------------|
 B|---------------------------------------------|---------------------------------------------|
F#|---------------------------------------------|---------------------------------------------|
 B|-3--0--2--3--1--2------3--0--2--3--1--2------|-3--0--2--3--1--2------3--0--2--3--1--2------|


 E|---------------------------------------------|---------------------------------------------|
 B|---------------------------------------------|---------------------------------------------|
F#|---------------------------------------------|---------------------------------------------|
 B|-3--0--2--3--1--2------3--0--2--3--1--2------|-3--0--2--3--1--2------3--0--2--3--1--2------|


 E|---------------------------------------------|---------------------------|---------------------------|
 B|---------------------------------------------|---------------------------|---------------------------|
F#|---------------------------------------------|--------------5----5---5---|--------------5----5---5---|
 B|-3--0--2--3--1--2------3--0--2--3--1--2------|-1--1----1-----------------|-1--1----1-----------------|


 E|---------------------------|---------------------------|--------|--------------------|
 B|---------------------------|---------------------------|--------|--------------------|
F#|--------------5----5---5---|--------------5----5---5---|--------|--------------------|
 B|-1--1----1-----------------|-1--1----1-----------------|--------|--------3--0--2--3--|


 E|---------------------------------------------|---------------------------------------------|
 B|---------------------------------------------|---------------------------------------------|
F#|---------------------------------------------|---------------------------------------------|
 B|-1--2------3--0--2--3--1--2------3--0--2--3--|-1--2------3--0--2--3--1--2------3--0--2--3--|


 E|---------------------------------------------|---------------------------------------------|
 B|---------------------------------------------|---------------------------------------------|
F#|---------------------------------------------|---------------------------------------------|
 B|-1--2------3--0--2--3--1--2------3--0--2--3--|-1--2------3--0--2--3--1--2------3--0--2--3--|


 E|---------------------------------------------|---------------------------------------------|
 B|---------------------------------------------|---------------------------------------------|
F#|---------------------------------------------|---------------------------------------------|
 B|-1--2------3--0--2--3--1--2------3--0--2--3--|-1--2------3--0--2--3--1--2------3--0--2--3--|


 E|---------------------------------------------|-----------------------------------------|
 B|---------------------------------------------|-----------------------------------------|
F#|---------------------------------------------|-----------------------------------------|
 B|-1--2------3--0--2--3--1--2------3--0--2--3--|-1--2------3--0--2--3--1--2------1--1----|


 E|---------------------------|---------------------------|---------------------------|
 B|---------------------------|---------------------------|---------------------------|
F#|------5----5---5-----------|------5----5---5-----------|------5----5---5-----------|
 B|-1-----------------1--1----|-1-----------------1--1----|-1-----------------1--1----|


 E|------------------------|-----------------------------------|-----------------------------------|
 B|------------------------|-----------------------------------|-----------------------------------|
F#|------5----5---5--------|-----------------------------------|------3--5--5--5--6--6--6--6-------|
 B|-1-----------------0----|-6---5---3----1--3--3--1-------0---|------------------------------0----|


 E|-----------------------------------|-----------------------------------|-----------------------------------|
 B|-----------------------------------|-----------------------------------|-----------------------------------|
F#|-----------------------------------|------3--5--5--5--6--6--6--6-------|-----------------------------------|
 B|-6---5---3----1--3--3--1-------0---|------------------------------0----|-6---5---3----1--3--3--1-------0---|


 E|-----------------------------------|-----------------------------------|--------------------------------------|
 B|-----------------------------------|-----------------------------------|--------------------------------------|
F#|------3--5--5--5--6--6--6--6-------|-----------------------------------|------3--5--5--5--6--6--6--6----------|
 B|------------------------------0----|-6---5---3----1--3--3--1-------0---|------------------------------1---0---|


 E|-----------------------------------|-------------------------------------|---------------------------------------|
 B|-----------------------------------|-------------------------------------|---------------------------------------|
F#|-----------------------------------|-------------------------------------|---------------------------------------|
 B|----0---0--1---0----0---0--1---0---|----0---0--1---0----0---0--1--0--0---|----0---0--0---0------0---0--1--0--0---|


 E|-------------------------------------|-------------------------------------|---------------------------------------|
 B|-------------------------------------|-------------------------------------|---------------------------------------|
F#|-------------------------------------|-------------------------------------|---------------------------------------|
 B|----0---0--0---0------0---0--1---0---|-0--0---0--1---0---0--0---0--1---0---|-0--0---0--1---0---0--0---0--1--0--0---|


 E|---------------------------------------|----------------------------------|-----------------------------------|
 B|---------------------------------------|----------------------------------|-----------------------------------|
F#|---------------------------------------|----------------------------------|-----------------------------------|
 B|----0---0--0---0------0---0--1--0--0---|----0---0--0---0------0---0--0----|-6---5---3----1--3--3--1-------0---|


 E|-----------------------------------|-----------------------------------|-----------------------------------|
 B|-----------------------------------|-----------------------------------|-----------------------------------|
F#|------3--5--5--5--6--6--6--6-------|-----------------------------------|------3--5--5--5--6--6--6--6-------|
 B|------------------------------0----|-6---5---3----1--3--3--1-------0---|------------------------------0----|


 E|-----------------------------------|-----------------------------------|-----------------------------------|
 B|-----------------------------------|-----------------------------------|-----------------------------------|
F#|-----------------------------------|------3--5--5--5--6--6--6--6-------|-----------------------------------|
 B|-6---5---3----1--3--3--1-------0---|------------------------------0----|-6---5---3----1--3--3--1-------0---|


 E|--------------------------------------|---------------------------------|---------------------------------|
 B|--------------------------------------|---------------------------------|---------------------------------|
F#|------3--5--5--5--6--6--6--6----------|---------------------------------|---------------------------------|
 B|------------------------------0----0--|-0----0--0----0--0----0--0----0--|-0----0--0----0--0----0--0----0--|


 E|---------------------------------|-------------------------------------|---------------------------------------------|
 B|---------------------------------|-------------------------------------|---------------------------------------------|
F#|---------------------------------|-------------------------------------|---------------------------------------------|
 B|-0----0--0----0--0----0--0----0--|-0----0--0----0--0----0--0--0--0--0--|-0--1---0--0--0--0--0--0--1---0--0--0--0--0--|


 E|---------------------------------------------|---------------------------------------------|
 B|---------------------------------------------|---------------------------------------------|
F#|---------------------------------------------|---------------------------------------------|
 B|-0--1---0--0--0--0--0--0--1---0--0--0--0--0--|-0--1---0--0--0--0--0--0--1---0--0--0--0--0--|


 E|----------------------|
 B|----------------------|
F#|----------------------|
 B|-0--1-----------------|