Menu:

 

Search:

 

slipknot - liberate:

 



Title: Liberate
Artist: 
Album: Slipknot
Author: Slipknot


Track 1: Distorted Guitar

C#|---------------------------------------|---------------------------------------|
G#|---------------------------------------|---------------------------------------|
 E|---------------------------------------|---------------------------------------|
 B|---------------------------------------|---------------------------------------|
F#|---------------------------------------|---------------------------------------|
 B|-13--0---0--0---0--0--0---0--0--0---0--|-13--0---0--0---0--0--0---0--0--0---0--|


C#|---------------------------------------|---------------------------------------|
G#|---------------------------------------|---------------------------------------|
 E|---------------------------------------|---------------------------------------|
 B|---------------------------------------|---------------------------------------|
F#|---------------------------------------|---------------------------------------|
 B|-13--0---0--0---0--0--0---0--0--0---0--|-13--0---0--0---0--0--0---0--0--0---0--|


C#|---------------------------------------|---------------------------------------|
G#|---------------------------------------|---------------------------------------|
 E|---------------------------------------|---------------------------------------|
 B|---------------------------------------|---------------------------------------|
F#|---------------------------------------|---------------------------------------|
 B|-13--0---0--0---0--0--0---0--0--0---0--|-13--0---0--0---0--0--0---0--0--0---0--|


C#|--------------------|--------|---------------------------------|---------------------------------|
G#|--------------------|--------|---------------------------------|---------------------------------|
 E|--------------------|--------|---------------------------------|---------------------------------|
 B|--------------------|--------|---------------------------------|---------------------------------|
F#|-1---0--------------|--------|-1---0---1--0----1--0----1--0----|-1---0---1--0----1--0----1--0----|
 B|-1---0--------------|--------|-1---0---1--0----1--0----1--0----|-1---0---1--0----1--0----1--0----|


C#|---------------------------------|---------------------------------|---------------------------------|
G#|---------------------------------|---------------------------------|---------------------------------|
 E|---------------------------------|---------------------------------|---------------------------------|
 B|---------------------------------|---------------------------------|---------------------------------|
F#|-1---0---1--0----1--0----1--0----|-1---0---1--0----1--0----1--0----|-1---0---1--0----1--0----1--0----|
 B|-1---0---1--0----1--0----1--0----|-1---0---1--0----1--0----1--0----|-1---0---1--0----1--0----1--0----|


C#|---------------------------------|---------------------------------|---------------------------------|
G#|---------------------------------|---------------------------------|---------------------------------|
 E|---------------------------------|---------------------------------|---------------------------------|
 B|---------------------------------|---------------------------------|---------------------------------|
F#|-1---0---1--0----1--0----1--0----|-1---0---1--0----1--0----1--0----|-1---0-----------5---4-------0---|
 B|-1---0---1--0----1--0----1--0----|-1---0---1--0----1--0----1--0----|-1---0---5---3-----------3---0---|


C#|-----------------------|---------------------------|-----------------------|---------------------------------|
G#|-----------------------|---------------------------|-----------------------|---------------------------------|
 E|-----------------------|---------------------------|-----------------------|---------------------------------|
 B|-----------------------|---------------------------|-----------------------|---------------------------------|
F#|-1---0-------------0---|-1---0---5---4---------0---|-1---0-------------0---|-1---0---4---3-------2-------0---|
 B|-1---0-------------0---|-1---0---5---4---8-----0---|-1---0-------------0---|-1---0---4---3-------2-------0---|


C#|-----------------------|---------------------------|-----------------------|---------------------------|
G#|-----------------------|---------------------------|-----------------------|---------------------------|
 E|-----------------------|---------------------------|-----------------------|---------------------------|
 B|-----------------------|---------------------------|-----------------------|---------------------------|
F#|-1---0-------------0---|-1---0---5---4---------0---|-1---0-------------0---|-1---0---5---4---------0---|
 B|-1---0-------------0---|-1---0---5---4---6-----0---|-1---0-------------0---|-1---0---5---4---6-----0---|


C#|-------------------------|---------------------------|-------------------------|
G#|-------------------------|---------------------------|-------------------------|
 E|-------------------------|---------------------------|-------------------------|
 B|-------------------------|---------------------------|-------------------------|
F#|-1---0-------------0--0--|-1---0-------4---------0---|-1---0-------------0--0--|
 B|-1---0-------------0--0--|-1---0---5---4---8-----0---|-1---0-------------0--0--|


C#|-----------------------|-----------------------------------|-----------------------|
G#|-----------------------|-----------------------------------|-----------------------|
 E|-----------------------|-----------------------------------|-----------------------|
 B|-----------------------|-----------------------------------|-----------------------|
F#|-1---0-------4---------|-1---0-------0-------0-------0--0--|-1---0-----------------|
 B|-1---0---5---4---6-----|-1---0-------0-------0-------0--0--|-1---0---5---4---8-----|


C#|-----------------------------------|---------------------------|-----------------------------------|
G#|-----------------------------------|---------------------------|-----------------------------------|
 E|-----------------------------------|---------------------------|-----------------------------------|
 B|-----------------------------------|---------------------------|-----------------------------------|
F#|-1---0-------0-------0-------0--0--|-1---0-----------------0---|-1---0-------0-------0-------0--0--|
 B|-1---0-------0-------0-------0--0--|-1---0---5---4---6-----0---|-1---0-------0-------0-------0--0--|


C#|-----------------------------------|-----------------------------------|---------------------------|
G#|-----------------------------------|-----------------------------------|---------------------------|
 E|-----------------------------------|-----------------------------------|---------------------------|
 B|-----------------------------------|-----------------------------------|---------------------------|
F#|-1---0-------0-------0-------0--0--|-1---0-------0-------0-------0--0--|-1---0-----------------0---|
 B|-1---0-------0-------0-------0--0--|-1---0-------0-------0-------0--0--|-1---0---5---4---6-----0---|


C#|--------|--------|---------------------------------|---------------------------------|
G#|--------|--------|---------------------------------|---------------------------------|
 E|--------|--------|---------------------------------|---------------------------------|
 B|--------|--------|---------------------------------|---------------------------------|
F#|--------|--------|-1---0---1--0----1--0----1--0----|-1---0---1--0----1--0----1--0----|
 B|--------|--------|-1---0---1--0----1--0----1--0----|-1---0---1--0----1--0----1--0----|


C#|---------------------------------|---------------------------------|---------------------------------|
G#|---------------------------------|---------------------------------|---------------------------------|
 E|---------------------------------|---------------------------------|---------------------------------|
 B|---------------------------------|---------------------------------|---------------------------------|
F#|-1---0---1--0----1--0----1--0----|-1---0---1--0----1--0----1--0----|-1---0---1--0----1--0----1--0----|
 B|-1---0---1--0----1--0----1--0----|-1---0---1--0----1--0----1--0----|-1---0---1--0----1--0----1--0----|


C#|---------------------------------|---------------------------------|---------------------------------|
G#|---------------------------------|---------------------------------|---------------------------------|
 E|---------------------------------|---------------------------------|---------------------------------|
 B|---------------------------------|---------------------------------|---------------------------------|
F#|-1---0---1--0----1--0----1--0----|-1---0---1--0----1--0----1--0----|-1---0---1--0----1--0----1--0----|
 B|-1---0---1--0----1--0----1--0----|-1---0---1--0----1--0----1--0----|-1---0---1--0----1--0----1--0----|


C#|-----------------------|---------------------------|-----------------------|---------------------------|
G#|-----------------------|---------------------------|-----------------------|---------------------------|
 E|-----------------------|---------------------------|-----------------------|---------------------------|
 B|-----------------------|---------------------------|-----------------------|---------------------------|
F#|-1---0-------------0---|-1---0---5---4---------0---|-1---0-------------0---|-1---0---5---4---------0---|
 B|-1---0-------------0---|-1---0---5---4---6-----0---|-1---0-------------0---|-1---0---5---4---6-----0---|


C#|-------------------------|---------------------------|-------------------------|
G#|-------------------------|---------------------------|-------------------------|
 E|-------------------------|---------------------------|-------------------------|
 B|-------------------------|---------------------------|-------------------------|
F#|-1---0-------------0--0--|-1---0-------4---------0---|-1---0-------------0--0--|
 B|-1---0-------------0--0--|-1---0---5---4---8-----0---|-1---0-------------0--0--|


C#|-----------------------|-----------------------------------|-----------------------|
G#|-----------------------|-----------------------------------|-----------------------|
 E|-----------------------|-----------------------------------|-----------------------|
 B|-----------------------|-----------------------------------|-----------------------|
F#|-1---0-------4---------|-1---0-------0-------0-------0--0--|-1---0-----------------|
 B|-1---0---5---4---6-----|-1---0-------0-------0-------0--0--|-1---0---5---4---8-----|


C#|-----------------------------------|---------------------------|-----------------------------------|
G#|-----------------------------------|---------------------------|-----------------------------------|
 E|-----------------------------------|---------------------------|-----------------------------------|
 B|-----------------------------------|---------------------------|-----------------------------------|
F#|-1---0-------0-------0-------0--0--|-1---0-----------------0---|-1---0-------0-------0-------0--0--|
 B|-1---0-------0-------0-------0--0--|-1---0---5---4---6-----0---|-1---0-------0-------0-------0--0--|


C#|-----------------------------------|-----------------------------------|---------------------------|
G#|-----------------------------------|-----------------------------------|---------------------------|
 E|-----------------------------------|-----------------------------------|---------------------------|
 B|-----------------------------------|-----------------------------------|---------------------------|
F#|-1---0-------0-------0-------0--0--|-1---0-------0-------0-------0--0--|-1---0-----------------0---|
 B|-1---0-------0-------0-------0--0--|-1---0-------0-------0-------0--0--|-1---0---5---4---6-----0---|


C#|-----------------------------------|-----------------------------------|-------------------------------------|
G#|-----------------------------------|-----------------------------------|-------------------------------------|
 E|-----------------------------------|-----------------------------------|-------------------------------------|
 B|-----------------------------------|-----------------------------------|-------------------------------------|
F#|-0----1------0---0--1------0----1--|-----0---0--1------0----1------0---|-0--1------0----1------0---0--1------|
 B|-0----1------0---0--1------0----1--|-----0---0--1------0----1------0---|-0--1------0----1------0---0--1------|


C#|-----------------------------------|-----------------------------------|-------------------------------------|
G#|-----------------------------------|-----------------------------------|-------------------------------------|
 E|-----------------------------------|-----------------------------------|-------------------------------------|
 B|-----------------------------------|-----------------------------------|-------------------------------------|
F#|-0----1------0---0--1------0----1--|-----0---0--1------0----1------0---|-0--1------0----1------0---0--1------|
 B|-0----1------0---0--1------0----1--|-----0---0--1------0----1------0---|-0--1------0----1------0---0--1------|


C#|-----------------------------------|-----------------------------------|-------------------------------------|
G#|-----------------------------------|-----------------------------------|-------------------------------------|
 E|-----------------------------------|-----------------------------------|-------------------------------------|
 B|-----------------------------------|-----------------------------------|-------------------------------------|
F#|-0----1------0---0--1------0----1--|-----0---0--1------0----1------0---|-0--1------0----1------0---0--1------|
 B|-0----1------0---0--1------0----1--|-----0---0--1------0----1------0---|-0--1------0----1------0---0--1------|


C#|---------------------------------|---------------------------------|---------------------------------|
G#|---------------------------------|---------------------------------|---------------------------------|
 E|---------------------------------|---------------------------------|---------------------------------|
 B|---------------------------------|---------------------------------|---------------------------------|
F#|-5-----------5---5-------5-------|-----5---5-------5-----------5---|-5-------5-----------5---5--1----|
 B|------1--1----------1---------1--|-1----------1---------1--1-------|----1---------1--1----------1----|


C#|---------------------------------|---------------------------------|-----------------------------------|
G#|---------------------------------|---------------------------------|-----------------------------------|
 E|---------------------------------|---------------------------------|-----------------------------------|
 B|---------------------------------|---------------------------------|-----------------------------------|
F#|-0----1--1---0---0--1----0----1--|-1---0---0--1----0----1------0---|-0--1------0----1------0---0--1----|
 B|-0----1--1---0---0--1----0----1--|-1---0---0--1----0----1------0---|-0--1------0----1------0---0--1----|


C#|-----------------------------------|-----------------------------------|-----------------------------------|
G#|-----------------------------------|-----------------------------------|-----------------------------------|
 E|-----------------------------------|-----------------------------------|-----------------------------------|
 B|-8---0--0--0---0---0---1---1---0---|-----0--0--0---0---0---1---1---0---|-8---0--0--0---0---0---1---1---0---|
F#|-8---0--0--0---0---0---1---1---0---|-9---0--0--0---0---0---1---1---0---|-8---0--0--0---0---0---1---1---0---|
 B|-8---0--0--0---0---0---1---1---0---|-9---0--0--0---0---0---1---1---0---|-8---0--0--0---0---0---1---1---0---|


C#|----------------------------------|-----------------------------------|-----------------------------------|
G#|----------------------------------|-----------------------------------|-----------------------------------|
 E|----------------------------------|-----------------------------------|-----------------------------------|
 B|-----0--0--0---0--0---------------|-8---0--0--0---0---0---1---1---0---|-----0--0--0---0---0---1---1---0---|
F#|-9---0--0--0---0--0---------------|-8---0--0--0---0---0---1---1---0---|-9---0--0--0---0---0---1---1---0---|
 B|-9---0--0--0---0--0--0---1---8----|-8---0--0--0---0---0---1---1---0---|-9---0--0--0---0---0---1---1---0---|


C#|-----------------------------------|----------------------------------|-----------------------------------|
G#|-----------------------------------|----------------------------------|-----------------------------------|
 E|-----------------------------------|----------------------------------|-----------------------------------|
 B|-8---0--0--0---0---0---1---1---0---|-----0--0--0---0--0---------------|-8---0--0--0---0---0---1---1---0---|
F#|-8---0--0--0---0---0---1---1---0---|-9---0--0--0---0--0---------------|-8---0--0--0---0---0---1---1---0---|
 B|-8---0--0--0---0---0---1---1---0---|-9---0--0--0---0--0--0---1---8----|-8---0--0--0---0---0---1---1---0---|


C#|-----------------------------------|-----------------------------------|----------------------------------|
G#|-----------------------------------|-----------------------------------|----------------------------------|
 E|-----------------------------------|-----------------------------------|----------------------------------|
 B|-----0--0--0---0---0---1---1---0---|-8---0--0--0---0---0---1---1---0---|-----0--0--0---0--0---------------|
F#|-9---0--0--0---0---0---1---1---0---|-8---0--0--0---0---0---1---1---0---|-9---0--0--0---0--0---------------|
 B|-9---0--0--0---0---0---1---1---0---|-8---0--0--0---0---0---1---1---0---|-9---0--0--0---0--0--0---1---8----|


C#|-----------------------------------|-----------------------------------|-----------------------------------|
G#|-----------------------------------|-----------------------------------|-----------------------------------|
 E|-----------------------------------|-----------------------------------|-----------------------------------|
 B|-8---0--0--0---0---0---1---1---0---|-----0--0--0---0---0---1---1---0---|-8---0--0--0---0---0---1---1---0---|
F#|-8---0--0--0---0---0---1---1---0---|-9---0--0--0---0---0---1---1---0---|-8---0--0--0---0---0---1---1---0---|
 B|-8---0--0--0---0---0---1---1---0---|-9---0--0--0---0---0---1---1---0---|-8---0--0--0---0---0---1---1---0---|


C#|----------------------------------|-----------------|-----------------|-----------------|
G#|----------------------------------|-----------------|-----------------|-----------------|
 E|----------------------------------|-----------------|-----------------|-----------------|
 B|-----0--0--0---0--0---------------|-2-----1---1-----|-0-----1---1-----|-2-----1---1-----|
F#|-9---0--0--0---0--0---------------|-2-----1---1-----|-0-----1---1-----|-2-----1---1-----|
 B|-9---0--0--0---0--0--0---1---8----|-2-----1---1-----|-0-----1---1-----|-2-----1---1-----|


C#|-----------------|-----------------|-----------------|-----------------|-----------------|
G#|-----------------|-----------------|-----------------|-----------------|-----------------|
 E|-----------------|-----------------|-----------------|-----------------|-----------------|
 B|-0-----1---1-----|-2-----1---1-----|-0-----1---1-----|-2-----1---1-----|-0-----1---1-----|
F#|-0-----1---1-----|-2-----1---1-----|-0-----1---1-----|-2-----1---1-----|-0-----1---1-----|
 B|-0-----1---1-----|-2-----1---1-----|-0-----1---1-----|-2-----1---1-----|-0-----1---1-----|


C#|------------------------|-----------------|------------------------|-----------------------|
G#|------------------------|-----------------|------------------------|-----------------------|
 E|---------------19-------|-----------------|---------------19-------|-----------------------|
 B|-2-----1-----------9----|-0-----1---------|-2-----1-----------9----|-0---0---0---2---------|
F#|-2-----1----------------|-0-----1---------|-2-----1----------------|-0---0---0---2---------|
 B|-2-----1----------------|-0-----1---------|-2-----1----------------|-0---0---0---2---------|


C#|------------------------|-----------------|------------------------|-----------------------|
G#|------------------------|-----------------|------------------------|-----------------------|
 E|---------------19-------|-----------------|---------------19-------|-----------------------|
 B|-2-----1-----------9----|-0-----1---------|-2-----1-----------9----|-0---0---0---2---------|
F#|-2-----1----------------|-0-----1---------|-2-----1----------------|-0---0---0---2---------|
 B|-2-----1----------------|-0-----1---------|-2-----1----------------|-0---0---0---2---------|





Track 2: Distorted Guitar

C#|--------|--------|--------|--------|--------|--------|--------|--------|--------|
G#|--------|--------|--------|--------|--------|--------|--------|--------|--------|
 E|--------|--------|--------|--------|--------|--------|--------|--------|--------|
 B|--------|--------|--------|--------|--------|--------|--------|--------|--------|
F#|--------|--------|--------|--------|--------|--------|--------|--------|--------|
 B|--------|--------|--------|--------|--------|--------|--------|--------|--------|


C#|--------|--------|--------|--------|--------|--------|--------|--------|--------|
G#|--------|--------|--------|--------|--------|--------|--------|--------|--------|
 E|--------|--------|--------|--------|--------|--------|--------|--------|--------|
 B|--------|--------|--------|--------|--------|--------|--------|--------|--------|
F#|--------|--------|--------|--------|--------|--------|--------|--------|--------|
 B|--------|--------|--------|--------|--------|--------|--------|--------|--------|


C#|--------|--------|--------|--------|--------|--------|--------|--------|--------|
G#|--------|--------|--------|--------|--------|--------|--------|--------|--------|
 E|--------|--------|--------|--------|--------|--------|--------|--------|--------|
 B|--------|--------|--------|--------|--------|--------|--------|--------|--------|
F#|--------|--------|--------|--------|--------|--------|--------|--------|--------|
 B|--------|--------|--------|--------|--------|--------|--------|--------|--------|


C#|--------|--------|--------|--------|--------|--------|--------|--------|--------|
G#|--------|--------|--------|--------|--------|--------|--------|--------|--------|
 E|--------|--------|--------|--------|--------|--------|--------|--------|--------|
 B|--------|--------|--------|--------|--------|--------|--------|--------|--------|
F#|--------|--------|--------|--------|--------|--------|--------|--------|--------|
 B|--------|--------|--------|--------|--------|--------|--------|--------|--------|


C#|---------------------------------------|---------------------------------------|
G#|---------------------------------------|---------------------------------------|
 E|---------------------------------------|---------------------------------------|
 B|---------------------------------------|---------------------------------------|
F#|---------------------------------------|---------------------------------------|
 B|-13--0---0--0---0--0--0---0--0--0---0--|-13--0---0--0---0--0--0---0--0--0---0--|


C#|--------|--------|--------|--------|--------|--------|--------|--------|--------|
G#|--------|--------|--------|--------|--------|--------|--------|--------|--------|
 E|--------|--------|--------|--------|--------|--------|--------|--------|--------|
 B|--------|--------|--------|--------|--------|--------|--------|--------|--------|
F#|--------|--------|--------|--------|--------|--------|--------|--------|--------|
 B|--------|--------|--------|--------|--------|--------|--------|--------|--------|


C#|--------|--------|--------|--------|--------|--------|--------|--------|--------|
G#|--------|--------|--------|--------|--------|--------|--------|--------|--------|
 E|--------|--------|--------|--------|--------|--------|--------|--------|--------|
 B|--------|--------|--------|--------|--------|--------|--------|--------|--------|
F#|--------|--------|--------|--------|--------|--------|--------|--------|--------|
 B|--------|--------|--------|--------|--------|--------|--------|--------|--------|


C#|--------|--------|--------|--------|--------|--------|--------|--------|--------|
G#|--------|--------|--------|--------|--------|--------|--------|--------|--------|
 E|--------|--------|--------|--------|--------|--------|--------|--------|--------|
 B|--------|--------|--------|--------|--------|--------|--------|--------|--------|
F#|--------|--------|--------|--------|--------|--------|--------|--------|--------|
 B|--------|--------|--------|--------|--------|--------|--------|--------|--------|


C#|--------|--------|--------|--------|--------|--------|--------|--------|--------|
G#|--------|--------|--------|--------|--------|--------|--------|--------|--------|
 E|--------|--------|--------|--------|--------|--------|--------|--------|--------|
 B|--------|--------|--------|--------|--------|--------|--------|--------|--------|
F#|--------|--------|--------|--------|--------|--------|--------|--------|--------|
 B|--------|--------|--------|--------|--------|--------|--------|--------|--------|


C#|--------|--------|--------|--------|--------|--------|--------|--------|--------|
G#|--------|--------|--------|--------|--------|--------|--------|--------|--------|
 E|--------|--------|--------|--------|--------|--------|--------|--------|--------|
 B|--------|--------|--------|--------|--------|--------|--------|--------|--------|
F#|--------|--------|--------|--------|--------|--------|--------|--------|--------|
 B|--------|--------|--------|--------|--------|--------|--------|--------|--------|


C#|--------|--------|--------|--------|--------|--------|--------|--------|--------|
G#|--------|--------|--------|--------|--------|--------|--------|--------|--------|
 E|--------|--------|--------|--------|--------|--------|--------|--------|--------|
 B|--------|--------|--------|--------|--------|--------|--------|--------|--------|
F#|--------|--------|--------|--------|--------|--------|--------|--------|--------|
 B|--------|--------|--------|--------|--------|--------|--------|--------|--------|


C#|--------|--------|--------|--------|--------|--------|--------|--------|--------|
G#|--------|--------|--------|--------|--------|--------|--------|--------|--------|
 E|--------|--------|--------|--------|--------|--------|--------|--------|--------|
 B|--------|--------|--------|--------|--------|--------|--------|--------|--------|
F#|--------|--------|--------|--------|--------|--------|--------|--------|--------|
 B|--------|--------|--------|--------|--------|--------|--------|--------|--------|


C#|--------|--------|--------|--------|--------|--------|--------|--------|
G#|--------|--------|--------|--------|--------|--------|--------|--------|
 E|--------|--------|--------|--------|--------|--------|--------|--------|
 B|--------|--------|--------|--------|--------|--------|--------|--------|
F#|--------|--------|--------|--------|--------|--------|--------|--------|
 B|--------|--------|--------|--------|--------|--------|--------|--------|





Track 3: Distorted Guitar

C#|--------|--------|--------|--------|--------|--------|--------|--------|--------|
G#|--------|--------|--------|--------|--------|--------|--------|--------|--------|
 E|--------|--------|--------|--------|--------|--------|--------|--------|--------|
 B|--------|--------|--------|--------|--------|--------|--------|--------|--------|
F#|--------|--------|--------|--------|--------|--------|--------|--------|--------|
 B|--------|--------|--------|--------|--------|--------|--------|--------|--------|


C#|--------|--------|--------|--------|--------|--------|--------|--------|--------|
G#|--------|--------|--------|--------|--------|--------|--------|--------|--------|
 E|--------|--------|--------|--------|--------|--------|--------|--------|--------|
 B|--------|--------|--------|--------|--------|--------|--------|--------|--------|
F#|--------|--------|--------|--------|--------|--------|--------|--------|--------|
 B|--------|--------|--------|--------|--------|--------|--------|--------|--------|


C#|--------|--------|--------|--------|--------|--------|--------|--------|--------|
G#|--------|--------|--------|--------|--------|--------|--------|--------|--------|
 E|--------|--------|--------|--------|--------|--------|--------|--------|--------|
 B|--------|--------|--------|--------|--------|--------|--------|--------|--------|
F#|--------|--------|--------|--------|--------|--------|--------|--------|--------|
 B|--------|--------|--------|--------|--------|--------|--------|--------|--------|


C#|--------|--------|--------|--------|--------|--------|--------|--------|--------|
G#|--------|--------|--------|--------|--------|--------|--------|--------|--------|
 E|--------|--------|--------|--------|--------|--------|--------|--------|--------|
 B|--------|--------|--------|--------|--------|--------|--------|--------|--------|
F#|--------|--------|--------|--------|--------|--------|--------|--------|--------|
 B|--------|--------|--------|--------|--------|--------|--------|--------|--------|


C#|--------|--------|--------|--------|--------|--------|--------|--------|--------|
G#|--------|--------|--------|--------|--------|--------|--------|--------|--------|
 E|--------|--------|--------|--------|--------|--------|--------|--------|--------|
 B|--------|--------|--------|--------|--------|--------|--------|--------|--------|
F#|--------|--------|--------|--------|--------|--------|--------|--------|--------|
 B|--------|--------|--------|--------|--------|--------|--------|--------|--------|


C#|--------|--------|--------|--------|--------|--------|--------|--------|--------|
G#|--------|--------|--------|--------|--------|--------|--------|--------|--------|
 E|--------|--------|--------|--------|--------|--------|--------|--------|--------|
 B|--------|--------|--------|--------|--------|--------|--------|--------|--------|
F#|--------|--------|--------|--------|--------|--------|--------|--------|--------|
 B|--------|--------|--------|--------|--------|--------|--------|--------|--------|


C#|--------|--------|--------|--------|--------|--------|--------|--------|--------|
G#|--------|--------|--------|--------|--------|--------|--------|--------|--------|
 E|--------|--------|--------|--------|--------|--------|--------|--------|--------|
 B|--------|--------|--------|--------|--------|--------|--------|--------|--------|
F#|--------|--------|--------|--------|--------|--------|--------|--------|--------|
 B|--------|--------|--------|--------|--------|--------|--------|--------|--------|


C#|--------|--------|--------|--------|--------|--------|--------|--------|--------|
G#|--------|--------|--------|--------|--------|--------|--------|--------|--------|
 E|--------|--------|--------|--------|--------|--------|--------|--------|--------|
 B|--------|--------|--------|--------|--------|--------|--------|--------|--------|
F#|--------|--------|--------|--------|--------|--------|--------|--------|--------|
 B|--------|--------|--------|--------|--------|--------|--------|--------|--------|


C#|--------|--------|--------|--------|--------|---------------------------------|
G#|--------|--------|--------|--------|--------|---------------------------------|
 E|--------|--------|--------|--------|--------|---------------------------------|
 B|--------|--------|--------|--------|--------|-8---8---8---0---0---0---0---0---|
F#|--------|--------|--------|--------|--------|---------------------------------|
 B|--------|--------|--------|--------|--------|---------------------------------|


C#|---------------------------------|---------------------------------|---------------------------------|
G#|---------------------------------|---------------------------------|---------------------------------|
 E|---------------------------------|---------------------------------|---------------------------------|
 B|-0---0---0---0---0---0---0---0---|-0---0---0---0---0---0---0---0---|-0---8---8---8---8---8---8---8---|
F#|---------------------------------|---------------------------------|---------------------------------|
 B|---------------------------------|---------------------------------|---------------------------------|


C#|---------------------------------|---------------------------------|---------------------------------|
G#|---------------------------------|---------------------------------|---------------------------------|
 E|---------------------------------|---------------------------------|---------------------------------|
 B|-8---8---8---0---0---0---0---0---|-0---0---0---0---0---0---0---0---|-0---0---0---0---0---0---0---0---|
F#|---------------------------------|---------------------------------|---------------------------------|
 B|---------------------------------|---------------------------------|---------------------------------|


C#|---------------------------------|---------------------------------|---------------------------------|
G#|---------------------------------|---------------------------------|---------------------------------|
 E|---------------------------------|---------------------------------|---------------------------------|
 B|-0---8---8---8---8---8---8---8---|-8---8---8---0---0---0---0---0---|-0---0---0---0---0---0---0---0---|
F#|---------------------------------|---------------------------------|---------------------------------|
 B|---------------------------------|---------------------------------|---------------------------------|


C#|---------------------------------|---------------------------------|---------------------------------|
G#|---------------------------------|---------------------------------|---------------------------------|
 E|---------------------------------|---------------------------------|---------------------------------|
 B|-0---0---0---0---0---0---0---0---|-0---8---8---8---8---8---8---8---|-8---8---8---0---0---0---0---0---|
F#|---------------------------------|---------------------------------|---------------------------------|
 B|---------------------------------|---------------------------------|---------------------------------|


C#|---------------------------------|---------------------------------|---------------------------------|
G#|---------------------------------|---------------------------------|---------------------------------|
 E|---------------------------------|---------------------------------|---------------------------------|
 B|-0---0---0---0---0---0---0---0---|-0---0---0---0---0---0---0---0---|-0---8---8---8---8---8---8---8---|
F#|---------------------------------|---------------------------------|---------------------------------|
 B|---------------------------------|---------------------------------|---------------------------------|


C#|--------|--------|--------|--------|--------|--------|--------|--------|--------|
G#|--------|--------|--------|--------|--------|--------|--------|--------|--------|
 E|--------|--------|--------|--------|--------|--------|--------|--------|--------|
 B|--------|--------|--------|--------|--------|--------|--------|--------|--------|
F#|--------|--------|--------|--------|--------|--------|--------|--------|--------|
 B|--------|--------|--------|--------|--------|--------|--------|--------|--------|


C#|--------|--------|--------|--------|--------|--------|--------|
G#|--------|--------|--------|--------|--------|--------|--------|
 E|--------|--------|--------|--------|--------|--------|--------|
 B|--------|--------|--------|--------|--------|--------|--------|
F#|--------|--------|--------|--------|--------|--------|--------|
 B|--------|--------|--------|--------|--------|--------|--------|





Track 4: Bass

 E|--------|--------|--------|--------|---------------------------------------|---------------------------------------|
 B|--------|--------|--------|--------|---------------------------------------|---------------------------------------|
F#|--------|--------|--------|--------|---------------------------------------|---------------------------------------|
 B|--------|--------|--------|--------|-13--0---0--0---0--0--0---0--0--0---0--|-13--0---0--0---0--0--0---0--0--0---0--|


 E|--------------------|--------|---------------------------------|---------------------------------|
 B|--------------------|--------|---------------------------------|---------------------------------|
F#|--------------------|--------|---------------------------------|---------------------------------|
 B|-1---0--------------|--------|-1---0---1--0----1--0----1--0----|-1---0---1--0----1--0----1--0----|


 E|---------------------------------|---------------------------------|---------------------------------|
 B|---------------------------------|---------------------------------|---------------------------------|
F#|---------------------------------|---------------------------------|---------------------------------|
 B|-1---0---1--0----1--0----1--0----|-1---0---1--0----1--0----1--0----|-1---0---1--0----1--0----1--0----|


 E|---------------------------------|---------------------------------|-----------------------|
 B|---------------------------------|---------------------------------|-----------------------|
F#|---------------------------------|---------------------------------|-----------------------|
 B|-1---0---1--0----1--0----1--0----|-1---0---1--0----1--0----1--0----|-1---0-------------0---|


 E|-----------------------|---------------------------|-----------------------|---------------------------------|
 B|-----------------------|---------------------------|-----------------------|---------------------------------|
F#|-----------------------|---------------------------|-----------------------|---------------------------------|
 B|-1---0-------------0---|-1---0---5---4---------0---|-1---0-------------0---|-1---0---4---2-------2-------0---|


 E|-----------------------|---------------------------|-----------------------|---------------------------|
 B|-----------------------|---------------------------|-----------------------|---------------------------|
F#|-----------------------|---------------------------|-----------------------|---------------------------|
 B|-1---0-------------0---|-1---0---5---4---------0---|-1---0-------------0---|-1---0---5---4---------0---|


 E|-----------------------|---------------------------|-----------------------|---------------------------|
 B|-----------------------|---------------------------|-----------------------|---------------------------|
F#|-----------------------|---------------------------|-----------------------|---------------------------|
 B|-1---0-------------0---|-1---0---5---4---------0---|-1---0-------------0---|-1---0---5---4---------0---|


 E|-----------------------------------|-----------------------|-----------------------------------|
 B|-----------------------------------|-----------------------|-----------------------------------|
F#|-----------------------------------|-----------------------|-----------------------------------|
 B|-1---0-------0-------0-------0--0--|-1---0---5---4---------|-1---0-------0-------0-------0--0--|


 E|-----------------------|-----------------------------------|-----------------------------------|
 B|-----------------------|-----------------------------------|-----------------------------------|
F#|-----------------------|-----------------------------------|-----------------------------------|
 B|-1---0---5---4---------|-1---0-------0-------0-------0--0--|-1---0-------0-------0-------0--0--|


 E|-----------------------------------|-----------------------|--------|--------|---------------------------------|
 B|-----------------------------------|-----------------------|--------|--------|---------------------------------|
F#|-----------------------------------|-----------------------|--------|--------|---------------------------------|
 B|-1---0-------0-------0-------0--0--|-1---0---5---4---------|--------|--------|-1---0---1--0----1--0----1--0----|


 E|---------------------------------|---------------------------------|---------------------------------|
 B|---------------------------------|---------------------------------|---------------------------------|
F#|---------------------------------|---------------------------------|---------------------------------|
 B|-1---0---1--0----1--0----1--0----|-1---0---1--0----1--0----1--0----|-1---0---1--0----1--0----1--0----|


 E|---------------------------------|---------------------------------|---------------------------------|
 B|---------------------------------|---------------------------------|---------------------------------|
F#|---------------------------------|---------------------------------|---------------------------------|
 B|-1---0---1--0----1--0----1--0----|-1---0---1--0----1--0----1--0----|-1---0---1--0----1--0----1--0----|


 E|---------------------------------|-----------------------|---------------------------|
 B|---------------------------------|-----------------------|---------------------------|
F#|---------------------------------|-----------------------|---------------------------|
 B|-1---0---1--0----1--0----1--0----|-1---0-------------0---|-1---0---5---4---------0---|


 E|-----------------------|---------------------------|-----------------------|---------------------------|
 B|-----------------------|---------------------------|-----------------------|---------------------------|
F#|-----------------------|---------------------------|-----------------------|---------------------------|
 B|-1---0-------------0---|-1---0---5---4---------0---|-1---0-------------0---|-1---0---5---4---------0---|


 E|-----------------------|---------------------------|-----------------------------------|
 B|-----------------------|---------------------------|-----------------------------------|
F#|-----------------------|---------------------------|-----------------------------------|
 B|-1---0-------------0---|-1---0---5---4---------0---|-1---0-------0-------0-------0--0--|


 E|-----------------------|-----------------------------------|-----------------------|
 B|-----------------------|-----------------------------------|-----------------------|
F#|-----------------------|-----------------------------------|-----------------------|
 B|-1---0---5---4---------|-1---0-------0-------0-------0--0--|-1---0---5---4---------|


 E|-----------------------------------|-----------------------------------|-----------------------------------|
 B|-----------------------------------|-----------------------------------|-----------------------------------|
F#|-----------------------------------|-----------------------------------|-----------------------------------|
 B|-1---0-------0-------0-------0--0--|-1---0-------0-------0-------0--0--|-1---0-------0-------0-------0--0--|


 E|-----------------------|-----------------------------------|-----------------------------------|
 B|-----------------------|-----------------------------------|-----------------------------------|
F#|-----------------------|-----------------------------------|-----------------------------------|
 B|-1---0---5---4---------|-0----1------0---0--1------0----1--|-----0---0--1------0----1------0---|


 E|-------------------------------------|-----------------------------------|-----------------------------------|
 B|-------------------------------------|-----------------------------------|-----------------------------------|
F#|-------------------------------------|-----------------------------------|-----------------------------------|
 B|-0--1------0----1------0---0--1------|-0----1------0---0--1------0----1--|-----0---0--1------0----1------0---|


 E|-------------------------------------|-----------------------------------|-----------------------------------|
 B|-------------------------------------|-----------------------------------|-----------------------------------|
F#|-------------------------------------|-----------------------------------|-----------------------------------|
 B|-0--1------0----1------0---0--1------|-0----1------0---0--1------0----1--|-----0---0--1------0----1------0---|


 E|-------------------------------------|-----------------------------------|-----------------------------------|
 B|-------------------------------------|-----------------------------------|-----------------------------------|
F#|-------------------------------------|-----------------------------------|-----------------------------------|
 B|-0--1------0----1------0---0--1------|-0----1------0---0--1------0----1--|-----0---0--1------0----1------0---|


 E|-------------------------------------|---------------------------------|---------------------------------|
 B|-------------------------------------|---------------------------------|---------------------------------|
F#|-------------------------------------|---------------------------------|---------------------------------|
 B|-0--1------0----1------0---0--1------|-0----1--1---0---0--1----0----1--|-1---0---0--1----0----1------0---|


 E|-----------------------------------|-----------------------------------|-----------------------------------|
 B|-----------------------------------|-----------------------------------|-----------------------------------|
F#|-----------------------------------|-----------------------------------|-----------------------------------|
 B|-0--1------0----1------0---0--1----|-8---0--0--0---0---0---1---1---0---|-8---0--0--0---0---0---1---1---0---|


 E|-----------------------------------|----------------------------------|-----------------------------------|
 B|-----------------------------------|----------------------------------|-----------------------------------|
F#|-----------------------------------|----------------------------------|-----------------------------------|
 B|-8---0--0--0---0---0---1---1---0---|-8---0--0--0---0--0--0---1---8----|-8---0--0--0---0---0---1---1---0---|


 E|-----------------------------------|-----------------------------------|----------------------------------|
 B|-----------------------------------|-----------------------------------|----------------------------------|
F#|-----------------------------------|-----------------------------------|----------------------------------|
 B|-8---0--0--0---0---0---1---1---0---|-8---0--0--0---0---0---1---1---0---|-8---0--0--0---0--0--0---1---8----|


 E|-----------------------------------|-----------------------------------|-----------------------------------|
 B|-----------------------------------|-----------------------------------|-----------------------------------|
F#|-----------------------------------|-----------------------------------|-----------------------------------|
 B|-8---0--0--0---0---0---1---1---0---|-8---0--0--0---0---0---1---1---0---|-8---0--0--0---0---0---1---1---0---|


 E|----------------------------------|-----------------------------------|-----------------------------------|
 B|----------------------------------|-----------------------------------|-----------------------------------|
F#|----------------------------------|-----------------------------------|-----------------------------------|
 B|-8---0--0--0---0--0--0---1---8----|-8---0--0--0---0---0---1---1---0---|-8---0--0--0---0---0---1---1---0---|


 E|-----------------------------------|----------------------------------|-----------------|
 B|-----------------------------------|----------------------------------|-----------------|
F#|-----------------------------------|----------------------------------|-----------------|
 B|-8---0--0--0---0---0---1---1---0---|-8---0--0--0---0--0--0---1---8----|-2-----1---1-----|


 E|-----------------|-----------------|-----------------|-----------------|-----------------|
 B|-----------------|-----------------|-----------------|-----------------|-----------------|
F#|-----------------|-----------------|-----------------|-----------------|-----------------|
 B|-0-----1---1-----|-2-----1---1-----|-0-----1---1-----|-2-----1---1-----|-0-----1---1-----|


 E|-----------------|-----------------|-----------------|-----------------|-----------------|
 B|-----------------|-----------------|-----------------|-----------------|-----------------|
F#|-----------------|-----------------|-----------------|-----------------|-----------------|
 B|-2-----1---1-----|-0-----1---1-----|-2-----1---------|-0-----1---------|-2-----1---------|


 E|-----------------------|-----------------|-----------------|-----------------|-----------------------|
 B|-----------------------|-----------------|-----------------|-----------------|-----------------------|
F#|-----------------------|-----------------|-----------------|-----------------|-----------------------|
 B|-0---0---0---2---------|-2-----1---------|-0-----1---------|-2-----1---------|-0---0---0---2---------|