Menu:

 

Search:

 

slipknot - gently demo:

 



Title: Gently
Artist: 
Album: Mate.Feed.Kill.Repeat.
Author: Slipknot


Track 1: Clean

D|-----------------1---0-----------|-----------------0---------------|---------------------------------|
A|---------3---------------3-------|---------3-----------3-------3---|---------------------------------|
F|-----2-------2---------------2---|-----3-------3-----------3-------|---------3-------3-----------3---|
C|-0-------------------------------|---------------------------------|-----2-------2-------2---2-------|
G|---------------------------------|-1-------------------------------|-0-------------------------------|
C|---------------------------------|---------------------------------|---------------------------------|


D|-----------------------|-----------------4---5-----------|-----8---6---------------6-------|
A|-----------------------|-----5---6---------------6-------|-------------6-------6-------6---|
F|---------3-------2-----|-------------7---------------7---|-----------------7---------------|
C|-2---2-------2---------|-0-------------------------------|-0-------------------------------|
G|-----------------------|---------------------------------|---------------------------------|
C|-----------------------|---------------------------------|---------------------------------|


D|---------------------------------|-----------------------|-----------------1---0-----------|
A|---------------------------------|-----------------------|---------3---------------3-------|
F|---------3-------3-----------3---|---------3-------2-----|-----2-------2---------------2---|
C|-----2-------2-------2---2-------|-2---2-------2---------|-0-------------------------------|
G|-0-------------------------------|-----------------------|---------------------------------|
C|---------------------------------|-----------------------|---------------------------------|


D|-----------------0---------------|---------------------------------|-----------------------|
A|---------3-----------3-------3---|---------------------------------|-----------------------|
F|-----3-------3-----------3-------|---------3-------3-----------3---|---------3-------2-----|
C|---------------------------------|-----2-------2-------2---2-------|-2---2-------2---------|
G|-1-------------------------------|-0-------------------------------|-----------------------|
C|---------------------------------|---------------------------------|-----------------------|


D|-----------------4---5-----------|-----8---6--8--6--------------6-------|---------------------------------|
A|-----5---6---------------6-------|------------------6-------6-------6---|---------------------------------|
F|-------------7---------------7---|----------------------7---------------|---------3-------3-----------3---|
C|-0-------------------------------|-0------------------------------------|-----2-------2-------2---2-------|
G|---------------------------------|--------------------------------------|-0-------------------------------|
C|---------------------------------|--------------------------------------|---------------------------------|


D|-----------------------|-----------------1---0-----------|-----------------0---------------|
A|-----------------------|---------3---------------3-------|---------3-----------3-------3---|
F|---------3-------2-----|-----2-------2---------------2---|-----3-------3-----------3-------|
C|-2---2-------2---------|-0-------------------------------|---------------------------------|
G|-----------------------|---------------------------------|-1-------------------------------|
C|-----------------------|---------------------------------|---------------------------------|


D|---------------------------------|-----------------------|-----------------4---5-----------|
A|---------------------------------|-----------------------|-----5---6---------------6-------|
F|---------3-------3-----------3---|---------3-------2-----|-------------7---------------7---|
C|-----2-------2-------2---2-------|-2---2-------2---------|-0-------------------------------|
G|-0-------------------------------|-----------------------|---------------------------------|
C|---------------------------------|-----------------------|---------------------------------|


D|-----8---6---------------6-------|---------------------------------|-----------------------|
A|-------------6-------6-------6---|---------------------------------|-----------------------|
F|-----------------7---------------|---------3-------3-----------3---|---------3-------2-----|
C|-0-------------------------------|-----2-------2-------2---2-------|-2---2-------2---------|
G|---------------------------------|-0-------------------------------|-----------------------|
C|---------------------------------|---------------------------------|-----------------------|


D|-----------------1---0-----------|-----------------0---------------|---------------------------------|
A|---------3---------------3-------|---------3-----------3-------3---|---------------------------------|
F|-----2-------2---------------2---|-----3-------3-----------3-------|---------3-------3-----------3---|
C|-0-------------------------------|---------------------------------|-----2-------2-------2---2-------|
G|---------------------------------|-1-------------------------------|-0-------------------------------|
C|---------------------------------|---------------------------------|---------------------------------|


D|-----------------------|-----------------4---5-----------|-----8---6--8--6--------------6-------|
A|-----------------------|-----5---6---------------6-------|------------------6-------6-------6---|
F|---------3-------2-----|-------------7---------------7---|----------------------7---------------|
C|-2---2-------2---------|-0-------------------------------|-0------------------------------------|
G|-----------------------|---------------------------------|--------------------------------------|
C|-----------------------|---------------------------------|--------------------------------------|


D|---------------------------------|-----------------------|-----------------1---0-------0---|
A|---------------------------------|-----------------------|---------3---------------3-------|
F|---------3-------3-----------3---|---------3-------2-----|-----2-------2-------------------|
C|-----2-------2-------2---2-------|-2---2-------2---------|-0-------------------------------|
G|-0-------------------------------|-----------------------|---------------------------------|
C|---------------------------------|-----------------------|---------------------------------|


D|-----------------3---------------|-----------------0---------------|-----0---------------0-----------|
A|---------1-----------1-------1---|---------1-----------1-------3---|---------3---------------3-------|
F|-----2-------2-----------2-------|-----0-------0-----------0-------|-------------0---------------0---|
C|-3-------------------------------|---------------------------------|---------------------------------|
G|---------------------------------|-3-------------------------------|-1---------------3---------------|
C|---------------------------------|---------------------------------|---------------------------------|


D|-----------------1---0-------0---|-----------------3---------------|-----------------0---------------|
A|---------3---------------3-------|---------1-----------1-------1---|---------1-----------1-------3---|
F|-----2-------2-------------------|-----2-------2-----------2-------|-----0-------0-----------0-------|
C|-0-------------------------------|-3-------------------------------|---------------------------------|
G|---------------------------------|---------------------------------|-3-------------------------------|
C|---------------------------------|---------------------------------|---------------------------------|


D|-----0---------------0-----------|-----------------1---0-------0---|-----------------3---------------|
A|---------3---------------3-------|---------3---------------3-------|---------1-----------1-------1---|
F|-------------0---------------0---|-----2-------2-------------------|-----2-------2-----------2-------|
C|---------------------------------|-0-------------------------------|-3-------------------------------|
G|-1---------------3---------------|---------------------------------|---------------------------------|
C|---------------------------------|---------------------------------|---------------------------------|


D|-----------------0---------------|-----0---------------0-----------|-----------------1---0-------0---|
A|---------1-----------1-------3---|---------3---------------3-------|---------3---------------3-------|
F|-----0-------0-----------0-------|-------------0---------------0---|-----2-------2-------------------|
C|---------------------------------|---------------------------------|-0-------------------------------|
G|-3-------------------------------|-1---------------3---------------|---------------------------------|
C|---------------------------------|---------------------------------|---------------------------------|


D|-----------------3---------------|-----------------0---------------|-----0---------------0-----------|
A|---------1-----------1-------1---|---------1-----------1-------3---|---------3---------------3-------|
F|-----2-------2-----------2-------|-----0-------0-----------0-------|-------------0---------------0---|
C|-3-------------------------------|---------------------------------|---------------------------------|
G|---------------------------------|-3-------------------------------|-1---------------3---------------|
C|---------------------------------|---------------------------------|---------------------------------|


D|--------|--------|--------|--------|--------|--------|--------|--------|--------|
A|--------|--------|--------|--------|--------|--------|--------|--------|--------|
F|--------|--------|--------|--------|--------|--------|--------|--------|--------|
C|--------|--------|--------|--------|--------|--------|--------|--------|--------|
G|--------|--------|--------|--------|--------|--------|--------|--------|--------|
C|--------|--------|--------|--------|--------|--------|--------|--------|--------|


D|--------|--------|--------|--------|--------|--------|--------|--------|--------|
A|--------|--------|--------|--------|--------|--------|--------|--------|--------|
F|--------|--------|--------|--------|--------|--------|--------|--------|--------|
C|--------|--------|--------|--------|--------|--------|--------|--------|--------|
G|--------|--------|--------|--------|--------|--------|--------|--------|--------|
C|--------|--------|--------|--------|--------|--------|--------|--------|--------|


D|--------|--------|--------|--------|--------|--------|--------|--------|--------|
A|--------|--------|--------|--------|--------|--------|--------|--------|--------|
F|--------|--------|--------|--------|--------|--------|--------|--------|--------|
C|--------|--------|--------|--------|--------|--------|--------|--------|--------|
G|--------|--------|--------|--------|--------|--------|--------|--------|--------|
C|--------|--------|--------|--------|--------|--------|--------|--------|--------|


D|--------|--------|--------|--------|--------|--------|--------|--------|--------|
A|--------|--------|--------|--------|--------|--------|--------|--------|--------|
F|--------|--------|--------|--------|--------|--------|--------|--------|--------|
C|--------|--------|--------|--------|--------|--------|--------|--------|--------|
G|--------|--------|--------|--------|--------|--------|--------|--------|--------|
C|--------|--------|--------|--------|--------|--------|--------|--------|--------|


D|--------|--------|--------|--------|--------|--------|--------|--------|--------|
A|--------|--------|--------|--------|--------|--------|--------|--------|--------|
F|--------|--------|--------|--------|--------|--------|--------|--------|--------|
C|--------|--------|--------|--------|--------|--------|--------|--------|--------|
G|--------|--------|--------|--------|--------|--------|--------|--------|--------|
C|--------|--------|--------|--------|--------|--------|--------|--------|--------|


D|--------|--------|--------|--------|--------|--------|--------|--------|--------|
A|--------|--------|--------|--------|--------|--------|--------|--------|--------|
F|--------|--------|--------|--------|--------|--------|--------|--------|--------|
C|--------|--------|--------|--------|--------|--------|--------|--------|--------|
G|--------|--------|--------|--------|--------|--------|--------|--------|--------|
C|--------|--------|--------|--------|--------|--------|--------|--------|--------|


D|--------|--------|--------|--------|--------|--------|--------|--------|--------|
A|--------|--------|--------|--------|--------|--------|--------|--------|--------|
F|--------|--------|--------|--------|--------|--------|--------|--------|--------|
C|--------|--------|--------|--------|--------|--------|--------|--------|--------|
G|--------|--------|--------|--------|--------|--------|--------|--------|--------|
C|--------|--------|--------|--------|--------|--------|--------|--------|--------|


D|--------|--------|--------|--------|--------|--------|--------|--------|--------|
A|--------|--------|--------|--------|--------|--------|--------|--------|--------|
F|--------|--------|--------|--------|--------|--------|--------|--------|--------|
C|--------|--------|--------|--------|--------|--------|--------|--------|--------|
G|--------|--------|--------|--------|--------|--------|--------|--------|--------|
C|--------|--------|--------|--------|--------|--------|--------|--------|--------|


D|--------|--------|--------|--------|--------|--------|--------|--------|--------|
A|--------|--------|--------|--------|--------|--------|--------|--------|--------|
F|--------|--------|--------|--------|--------|--------|--------|--------|--------|
C|--------|--------|--------|--------|--------|--------|--------|--------|--------|
G|--------|--------|--------|--------|--------|--------|--------|--------|--------|
C|--------|--------|--------|--------|--------|--------|--------|--------|--------|


D|--------|--------|--------|--------|--------|--------|--------|--------|--------|
A|--------|--------|--------|--------|--------|--------|--------|--------|--------|
F|--------|--------|--------|--------|--------|--------|--------|--------|--------|
C|--------|--------|--------|--------|--------|--------|--------|--------|--------|
G|--------|--------|--------|--------|--------|--------|--------|--------|--------|
C|--------|--------|--------|--------|--------|--------|--------|--------|--------|


D|--------|--------|--------|--------|--------|--------|--------|--------|--------|
A|--------|--------|--------|--------|--------|--------|--------|--------|--------|
F|--------|--------|--------|--------|--------|--------|--------|--------|--------|
C|--------|--------|--------|--------|--------|--------|--------|--------|--------|
G|--------|--------|--------|--------|--------|--------|--------|--------|--------|
C|--------|--------|--------|--------|--------|--------|--------|--------|--------|


D|--------|--------|--------|--------|--------|--------|--------|--------|--------|
A|--------|--------|--------|--------|--------|--------|--------|--------|--------|
F|--------|--------|--------|--------|--------|--------|--------|--------|--------|
C|--------|--------|--------|--------|--------|--------|--------|--------|--------|
G|--------|--------|--------|--------|--------|--------|--------|--------|--------|
C|--------|--------|--------|--------|--------|--------|--------|--------|--------|


D|--------|--------|--------|--------|--------|--------|--------|--------|--------|
A|--------|--------|--------|--------|--------|--------|--------|--------|--------|
F|--------|--------|--------|--------|--------|--------|--------|--------|--------|
C|--------|--------|--------|--------|--------|--------|--------|--------|--------|
G|--------|--------|--------|--------|--------|--------|--------|--------|--------|
C|--------|--------|--------|--------|--------|--------|--------|--------|--------|


D|--------|--------|--------|--------|--------|--------|--------|--------|--------|
A|--------|--------|--------|--------|--------|--------|--------|--------|--------|
F|--------|--------|--------|--------|--------|--------|--------|--------|--------|
C|--------|--------|--------|--------|--------|--------|--------|--------|--------|
G|--------|--------|--------|--------|--------|--------|--------|--------|--------|
C|--------|--------|--------|--------|--------|--------|--------|--------|--------|


D|--------|--------|--------|--------|--------|--------|--------|--------|--------|
A|--------|--------|--------|--------|--------|--------|--------|--------|--------|
F|--------|--------|--------|--------|--------|--------|--------|--------|--------|
C|--------|--------|--------|--------|--------|--------|--------|--------|--------|
G|--------|--------|--------|--------|--------|--------|--------|--------|--------|
C|--------|--------|--------|--------|--------|--------|--------|--------|--------|


D|--------|--------|--------|--------|--------|--------|--------|--------|--------|
A|--------|--------|--------|--------|--------|--------|--------|--------|--------|
F|--------|--------|--------|--------|--------|--------|--------|--------|--------|
C|--------|--------|--------|--------|--------|--------|--------|--------|--------|
G|--------|--------|--------|--------|--------|--------|--------|--------|--------|
C|--------|--------|--------|--------|--------|--------|--------|--------|--------|


D|--------|--------|--------|--------|--------|--------|--------|--------|
A|--------|--------|--------|--------|--------|--------|--------|--------|
F|--------|--------|--------|--------|--------|--------|--------|--------|
C|--------|--------|--------|--------|--------|--------|--------|--------|
G|--------|--------|--------|--------|--------|--------|--------|--------|
C|--------|--------|--------|--------|--------|--------|--------|--------|





Track 2: Dist.GT1

D|--------|--------|--------|--------|--------|--------|--------|--------|--------|
A|--------|--------|--------|--------|--------|--------|--------|--------|--------|
F|--------|--------|--------|--------|--------|--------|--------|--------|--------|
C|--------|--------|--------|--------|--------|--------|--------|--------|--------|
G|--------|--------|--------|--------|--------|--------|--------|--------|--------|
C|--------|--------|--------|--------|--------|--------|--------|--------|--------|


D|--------|--------|--------|--------|--------|--------|--------|--------|--------|
A|--------|--------|--------|--------|--------|--------|--------|--------|--------|
F|--------|--------|--------|--------|--------|--------|--------|--------|--------|
C|--------|--------|--------|--------|--------|--------|--------|--------|--------|
G|--------|--------|--------|--------|--------|--------|--------|--------|--------|
C|--------|--------|--------|--------|--------|--------|--------|--------|--------|


D|--------|--------|--------|--------|--------|--------|--------|--------|--------|
A|--------|--------|--------|--------|--------|--------|--------|--------|--------|
F|--------|--------|--------|--------|--------|--------|--------|--------|--------|
C|--------|--------|--------|--------|--------|--------|--------|--------|--------|
G|--------|--------|--------|--------|--------|--------|--------|--------|--------|
C|--------|--------|--------|--------|--------|--------|--------|--------|--------|


D|--------|--------|--------|--------|--------|--------|--------|--------|--------|
A|--------|--------|--------|--------|--------|--------|--------|--------|--------|
F|--------|--------|--------|--------|--------|--------|--------|--------|--------|
C|--------|--------|--------|--------|--------|--------|--------|--------|--------|
G|--------|--------|--------|--------|--------|--------|--------|--------|--------|
C|--------|--------|--------|--------|--------|--------|--------|--------|--------|


D|--------|--------|--------|--------|--------|--------|--------|--------|--------|
A|--------|--------|--------|--------|--------|--------|--------|--------|--------|
F|--------|--------|--------|--------|--------|--------|--------|--------|--------|
C|--------|--------|--------|--------|--------|--------|--------|--------|--------|
G|--------|--------|--------|--------|--------|--------|--------|--------|--------|
C|--------|--------|--------|--------|--------|--------|--------|--------|--------|


D|--------|--------|--------|--------|--------|--------|--------|--------|--------|
A|--------|--------|--------|--------|--------|--------|--------|--------|--------|
F|--------|--------|--------|--------|--------|--------|--------|--------|--------|
C|--------|--------|--------|-0------|-0------|-0------|-0------|-0------|-0------|
G|--------|--------|--------|-0------|-0------|-0------|-0------|-0------|-0------|
C|--------|--------|--------|-0------|-0------|-0------|-0------|-0------|-0------|


D|--------|--------|--------|--------|--------|--------|--------|--------|--------|
A|--------|--------|--------|--------|--------|--------|--------|--------|--------|
F|--------|--------|--------|--------|--------|--------|--------|--------|--------|
C|-0------|-0------|-0------|-0------|-0------|-0------|-0------|-0------|-0------|
G|-0------|-0------|-0------|-0------|-0------|-0------|-0------|-0------|-0------|
C|-0------|-0------|-0------|-0------|-0------|-0------|-0------|-0------|-0------|


D|--------|--------|----------------|------------|--------|--------|----------------|
A|--------|--------|----------------|------------|--------|--------|----------------|
F|--------|--------|----------------|------------|--------|--------|----------------|
C|-0------|-0------|-8--------------|-8---7------|-7------|-0------|-8--------------|
G|-0------|-0------|-8------8---8---|-8---7------|-7------|-0------|-8------8---8---|
C|-0------|-0------|-8------8---8---|-8---7------|-7------|-0------|-8------8---8---|


D|------------|--------|---------------------------------|---------------------------------|
A|------------|--------|---------------------------------|---------------------------------|
F|------------|--------|---------------------------------|---------------------------------|
C|-8---7------|-7------|-0---0-----------0---0-----------|-8---8-----------8---8-----------|
G|-8---7------|-7------|-0---0---0---0---0---0---0---0---|-8---8---8---8---8---8---8---8---|
C|-8---7------|-7------|-0---0---0---0---0---0---0---0---|-8---8---8---8---8---8---8---8---|


D|---------------------------------|---------------------------------|---------------------------------|
A|---------------------------------|---------------------------------|---------------------------------|
F|---------------------------------|---------------------------------|---------------------------------|
C|-8---7-----------7-----------7---|---------7-------7-------7-------|-1---1-----------1---1-----------|
G|-8---7---7---7---7---7---7---7---|-7---7---7---7---7---7---7---7---|-1---1---1---1---1---1---1---1---|
C|-8---7---7---7---7---7---7---7---|-7---7---7---7---7---7---7---7---|-1---1---1---1---1---1---1---1---|


D|-------------|----------------|-----------------------|---------------------------------|
A|-------------|----------------|-----------------------|---------------------------------|
F|-4-----5-----|---------2------|-----------------------|---------------------------------|
C|-------------|---------2------|-2---0-----------------|-0---0-----------0---0-----------|
G|-2-----3-----|-5---3---0------|---------0---1---------|-0---0---0---0---0---0---0---0---|
C|-------------|-5---3----------|-----------------1-----|-0---0---0---0---0---0---0---0---|


D|---------------------------------|---------------------------------|---------------------------------|
A|---------------------------------|---------------------------------|---------------------------------|
F|---------------------------------|---------------------------------|---------------------------------|
C|-8---8-----------8---8-----------|-8---7-----------7-----------7---|---------7-------7-------7-------|
G|-8---8---8---8---8---8---8---8---|-8---7---7---7---7---7---7---7---|-7---7---7---7---7---7---7---7---|
C|-8---8---8---8---8---8---8---8---|-8---7---7---7---7---7---7---7---|-7---7---7---7---7---7---7---7---|


D|---------------------------------|-------------|----------------|-----------------------|
A|---------------------------------|-------------|----------------|-----------------------|
F|---------------------------------|-4-----5-----|---------2------|-----------------------|
C|-1---1-----------1---1-----------|-------------|---------2------|-2---0-----------------|
G|-1---1---1---1---1---1---1---1---|-2-----3-----|-5---3---0------|---------0---1---------|
C|-1---1---1---1---1---1---1---1---|-------------|-5---3----------|-----------------1-----|


D|----------------|-----------------------|------------|--------|----------------|
A|----------------|-----------------------|------------|--------|----------------|
F|-7------7---7---|-7---10----10--10--10--|-10--9------|-9------|-7------7---7---|
C|----------------|-----------------------|------------|--------|----------------|
G|-5------5---5---|-5---8-----8---8---8---|-8---7------|-7------|-5------5---5---|
C|----------------|-----------------------|------------|--------|----------------|


D|-----------------------|------------|--------|----------------|-----------------------|
A|-----------------------|------------|--------|----------------|-----------------------|
F|-7---10----10--10--10--|-10--9------|-9------|-7------7---7---|-7---10----10--10--10--|
C|-----------------------|------------|--------|----------------|-----------------------|
G|-5---8-----8---8---8---|-8---7------|-7------|-5------5---5---|-5---8-----8---8---8---|
C|-----------------------|------------|--------|----------------|-----------------------|


D|------------|--------|----------------|-----------------------|------------|--------|
A|------------|--------|----------------|-----------------------|------------|--------|
F|-10--9------|-9------|-7------7---7---|-7---10----10--10--10--|-10--9------|-9------|
C|------------|--------|----------------|-----------------------|------------|--------|
G|-8---7------|-7------|-5------5---5---|-5---8-----8---8---8---|-8---7------|-7------|
C|------------|--------|----------------|-----------------------|------------|--------|


D|--------|--------|--------|--------|--------|--------|--------|--------|--------|
A|--------|--------|--------|--------|--------|--------|--------|--------|--------|
F|-7------|-7------|-7------|-7------|-7------|-7------|-7------|-7------|-7------|
C|--------|--------|--------|--------|--------|--------|--------|--------|--------|
G|-5------|-5------|-5------|-5------|-5------|-5------|-5------|-5------|-5------|
C|--------|--------|--------|--------|--------|--------|--------|--------|--------|


D|--------|--------|--------|---------------------------------|---------------------------------|
A|--------|--------|--------|---------------------------------|---------------------------------|
F|-7------|-7------|-7------|---------------------------------|---------------------------------|
C|--------|--------|--------|-0---0-----------0---0-----------|-8---8-----------8---8-----------|
G|-5------|-5------|-5------|-0---0---0---0---0---0---0---0---|-8---8---8---8---8---8---8---8---|
C|--------|--------|--------|-0---0---0---0---0---0---0---0---|-8---8---8---8---8---8---8---8---|


D|---------------------------------|---------------------------------|---------------------------------|
A|---------------------------------|---------------------------------|---------------------------------|
F|---------------------------------|---------------------------------|---------------------------------|
C|-8---7-----------7-----------7---|---------7-------7-------7-------|-1---1-----------1---1-----------|
G|-8---7---7---7---7---7---7---7---|-7---7---7---7---7---7---7---7---|-1---1---1---1---1---1---1---1---|
C|-8---7---7---7---7---7---7---7---|-7---7---7---7---7---7---7---7---|-1---1---1---1---1---1---1---1---|


D|-------------|----------------|-----------------------|---------------------------------|
A|-------------|----------------|-----------------------|---------------------------------|
F|-4-----5-----|---------2------|-----------------------|---------------------------------|
C|-------------|---------2------|-2---0-----------------|-0---0-----------0---0-----------|
G|-2-----3-----|-5---3---0------|---------0---1---------|-0---0---0---0---0---0---0---0---|
C|-------------|-5---3----------|-----------------1-----|-0---0---0---0---0---0---0---0---|


D|---------------------------------|---------------------------------|---------------------------------|
A|---------------------------------|---------------------------------|---------------------------------|
F|---------------------------------|---------------------------------|---------------------------------|
C|-8---8-----------8---8-----------|-8---7-----------7-----------7---|---------7-------7-------7-------|
G|-8---8---8---8---8---8---8---8---|-8---7---7---7---7---7---7---7---|-7---7---7---7---7---7---7---7---|
C|-8---8---8---8---8---8---8---8---|-8---7---7---7---7---7---7---7---|-7---7---7---7---7---7---7---7---|


D|---------------------------------|-------------|----------------|-----------------------|
A|---------------------------------|-------------|----------------|-----------------------|
F|---------------------------------|-4-----5-----|---------2------|-----------------------|
C|-1---1-----------1---1-----------|-------------|---------2------|-2---0-----------------|
G|-1---1---1---1---1---1---1---1---|-2-----3-----|-5---3---0------|---------0---1---------|
C|-1---1---1---1---1---1---1---1---|-------------|-5---3----------|-----------------1-----|


D|--------|--------|--------|--------|---------------------------|------------------------------|
A|--------|--------|--------|--------|---------------------------|------------------------------|
F|--------|--------|--------|--------|---------------------------|------------------------------|
C|--------|--------|--------|--------|---------------------------|------------------------------|
G|--------|--------|--------|--------|-0---0---1---0---3-----0---|-4---3---1----1---0---0---0---|
C|-1------|-1------|-1------|-1------|-0---0---1---0---3-----0---|-4---3---1----1---0---0---0---|


D|---------------------------|------------------------------|---------------------------|
A|---------------------------|------------------------------|---------------------------|
F|---------------------------|------------------------------|---------------------------|
C|---------------------------|------------------------------|---------------------------|
G|-----0---1---0---3-----0---|-4---3---1----1---0---0---0---|-----0---1---0---3-----0---|
C|-----0---1---0---3-----0---|-4---3---1----1---0---0---0---|-----0---1---0---3-----0---|


D|------------------------------|---------------------------|------------------------------|
A|------------------------------|---------------------------|------------------------------|
F|------------------------------|---------------------------|------------------------------|
C|------------------------------|---------------------------|------------------------------|
G|-4---3---1----1---0---0---0---|-----0---1---0---3-----0---|-4---3---1----1---0---0---0---|
C|-4---3---1----1---0---0---0---|-----0---1---0---3-----0---|-4---3---1----1---0---0---0---|


D|---------------------------|------------------------------|---------------------------|
A|---------------------------|------------------------------|---------------------------|
F|---------------------------|------------------------------|---------------------------|
C|---------------------------|------------------------------|---------------------------|
G|-0---0---1---0---3-----0---|-4---3---1----1---0---0---0---|-----0---1---0---3-----0---|
C|-0---0---1---0---3-----0---|-4---3---1----1---0---0---0---|-----0---1---0---3-----0---|


D|------------------------------|---------------------------|------------------------------|
A|------------------------------|---------------------------|------------------------------|
F|------------------------------|---------------------------|------------------------------|
C|------------------------------|---------------------------|------------------------------|
G|-4---3---1----1---0---0---0---|-----0---1---0---3-----0---|-4---3---1----1---0---0---0---|
C|-4---3---1----1---0---0---0---|-----0---1---0---3-----0---|-4---3---1----1---0---0---0---|


D|---------------------------|------------------------------|---------------------------|
A|---------------------------|------------------------------|---------------------------|
F|---------------------------|------------------------------|---------------------------|
C|---------------------------|------------------------------|---------------------------|
G|-----0---1---0---3-----0---|-4---3---1----1---0---0---0---|-0---0---1---0---3-----0---|
C|-----0---1---0---3-----0---|-4---3---1----1---0---0---0---|-0---0---1---0---3-----0---|


D|------------------------------|---------------------------|------------------------------|
A|------------------------------|---------------------------|------------------------------|
F|------------------------------|---------------------------|------------------------------|
C|------------------------------|---------------------------|------------------------------|
G|-4---3---1----1---0---0---0---|-----0---1---0---3-----0---|-4---3---1----1---0---0---0---|
C|-4---3---1----1---0---0---0---|-----0---1---0---3-----0---|-4---3---1----1---0---0---0---|


D|---------------------------|------------------------------|---------------------------|
A|---------------------------|------------------------------|---------------------------|
F|---------------------------|------------------------------|---------------------------|
C|---------------------------|------------------------------|---------------------------|
G|-----0---1---0---3-----0---|-4---3---1----1---0---0---0---|-----0---1---0---3-----0---|
C|-----0---1---0---3-----0---|-4---3---1----1---0---0---0---|-----0---1---0---3-----0---|


D|------------------------------|---------------------------|---------------------------|
A|------------------------------|---------------------------|---------------------------|
F|------------------------------|---------------------------|---------------------------|
C|------------------------------|---------------------------|---------------------------|
G|-4---3---1----1---0---0---0---|-0---0---1---0---3-----0---|-1---0---3-----0---1---0---|
C|-4---3---1----1---0---0---0---|-0---0---1---0---3-----0---|-1---0---3-----0---1---0---|


D|------------------------|-----------------------|---------------------------|---------------------------|
A|------------------------|-----------------------|---------------------------|---------------------------|
F|------------------------|-----------------------|---------------------------|---------------------------|
C|------------------------|-----------------------|---------------------------|---------------------------|
G|-3-----0---1---0---3----|-3---0---1---0---3-----|-0---0---1---0---3-----0---|-1---0---3-----0---1---0---|
C|-3-----0---1---0---3----|-3---0---1---0---3-----|-0---0---1---0---3-----0---|-1---0---3-----0---1---0---|


D|------------------------|---------------------------------|---------------------------|
A|------------------------|---------------------------------|---------------------------|
F|------------------------|---------------------------------|---------------------------|
C|------------------------|---------------------------------|---------------------------|
G|-3-----0---1---0---3----|-3---0---1---0---0---4---3---1---|-0---0---1---0---3-----0---|
C|-3-----0---1---0---3----|-3---0---1---0---0---4---3---1---|-0---0---1---0---3-----0---|


D|------------------------------|---------------------------|------------------------------|
A|------------------------------|---------------------------|------------------------------|
F|------------------------------|---------------------------|------------------------------|
C|------------------------------|---------------------------|------------------------------|
G|-4---3---1----1---0---0---0---|-----0---1---0---3-----0---|-4---3---1----1---0---0---0---|
C|-4---3---1----1---0---0---0---|-----0---1---0---3-----0---|-4---3---1----1---0---0---0---|


D|---------------------------|------------------------------|---------------------------|
A|---------------------------|------------------------------|---------------------------|
F|---------------------------|------------------------------|---------------------------|
C|---------------------------|------------------------------|---------------------------|
G|-----0---1---0---3-----0---|-4---3---1----1---0---0---0---|-----0---1---0---3-----0---|
C|-----0---1---0---3-----0---|-4---3---1----1---0---0---0---|-----0---1---0---3-----0---|


D|------------------------------|---------------------------|------------------------------|
A|------------------------------|---------------------------|------------------------------|
F|------------------------------|---------------------------|------------------------------|
C|------------------------------|---------------------------|------------------------------|
G|-4---3---1----1---0---0---0---|-0---0---1---0---3-----0---|-4---3---1----1---0---0---0---|
C|-4---3---1----1---0---0---0---|-0---0---1---0---3-----0---|-4---3---1----1---0---0---0---|


D|---------------------------|------------------------------|---------------------------|
A|---------------------------|------------------------------|---------------------------|
F|---------------------------|------------------------------|---------------------------|
C|---------------------------|------------------------------|---------------------------|
G|-----0---1---0---3-----0---|-4---3---1----1---0---0---0---|-----0---1---0---3-----0---|
C|-----0---1---0---3-----0---|-4---3---1----1---0---0---0---|-----0---1---0---3-----0---|


D|------------------------------|---------------------------|------------------------------|
A|------------------------------|---------------------------|------------------------------|
F|------------------------------|---------------------------|------------------------------|
C|------------------------------|---------------------------|------------------------------|
G|-4---3---1----1---0---0---0---|-----0---1---0---3-----0---|-4---3---1----1---0---0---0---|
C|-4---3---1----1---0---0---0---|-----0---1---0---3-----0---|-4---3---1----1---0---0---0---|


D|---------------------------|------------------------------|---------------------------|
A|---------------------------|------------------------------|---------------------------|
F|---------------------------|------------------------------|---------------------------|
C|---------------------------|------------------------------|---------------------------|
G|-0---0---1---0---3-----0---|-4---3---1----1---0---0---0---|-----0---1---0---3-----0---|
C|-0---0---1---0---3-----0---|-4---3---1----1---0---0---0---|-----0---1---0---3-----0---|


D|------------------------------|---------------------------|------------------------------|
A|------------------------------|---------------------------|------------------------------|
F|------------------------------|---------------------------|------------------------------|
C|------------------------------|---------------------------|------------------------------|
G|-4---3---1----1---0---0---0---|-----0---1---0---3-----0---|-4---3---1----1---0---0---0---|
C|-4---3---1----1---0---0---0---|-----0---1---0---3-----0---|-4---3---1----1---0---0---0---|


D|---------------------------|------------------------------|---------------------------|
A|---------------------------|------------------------------|---------------------------|
F|---------------------------|------------------------------|---------------------------|
C|---------------------------|------------------------------|---------------------------|
G|-----0---1---0---3-----0---|-4---3---1----1---0---0---0---|-0---0---1---0---3-----0---|
C|-----0---1---0---3-----0---|-4---3---1----1---0---0---0---|-0---0---1---0---3-----0---|


D|------------------------------|---------------------------|------------------------------|
A|------------------------------|---------------------------|------------------------------|
F|------------------------------|---------------------------|------------------------------|
C|------------------------------|---------------------------|------------------------------|
G|-4---3---1----1---0---0---0---|-----0---1---0---3-----0---|-4---3---1----1---0---0---0---|
C|-4---3---1----1---0---0---0---|-----0---1---0---3-----0---|-4---3---1----1---0---0---0---|


D|---------------------------|------------------------------|---------------------------|
A|---------------------------|------------------------------|---------------------------|
F|---------------------------|------------------------------|---------------------------|
C|---------------------------|------------------------------|---------------------------|
G|-----0---1---0---3-----0---|-4---3---1----1---0---0---0---|-----0---1---0---3-----0---|
C|-----0---1---0---3-----0---|-4---3---1----1---0---0---0---|-----0---1---0---3-----0---|


D|------------------------------|
A|------------------------------|
F|------------------------------|
C|------------------------------|
G|-4---3---1----1---0---0---0---|
C|-4---3---1----1---0---0---0---|





Track 3: Dist.GT2

D|--------|--------|--------|--------|--------|--------|--------|--------|--------|
A|--------|--------|--------|--------|--------|--------|--------|--------|--------|
F|--------|--------|--------|--------|--------|--------|--------|--------|--------|
C|--------|--------|--------|--------|--------|--------|--------|--------|--------|
G|--------|--------|--------|--------|--------|--------|--------|--------|--------|
C|--------|--------|--------|--------|--------|--------|--------|--------|--------|


D|--------|--------|--------|--------|--------|--------|--------|--------|--------|
A|--------|--------|--------|--------|--------|--------|--------|--------|--------|
F|--------|--------|--------|--------|--------|--------|--------|--------|--------|
C|--------|--------|--------|--------|--------|--------|--------|--------|--------|
G|--------|--------|--------|--------|--------|--------|--------|--------|--------|
C|--------|--------|--------|--------|--------|--------|--------|--------|--------|


D|--------|--------|--------|--------|--------|--------|--------|--------|--------|
A|--------|--------|--------|--------|--------|--------|--------|--------|--------|
F|--------|--------|--------|--------|--------|--------|--------|--------|--------|
C|--------|--------|--------|--------|--------|--------|--------|--------|--------|
G|--------|--------|--------|--------|--------|--------|--------|--------|--------|
C|--------|--------|--------|--------|--------|--------|--------|--------|--------|


D|--------|--------|--------|--------|--------|--------|--------|--------|--------|
A|--------|--------|--------|--------|--------|--------|--------|--------|--------|
F|--------|--------|--------|--------|--------|--------|--------|--------|--------|
C|--------|--------|--------|--------|--------|--------|--------|--------|--------|
G|--------|--------|--------|--------|--------|--------|--------|--------|--------|
C|--------|--------|--------|--------|--------|--------|--------|--------|--------|


D|--------|--------|--------|--------|--------|--------|--------|--------|--------|
A|--------|--------|--------|--------|--------|--------|--------|--------|--------|
F|--------|--------|--------|--------|--------|--------|--------|--------|--------|
C|--------|--------|--------|--------|--------|--------|--------|--------|--------|
G|--------|--------|--------|--------|--------|--------|--------|--------|--------|
C|--------|--------|--------|--------|--------|--------|--------|--------|--------|


D|--------|--------|--------|--------|--------|--------|--------|--------|--------|
A|--------|--------|--------|--------|--------|--------|--------|--------|--------|
F|--------|--------|--------|--------|--------|--------|--------|--------|--------|
C|--------|--------|--------|--------|--------|--------|--------|--------|--------|
G|--------|--------|--------|--------|--------|--------|--------|--------|--------|
C|--------|--------|--------|--------|--------|--------|--------|--------|--------|


D|--------|--------|--------|--------|--------|--------|--------|--------|--------|
A|--------|--------|--------|--------|--------|--------|--------|--------|--------|
F|--------|--------|--------|--------|--------|--------|--------|--------|--------|
C|--------|--------|--------|--------|--------|--------|--------|--------|--------|
G|--------|--------|--------|--------|--------|--------|--------|--------|--------|
C|--------|--------|--------|--------|--------|--------|--------|--------|--------|


D|--------|--------|--------|--------|--------|--------|--------|--------|--------|
A|--------|--------|--------|--------|--------|--------|--------|--------|--------|
F|--------|--------|--------|--------|--------|--------|--------|--------|--------|
C|--------|--------|--------|--------|--------|--------|--------|--------|--------|
G|--------|--------|--------|--------|--------|--------|--------|--------|--------|
C|--------|--------|--------|--------|--------|--------|--------|--------|--------|


D|--------|--------|--------|--------|--------|--------|--------|--------|--------|
A|--------|--------|--------|--------|--------|--------|--------|--------|--------|
F|--------|--------|--------|--------|--------|--------|--------|--------|--------|
C|--------|--------|--------|--------|--------|--------|--------|--------|--------|
G|--------|--------|--------|--------|--------|--------|--------|--------|--------|
C|--------|--------|--------|--------|--------|--------|--------|--------|--------|


D|--------|--------|--------|--------|--------|--------|--------|----------------|
A|--------|--------|--------|--------|--------|--------|--------|----------------|
F|--------|--------|--------|--------|--------|--------|--------|-7------7---7---|
C|--------|--------|--------|--------|--------|--------|--------|----------------|
G|--------|--------|--------|--------|--------|--------|--------|-5------5---5---|
C|--------|--------|--------|--------|--------|--------|--------|----------------|


D|-----------------------|--------------------|--------|----------------|-----------------------|
A|-----------------------|--------------------|--------|----------------|-----------------------|
F|-7---10----10--10--10--|-10--9-----9---9----|-5------|-7------7---7---|-7---10----10--10--10--|
C|-----------------------|--------------------|--------|----------------|-----------------------|
G|-5---8-----8---8---8---|-8---7-----7---7----|-3------|-5------5---5---|-5---8-----8---8---8---|
C|-----------------------|--------------------|--------|----------------|-----------------------|


D|--------------------|--------|----------------|-----------------------|--------------------|
A|--------------------|--------|----------------|-----------------------|--------------------|
F|-10--9-----9---9----|-5------|-10-----10--10--|-10--14----14--14--14--|-14--12----12--12---|
C|--------------------|--------|----------------|-----------------------|--------------------|
G|-8---7-----7---7----|-3------|-8------8---8---|-8---12----12--12--12--|-12--10----10--10---|
C|--------------------|--------|----------------|-----------------------|--------------------|


D|--------|----------------|-----------------------|--------------------|--------|
A|--------|----------------|-----------------------|--------------------|--------|
F|-9------|-14-----14--14--|-14--17----17--17--17--|-17--16----16--16---|-16-----|
C|--------|----------------|-----------------------|--------------------|--------|
G|-7------|-12-----12--12--|-12--15----15--15--15--|-15--14----14--14---|-14-----|
C|--------|----------------|-----------------------|--------------------|--------|


D|--------|--------|--------|--------|--------|--------|--------|--------|--------|
A|--------|--------|--------|--------|--------|--------|--------|--------|--------|
F|--------|--------|--------|--------|--------|--------|--------|--------|--------|
C|--------|--------|--------|--------|--------|--------|--------|--------|--------|
G|--------|--------|--------|--------|--------|--------|--------|--------|--------|
C|--------|--------|--------|--------|--------|--------|--------|--------|--------|


D|--------|--------|--------|--------|--------|--------|--------|--------|--------|
A|--------|--------|--------|--------|--------|--------|--------|--------|--------|
F|--------|--------|--------|--------|--------|--------|--------|--------|--------|
C|--------|--------|--------|--------|--------|--------|--------|--------|--------|
G|--------|--------|--------|--------|--------|--------|--------|--------|--------|
C|--------|--------|--------|--------|--------|--------|--------|--------|--------|


D|--------|--------|--------|--------|--------|--------|--------|--------|--------|
A|--------|--------|--------|--------|--------|--------|--------|--------|--------|
F|--------|--------|--------|--------|--------|--------|--------|--------|--------|
C|--------|--------|--------|--------|--------|--------|--------|--------|--------|
G|--------|--------|--------|--------|--------|--------|--------|--------|--------|
C|--------|--------|--------|--------|--------|--------|--------|--------|--------|


D|--------|--------|--------|--------|--------|--------|--------|--------|--------|
A|--------|--------|--------|--------|--------|--------|--------|--------|--------|
F|--------|--------|--------|--------|--------|--------|--------|--------|--------|
C|--------|--------|--------|--------|--------|--------|--------|--------|--------|
G|--------|--------|--------|--------|--------|--------|--------|--------|--------|
C|--------|--------|--------|--------|--------|--------|--------|--------|--------|


D|--------|--------|--------|--------|--------|--------|--------|--------|--------|
A|--------|--------|--------|--------|--------|--------|--------|--------|--------|
F|--------|--------|--------|--------|--------|--------|--------|--------|--------|
C|--------|--------|--------|--------|--------|--------|--------|--------|--------|
G|--------|--------|--------|--------|--------|--------|--------|--------|--------|
C|--------|--------|--------|--------|--------|--------|--------|--------|--------|


D|--------|--------|--------|--------|--------|--------|--------|--------|--------|
A|--------|--------|--------|--------|--------|--------|--------|--------|--------|
F|--------|--------|--------|--------|--------|--------|--------|--------|--------|
C|--------|--------|--------|--------|--------|--------|--------|--------|--------|
G|--------|--------|--------|--------|--------|--------|--------|--------|--------|
C|--------|--------|--------|--------|--------|--------|--------|--------|--------|


D|--------|--------|--------|--------|--------|--------|--------|--------|--------|
A|--------|--------|--------|--------|--------|--------|--------|--------|--------|
F|--------|--------|--------|--------|--------|--------|--------|--------|--------|
C|--------|--------|--------|--------|--------|--------|--------|--------|--------|
G|--------|--------|--------|--------|--------|--------|--------|--------|--------|
C|--------|--------|--------|--------|--------|--------|--------|--------|--------|


D|--------|--------|--------|--------|--------|--------|--------|--------|--------|
A|--------|--------|--------|--------|--------|--------|--------|--------|--------|
F|--------|--------|--------|--------|--------|--------|--------|--------|--------|
C|--------|--------|--------|--------|--------|--------|--------|--------|--------|
G|--------|--------|--------|--------|--------|--------|--------|--------|--------|
C|--------|--------|--------|--------|--------|--------|--------|--------|--------|


D|--------|--------|--------|--------|--------|--------|--------|--------|--------|
A|--------|--------|--------|--------|--------|--------|--------|--------|--------|
F|--------|--------|--------|--------|--------|--------|--------|--------|--------|
C|--------|--------|--------|--------|--------|--------|--------|--------|--------|
G|--------|--------|--------|--------|--------|--------|--------|--------|--------|
C|--------|--------|--------|--------|--------|--------|--------|--------|--------|


D|--------|--------|--------|--------|--------|--------|--------|--------|--------|
A|--------|--------|--------|--------|--------|--------|--------|--------|--------|
F|--------|--------|--------|--------|--------|--------|--------|--------|--------|
C|--------|--------|--------|--------|--------|--------|--------|--------|--------|
G|--------|--------|--------|--------|--------|--------|--------|--------|--------|
C|--------|--------|--------|--------|--------|--------|--------|--------|--------|


D|--------|--------|--------|--------|--------|--------|
A|--------|--------|--------|--------|--------|--------|
F|--------|--------|--------|--------|--------|--------|
C|--------|--------|--------|--------|--------|--------|
G|--------|--------|--------|--------|--------|--------|
C|--------|--------|--------|--------|--------|--------|





Track 4: Bass

F|--------|--------|--------|--------|--------|--------|--------|--------|--------|
C|--------|--------|--------|--------|--------|--------|--------|--------|--------|
G|--------|--------|--------|--------|--------|--------|--------|--------|--------|
C|--------|--------|--------|--------|--------|--------|--------|--------|--------|


F|--------|--------|--------|--------|--------|--------|--------|----------------|
C|--------|--------|--------|--------|--------|--------|--------|-0------0---2---|
G|--------|--------|--------|--------|--------|--------|--------|----------------|
C|--------|--------|--------|--------|--------|--------|--------|----------------|


F|-------------|--------|--------|----------------|-------------|--------|--------|
C|-3------5----|--------|--------|-0------0---2---|-3------5----|--------|--------|
G|-------------|-0------|-0------|----------------|-------------|-0------|-0------|
C|-------------|--------|--------|----------------|-------------|--------|--------|


F|----------------|-------------|--------|--------|----------------|-------------|
C|-0------0---2---|-3------5----|--------|--------|-0------0---2---|-3------5----|
G|----------------|-------------|-0------|-0------|----------------|-------------|
C|----------------|-------------|--------|--------|----------------|-------------|


F|--------|--------|--------|--------|--------|-------------|--------|--------|--------|
C|--------|--------|-0------|-3------|--------|-------------|-0------|-3------|--------|
G|-0------|-0------|--------|--------|-3------|-1-----3-----|--------|--------|-3------|
C|--------|--------|--------|--------|--------|-------------|--------|--------|--------|


F|-------------|--------|--------|--------|-------------|--------|--------|--------|
C|-------------|-0------|-3------|--------|-------------|-0------|-3------|--------|
G|-1-----3-----|--------|--------|-3------|-1-----3-----|--------|--------|-3------|
C|-------------|--------|--------|--------|-------------|--------|--------|--------|


F|-------------|---------------------------|---------------------------------|------------------------------|
C|-------------|---------------------------|---------------------------------|------------------------------|
G|-1-----3-----|---------------------------|-----1---1---1---1---1---1---1---|-1---0---0---0---0----0---0---|
C|-------------|-0----0---0---0----0---0---|-0-------------------------------|------------------------------|


F|---------------------------|---------------------------|---------------------------------|
C|---------------------------|---------------------------|---------------------------------|
G|-0----0---0---0----0---0---|---------------------------|-----1---1---1---1---1---1---1---|
C|---------------------------|-0----0---0---0----0---0---|-0-------------------------------|


F|------------------------------|---------------------------|---------------------------|
C|------------------------------|---------------------------|---------------------------|
G|-1---0---0---0---0----0---0---|-0----0---0---0----0---0---|---------------------------|
C|------------------------------|---------------------------|-0----0---0---0----0---0---|


F|---------------------------------|------------------------------|---------------------------|
C|---------------------------------|------------------------------|---------------------------|
G|-----1---1---1---1---1---1---1---|-1---0---0---0---0----0---0---|-0----0---0---0----0---0---|
C|-0-------------------------------|------------------------------|---------------------------|


F|---------------------------|---------------------------------|------------------------------|
C|---------------------------|---------------------------------|------------------------------|
G|---------------------------|-----1---1---1---1---1---1---1---|-1---0---0---0---0----0---0---|
C|-0----0---0---0----0---0---|-0-------------------------------|------------------------------|


F|---------------------------|---------------------------|---------------------------------|
C|---------------------------|---------------------------|---------------------------------|
G|-0----0---0---0----0---0---|---------------------------|-----1---1---1---1---1---1---1---|
C|---------------------------|-0----0---0---0----0---0---|-0-------------------------------|


F|------------------------------|---------------------------|---------------------------|
C|------------------------------|---------------------------|---------------------------|
G|-1---0---0---0---0----0---0---|-0----0---0---0----0---0---|---------------------------|
C|------------------------------|---------------------------|-0----0---0---0----0---0---|


F|---------------------------------|------------------------------|---------------------------|
C|---------------------------------|------------------------------|---------------------------|
G|-----1---1---1---1---1---1---1---|-1---0---0---0---0----0---0---|-0----0---0---0----0---0---|
C|-0-------------------------------|------------------------------|---------------------------|


F|---------------------------|---------------------------------|------------------------------|
C|---------------------------|---------------------------------|------------------------------|
G|---------------------------|-----1---1---1---1---1---1---1---|-1---0---0---0---0----0---0---|
C|-0----0---0---0----0---0---|-0-------------------------------|------------------------------|


F|---------------------------|---------------------------------|-------------|----------------|
C|---------------------------|---------------------------------|-------------|----------------|
G|-0----0---0---0----0---0---|---------------------------------|-2-----3-----|---------0------|
C|---------------------------|-1---1---1---1---1---1---1---1---|-------------|-5---3----------|


F|-----------------------|---------------------------|---------------------------------|
C|-2---0-----------------|---------------------------|---------------------------------|
G|---------0---1---------|---------------------------|-----1---1---1---1---1---1---1---|
C|-----------------1-----|-0----0---0---0----0---0---|-0-------------------------------|


F|------------------------------|---------------------------|---------------------------------|
C|------------------------------|---------------------------|---------------------------------|
G|-1---0---0---0---0----0---0---|-0----0---0---0----0---0---|---------------------------------|
C|------------------------------|---------------------------|-1---1---1---1---1---1---1---1---|


F|-------------|----------------|-----------------------|---------------------------|
C|-------------|----------------|-2---0-----------------|-0----0---0---0----0---0---|
G|-2-----3-----|---------0------|---------0---1---------|---------------------------|
C|-------------|-5---3----------|-----------------1-----|---------------------------|


F|---------------------------------|------------------------------|---------------------------|
C|-0---3---3---3---3---3---3---3---|-3---2---2---2---2----2---2---|-2----2---2---2----2---2---|
G|---------------------------------|------------------------------|---------------------------|
C|---------------------------------|------------------------------|---------------------------|


F|---------------------------|---------------------------------|------------------------------|
C|-0----0---0---0----0---0---|-0---3---3---3---3---3---3---3---|-3---2---2---2---2----2---2---|
G|---------------------------|---------------------------------|------------------------------|
C|---------------------------|---------------------------------|------------------------------|


F|---------------------------|---------------------------|---------------------------------|
C|-2----2---2---2----2---2---|-3----3---3---3----3---3---|-3---7---7---7---7---7---7---7---|
G|---------------------------|---------------------------|---------------------------------|
C|---------------------------|---------------------------|---------------------------------|


F|------------------------------|---------------------------|---------------------------|
C|-7---5---5---5---5----5---5---|-5----5---5---5----5---5---|-7----7---7---7----7---7---|
G|------------------------------|---------------------------|---------------------------|
C|------------------------------|---------------------------|---------------------------|


F|---------------------------------|------------------------------|---------------------------|
C|-7---10--10--10--10--10--10--10--|-10--9---9---9---9----9---9---|-9----9---9---9----9---9---|
G|---------------------------------|------------------------------|---------------------------|
C|---------------------------------|------------------------------|---------------------------|


F|---------------------------|---------------------------------|------------------------------|
C|-0----0---0---0----0---0---|-0---3---3---3---3---3---3---3---|-3---2---2---2---2----2---2---|
G|---------------------------|---------------------------------|------------------------------|
C|---------------------------|---------------------------------|------------------------------|


F|---------------------------|---------------------------|---------------------------------|
C|-2----2---2---2----2---2---|-0----0---0---0----0---0---|-0---3---3---3---3---3---3---3---|
G|---------------------------|---------------------------|---------------------------------|
C|---------------------------|---------------------------|---------------------------------|


F|------------------------------|---------------------------|---------------------------|
C|-3---2---2---2---2----2---2---|-2----2---2---2----2---2---|-0----0---0---0----0---0---|
G|------------------------------|---------------------------|---------------------------|
C|------------------------------|---------------------------|---------------------------|


F|---------------------------------|------------------------------|---------------------------|
C|-0---3---3---3---3---3---3---3---|-3---2---2---2---2----2---2---|-2----2---2---2----2---2---|
G|---------------------------------|------------------------------|---------------------------|
C|---------------------------------|------------------------------|---------------------------|


F|---------------------------|---------------------------------|------------------------------|
C|---------------------------|---------------------------------|------------------------------|
G|---------------------------|-----1---1---1---1---1---1---1---|-1---0---0---0---0----0---0---|
C|-0----0---0---0----0---0---|-0-------------------------------|------------------------------|


F|---------------------------|---------------------------------|-------------|----------------|
C|---------------------------|---------------------------------|-------------|----------------|
G|-0----0---0---0----0---0---|---------------------------------|-2-----3-----|---------0------|
C|---------------------------|-1---1---1---1---1---1---1---1---|-------------|-5---3----------|


F|-----------------------|---------------------------|---------------------------------|
C|-2---0-----------------|---------------------------|---------------------------------|
G|---------0---1---------|---------------------------|-----1---1---1---1---1---1---1---|
C|-----------------1-----|-0----0---0---0----0---0---|-0-------------------------------|


F|------------------------------|---------------------------|---------------------------------|
C|------------------------------|---------------------------|---------------------------------|
G|-1---0---0---0---0----0---0---|-0----0---0---0----0---0---|---------------------------------|
C|------------------------------|---------------------------|-1---1---1---1---1---1---1---1---|


F|-------------|----------------|-----------------------|--------|--------|--------|
C|-------------|----------------|-2---0-----------------|--------|--------|--------|
G|-2-----3-----|---------0------|---------0---1---------|--------|--------|--------|
C|-------------|-5---3----------|-----------------1-----|-1------|-1------|-1------|


F|--------|--------|--------|--------|--------|--------|--------|-----2---2---2------------2---|
C|--------|--------|--------|--------|--------|--------|--------|------------------------------|
G|--------|--------|--------|--------|--------|--------|--------|------------------------------|
C|-1------|--------|--------|--------|--------|--------|--------|-----------------0------------|


F|-2---2-----------------|---------------------------|---------------------------|
C|-----------------------|---------------------------|---------------------------|
G|-----------------------|---------------------------|---------------------------|
C|---------0-------------|-0---0---1---0---3-----0---|-4---3---1-----0---0---0---|


F|---------------------------|---------------------------|---------------------------|
C|---------------------------|---------------------------|---------------------------|
G|---------------------------|---------------------------|---------------------------|
C|-----0---1---0---3-----0---|-4---3---1-----0---0---0---|-----0---1---0---3-----0---|


F|---------------------------|---------------------------|---------------------------|
C|---------------------------|---------------------------|---------------------------|
G|---------------------------|---------------------------|---------------------------|
C|-4---3---1-----0---0---0---|-----0---1---0---3-----0---|-4---3---1-----0---0---0---|


F|---------------------------|---------------------------|---------------------------|
C|---------------------------|---------------------------|---------------------------|
G|---------------------------|---------------------------|---------------------------|
C|-0---0---1---0---3-----0---|-4---3---1-----0---0---0---|-----0---1---0---3-----0---|


F|---------------------------|---------------------------|---------------------------|
C|---------------------------|---------------------------|---------------------------|
G|---------------------------|---------------------------|---------------------------|
C|-4---3---1-----0---0---0---|-----0---1---0---3-----0---|-4---3---1-----0---0---0---|


F|---------------------------|---------------------------|---------------------------|
C|---------------------------|---------------------------|---------------------------|
G|---------------------------|---------------------------|---------------------------|
C|-----0---1---0---3-----0---|-4---3---1-----0---0---0---|-0---0---1---0---3-----0---|


F|---------------------------|------------------------|-----------------------|---------------------------|
C|---------------------------|------------------------|-----------------------|---------------------------|
G|---------------------------|------------------------|-----------------------|---------------------------|
C|-1---0---3-----0---1---0---|-3-----0---1---0---3----|-3---0---1---0---3-----|-0---0---1---0---3-----0---|


F|---------------------------|------------------------|---------------------------------|
C|---------------------------|------------------------|---------------------------------|
G|---------------------------|------------------------|---------------------------------|
C|-1---0---3-----0---1---0---|-3-----0---1---0---3----|-3---0---1---0---0---4---3---1---|


F|---------------------------|---------------------------|---------------------------|
C|---------------------------|---------------------------|---------------------------|
G|---------------------------|---------------------------|---------------------------|
C|-0---0---1---0---3-----0---|-4---3---1-----0---0---0---|-----0---1---0---3-----0---|


F|---------------------------|---------------------------|---------------------------|
C|---------------------------|---------------------------|---------------------------|
G|---------------------------|---------------------------|---------------------------|
C|-4---3---1-----0---0---0---|-----0---1---0---3-----0---|-4---3---1-----0---0---0---|


F|---------------------------|---------------------------|---------------------------|
C|---------------------------|---------------------------|---------------------------|
G|---------------------------|---------------------------|---------------------------|
C|-----0---1---0---3-----0---|-4---3---1-----0---0---0---|-0---0---1---0---3-----0---|


F|---------------------------|---------------------------|---------------------------|
C|---------------------------|---------------------------|---------------------------|
G|---------------------------|---------------------------|---------------------------|
C|-4---3---1-----0---0---0---|-----0---1---0---3-----0---|-4---3---1-----0---0---0---|


F|---------------------------|---------------------------|---------------------------|
C|---------------------------|---------------------------|---------------------------|
G|---------------------------|---------------------------|---------------------------|
C|-----0---1---0---3-----0---|-4---3---1-----0---0---0---|-----0---1---0---3-----0---|


F|---------------------------|---------------------------|---------------------------|
C|---------------------------|---------------------------|---------------------------|
G|---------------------------|---------------------------|---------------------------|
C|-4---3---1-----0---0---0---|-0---0---1---0---3-----0---|-4---3---1-----0---0---0---|


F|---------------------------|---------------------------|---------------------------|
C|---------------------------|---------------------------|---------------------------|
G|---------------------------|---------------------------|---------------------------|
C|-----0---1---0---3-----0---|-4---3---1-----0---0---0---|-----0---1---0---3-----0---|


F|---------------------------|---------------------------|---------------------------|
C|---------------------------|---------------------------|---------------------------|
G|---------------------------|---------------------------|---------------------------|
C|-4---3---1-----0---0---0---|-----0---1---0---3-----0---|-4---3---1-----0---0---0---|


F|---------------------------|---------------------------|---------------------------|
C|---------------------------|---------------------------|---------------------------|
G|---------------------------|---------------------------|---------------------------|
C|-0---0---1---0---3-----0---|-4---3---1-----0---0---0---|-----0---1---0---3-----0---|


F|---------------------------|---------------------------|---------------------------|
C|---------------------------|---------------------------|---------------------------|
G|---------------------------|---------------------------|---------------------------|
C|-4---3---1-----0---0---0---|-----0---1---0---3-----0---|-4---3---1-----0---0---0---|


F|---------------------------|---------------------------|
C|---------------------------|---------------------------|
G|---------------------------|---------------------------|
C|-----0---1---0---3-----0---|-4---3---1-----0---0---0---|