Menu:

 

Search:

 

slipknot - eyeless:

 



Title: Eyeless
Artist: 
Album: Slipknot
Author: Slipknot


Track 1: Guitar 1

C#|--------|--------|--------|--------|--------|-------------|-12--12--12------12------12--12--|
G#|--------|--------|--------|--------|--------|-------------|-------------16------16--16--16--|
 E|--------|--------|--------|--------|--------|-21-----9----|---------------------------------|
 B|--------|--------|--------|--------|--------|-------------|---------------------------------|
F#|--------|--------|--------|--------|--------|-------------|---------------------------------|
 B|--------|--------|--------|--------|--------|-------------|---------------------------------|


C#|-12--12--12--12--12--12--12--12--|-12--12--12------12------12--12--|-12--12--12--12--12--12--12--12--|
G#|-16--16--16--16--16--16--16--16--|-------------16------16--16--16--|-16--16--16--16--16--16--16--16--|
 E|---------------------------------|---------------------------------|---------------------------------|
 B|---------------------------------|---------------------------------|---------------------------------|
F#|---------------------------------|---------------------------------|---------------------------------|
 B|---------------------------------|---------------------------------|---------------------------------|


C#|-12--12--12------12------12--12--|-12--12--12--12--12--12--12--12--|-12--12--12------12------12--12--|
G#|-------------16------16--16--16--|-16--16--16--16--16--16--16--16--|-------------16------16--16--16--|
 E|---------------------------------|---------------------------------|---------------------------------|
 B|---------------------------------|---------------------------------|---------------------------------|
F#|---------------------------------|---------------------------------|---------------------------------|
 B|---------------------------------|---------------------------------|---------------------------------|


C#|-12--12--12--12--12--12--12--12--|-12--12--12------12------12--12--|-12--12--12--12--12--12--12--12--|
G#|-16--16--16--16--16--16--16--16--|-------------16------16--16--16--|-16--16--16--16--16--16--16--16--|
 E|---------------------------------|---------------------------------|---------------------------------|
 B|---------------------------------|---------------------------------|---------------------------------|
F#|---------------------------------|---------------------------------|---------------------------------|
 B|---------------------------------|---------------------------------|---------------------------------|


C#|-12--12--12------12------12--12--|-12--12--12--12--12--12--12--12--|-12--12--12------12------12--12--|
G#|-------------16------16--16--16--|-16--16--16--16--16--16--16--16--|-------------16------16--16--16--|
 E|---------------------------------|---------------------------------|---------------------------------|
 B|---------------------------------|---------------------------------|---------------------------------|
F#|---------------------------------|---------------------------------|---------------------------------|
 B|---------------------------------|---------------------------------|---------------------------------|


C#|-12--12--12--12--12--12--12--12--|-12--12--12------12------12--12--|-12--12--12--12--12--12--12--12--|
G#|-16--16--16--16--16--16--16--16--|-------------16------16--16--16--|-16--16--16--16--16--16--16--16--|
 E|---------------------------------|---------------------------------|---------------------------------|
 B|---------------------------------|---------------------------------|---------------------------------|
F#|---------------------------------|---------------------------------|---------------------------------|
 B|---------------------------------|---------------------------------|---------------------------------|


C#|-12--12--12------12------12--12--|-12--12--12--12--12--12--12--12--|-12--12--12------12------12--12--|
G#|-------------16------16--16--16--|-16--16--16--16--16--16--16--16--|-------------16------16--16--16--|
 E|---------------------------------|---------------------------------|---------------------------------|
 B|---------------------------------|---------------------------------|---------------------------------|
F#|---------------------------------|---------------------------------|---------------------------------|
 B|---------------------------------|---------------------------------|---------------------------------|


C#|-12--12--12--12--12--12--12--12--|---------------------------------|---------------------------------|
G#|-16--16--16--16--16--16--16--16--|---------------------------------|---------------------------------|
 E|---------------------------------|---------------------------------|---------------------------------|
 B|---------------------------------|---------------------------------|---------------------------------|
F#|---------------------------------|-----------------3-------2---3---|---------5---6-----------6---8---|
 B|---------------------------------|-0---0---0---0---3---0---2---3---|-0---0---5---6---0---0---6---8---|


C#|---------------------------------|---------------------------------|---------------------------------|
G#|---------------------------------|---------------------------------|---------------------------------|
 E|---------------------------------|---------------------------------|---------------------------------|
 B|---------------------------------|---------------------------------|---------------------------------|
F#|-----------------3-------2---3---|---------5---6-----------6---8---|-----------------3-------2---3---|
 B|-0---0---0---0---3---0---2---3---|-0---0---5---6---0---0---6---8---|-0---0---0---0---3---0---2---3---|


C#|---------------------------------|---------------------------------|---------------------------------|
G#|---------------------------------|---------------------------------|---------------------------------|
 E|---------------------------------|---------------------------------|---------------------------------|
 B|---------------------------------|---------------------------------|---------------------------------|
F#|---------5---6-----------6---8---|-----------------3-------2---3---|---------5---6-----------6---8---|
 B|-0---0---5---6---0---0---6---8---|-0---0---0---0---3---0---2---3---|-0---0---5---6---0---0---6---8---|


C#|---------------------------------|--------|---------------------------------|--------|
G#|---------------------------------|--------|---------------------------------|--------|
 E|---------------------------------|--------|---------------------------------|--------|
 B|---------------------------------|--------|---------------------------------|--------|
F#|-----------------3-------2---3---|--------|-----------------3-------2---3---|--------|
 B|-0---0---0---0---3---0---2---3---|--------|-0---0---0---0---3---0---2---3---|--------|


C#|---------------------------------|--------|---------------------------------|--------|
G#|---------------------------------|--------|---------------------------------|--------|
 E|---------------------------------|--------|---------------------------------|--------|
 B|---------------------------------|--------|---------------------------------|--------|
F#|-----------------3-------2---3---|--------|-----------------3-------2---3---|--------|
 B|-0---0---0---0---3---0---2---3---|--------|-0---0---0---0---3---0---2---3---|--------|


C#|---------------------------------|---------------------------------|---------------------------------|
G#|---------------------------------|---------------------------------|---------------------------------|
 E|---------------------------------|---------------------------------|---------------------------------|
 B|---------------------------------|---------------------------------|---------------------------------|
F#|-----------------3-------2---3---|---------5---6-----------6---8---|-----------------3-------2---3---|
 B|-0---0---0---0---3---0---2---3---|-0---0---5---6---0---0---6---8---|-0---0---0---0---3---0---2---3---|


C#|---------------------------------|---------------------------------|---------------------------------|
G#|---------------------------------|---------------------------------|---------------------------------|
 E|---------------------------------|---------------------------------|---------------------------------|
 B|---------------------------------|---------------------------------|---------------------------------|
F#|---------5---6-----------6---8---|-----------------3-------2---3---|---------5---6-----------6---8---|
 B|-0---0---5---6---0---0---6---8---|-0---0---0---0---3---0---2---3---|-0---0---5---6---0---0---6---8---|


C#|---------------------------------|---------------------------------|---------------------------------|
G#|---------------------------------|---------------------------------|---------------------------------|
 E|---------------------------------|---------------------------------|---------------------------------|
 B|---------------------------------|---------------------------------|---------------------------------|
F#|-----------------3-------2---3---|---------5---6-----------6---8---|-----------------3-------2---3---|
 B|-0---0---0---0---3---0---2---3---|-0---0---5---6---0---0---6---8---|-0---0---0---0---3---0---2---3---|


C#|--------|---------------------------------|--------|---------------------------------|
G#|--------|---------------------------------|--------|---------------------------------|
 E|--------|---------------------------------|--------|---------------------------------|
 B|--------|---------------------------------|--------|---------------------------------|
F#|--------|-----------------3-------2---3---|--------|-----------------3-------2---3---|
 B|--------|-0---0---0---0---3---0---2---3---|--------|-0---0---0---0---3---0---2---3---|


C#|--------|---------------------------------|--------|---------------------------------|
G#|--------|---------------------------------|--------|---------------------------------|
 E|--------|---------------------------------|--------|---------------------------------|
 B|--------|---------------------------------|--------|---------------------------------|
F#|--------|-----------------3-------2---3---|--------|-----------------3-------2---3---|
 B|--------|-0---0---0---0---3---0---2---3---|--------|-0---0---0---0---3---0---2---3---|


C#|---------------------------------|---------------------------------|---------------------------------|
G#|---------------------------------|---------------------------------|---------------------------------|
 E|---------------------------------|---------------------------------|---------------------------------|
 B|---------------------------------|---------------------------------|---------------------------------|
F#|---------5---6-----------6---8---|-----------------3-------2---3---|---------5---6-----------6---8---|
 B|-0---0---5---6---0---0---6---8---|-0---0---0---0---3---0---2---3---|-0---0---5---6---0---0---6---8---|


C#|---------------------------------|---------------------------------|---------------------------------|
G#|---------------------------------|---------------------------------|---------------------------------|
 E|---------------------------------|---------------------------------|---------------------------------|
 B|---------------------------------|---------------------------------|---------------------------------|
F#|-----------------3-------2---3---|---------5---6-----------6---8---|-----------------3-------2---3---|
 B|-0---0---0---0---3---0---2---3---|-0---0---5---6---0---0---6---8---|-0---0---0---0---3---0---2---3---|


C#|---------------------------------|---------------------------------|---------------------------------|
G#|---------------------------------|---------------------------------|---------------------------------|
 E|---------------------------------|---------------------------------|---------------------------------|
 B|---------------------------------|-3---3---3-------3---3---3---3---|-3---3---3-------3---3---3---3---|
F#|---------5---6-----------6---8---|-2---2---2-------2---2---2---2---|-2---2---2-------2---2---2---2---|
 B|-0---0---5---6---0---0---6---8---|---------------------------------|---------------------------------|


C#|---------------------------------|---------------------------------|---------------------------------|
G#|---------------------------------|---------------------------------|---------------------------------|
 E|---------------------------------|---------------------------------|---------------------------------|
 B|-3---3---3-------3---3---3---3---|-3---3---3-------3---3---3---3---|-3---3---3-------3---3---3---3---|
F#|-2---2---2-------2---2---2---2---|-2---2---2-------2---2---2---2---|-2---2---2-------2---2---2---2---|
 B|---------------------------------|---------------------------------|---------------------------------|


C#|---------------------------------|---------------------------------|---------------------------------|
G#|---------------------------------|---------------------------------|---------------------------------|
 E|---------------------------------|---------------------------------|---------------------------------|
 B|-3---3---3-------3---3---3---3---|-3---3---3-------3---3---3---3---|-3---3---3-------3---3---3---3---|
F#|-2---2---2-------2---2---2---2---|-2---2---2-------2---2---2---2---|-2---2---2-------2---2---2---2---|
 B|---------------------------------|---------------------------------|---------------------------------|


C#|-12--12--12------12------12--12--|-12--12--12--12--12--12--12--12--|-12--12--12------12------12--12--|
G#|-------------16------12--16--16--|-16--16--16--16--16--16--16--16--|-------------16------12--16--16--|
 E|---------------------------------|---------------------------------|---------------------------------|
 B|---------------------------------|---------------------------------|---------------------------------|
F#|---------------------------------|---------------------------------|---------------------------------|
 B|---------------------------------|---------------------------------|---------------------------------|


C#|-12--12--12--12--12--12--12--12--|-12--12--12------12------12--12--|-12--12--12--12--12--12--12--12--|
G#|-16--16--16--16--16--16--16--16--|-------------16------16--16--16--|-16--16--16--16--16--16--16--16--|
 E|---------------------------------|---------------------------------|---------------------------------|
 B|---------------------------------|---------------------------------|---------------------------------|
F#|---------------------------------|---------------------------------|---------------------------------|
 B|---------------------------------|---------------------------------|---------------------------------|


C#|-12--12--12------12------12--12--|-12--12--12--12--12--12--12--12--|---------------------------------|
G#|-------------16------16--16--16--|-16--16--16--16--16--16--16--16--|---------------------------------|
 E|---------------------------------|---------------------------------|---------------------------------|
 B|---------------------------------|---------------------------------|---------------------------------|
F#|---------------------------------|---------------------------------|-----------------3-------2---3---|
 B|---------------------------------|---------------------------------|-0---0---0---0---3---0---2---3---|


C#|--------|---------------------------------|--------|---------------------------------|
G#|--------|---------------------------------|--------|---------------------------------|
 E|--------|---------------------------------|--------|---------------------------------|
 B|--------|---------------------------------|--------|---------------------------------|
F#|--------|-----------------3-------2---3---|--------|-----------------3-------2---3---|
 B|--------|-0---0---0---0---3---0---2---3---|--------|-0---0---0---0---3---0---2---3---|


C#|--------|---------------------------------|--------|---------------------------------|
G#|--------|---------------------------------|--------|---------------------------------|
 E|--------|---------------------------------|--------|---------------------------------|
 B|--------|---------------------------------|--------|---------------------------------|
F#|--------|-----------------3-------2---3---|--------|-----------------3-------2---3---|
 B|--------|-0---0---0---0---3---0---2---3---|--------|-0---0---0---0---3---0---2---3---|


C#|---------------------------------|---------------------------------|---------------------------------|
G#|---------------------------------|---------------------------------|---------------------------------|
 E|---------------------------------|---------------------------------|---------------------------------|
 B|---------------------------------|---------------------------------|---------------------------------|
F#|---------5---6-----------6---8---|-----------------3-------2---3---|---------5---6-----------6---8---|
 B|-0---0---5---6---0---0---6---8---|-0---0---0---0---3---0---2---3---|-0---0---5---6---0---0---6---8---|


C#|---------------------------------|---------------------------------|---------------------------------|
G#|---------------------------------|---------------------------------|---------------------------------|
 E|---------------------------------|---------------------------------|---------------------------------|
 B|---------------------------------|---------------------------------|---------------------------------|
F#|-----------------3-------2---3---|---------5---6-----------6---8---|-----------------3-------2---3---|
 B|-0---0---0---0---3---0---2---3---|-0---0---5---6---0---0---6---8---|-0---0---0---0---3---0---2---3---|


C#|---------------------------------|---------------------------------|--------|---------------------------------|
G#|---------------------------------|---------------------------------|--------|---------------------------------|
 E|---------------------------------|---------------------------------|--------|---------------------------------|
 B|---------------------------------|---------------------------------|--------|---------------------------------|
F#|---------5---6-----------6---8---|-----------------3-------2---3---|--------|-----------------3-------2---3---|
 B|-0---0---5---6---0---0---6---8---|-0---0---0---0---3---0---2---3---|--------|-0---0---0---0---3---0---2---3---|


C#|--------|---------------------------------|--------|---------------------------------|
G#|--------|---------------------------------|--------|---------------------------------|
 E|--------|---------------------------------|--------|---------------------------------|
 B|--------|---------------------------------|--------|---------------------------------|
F#|--------|-----------------3-------2---3---|--------|-----------------3-------2---3---|
 B|--------|-0---0---0---0---3---0---2---3---|--------|-0---0---0---0---3---0---2---3---|


C#|--------|---------------------------------|---------------------------------|---------------------------------|
G#|--------|---------------------------------|---------------------------------|---------------------------------|
 E|--------|---------------------------------|---------------------------------|---------------------------------|
 B|--------|---------------------------------|---------------------------------|---------------------------------|
F#|--------|-----------------3-------2---3---|---------5---6-----------6---8---|-----------------3-------2---3---|
 B|--------|-0---0---0---0---3---0---2---3---|-0---0---5---6---0---0---6---8---|-0---0---0---0---3---0---2---3---|


C#|---------------------------------|---------------------------------|---------------------------------|
G#|---------------------------------|---------------------------------|---------------------------------|
 E|---------------------------------|---------------------------------|---------------------------------|
 B|---------------------------------|---------------------------------|---------------------------------|
F#|---------5---6-----------6---8---|-----------------3-------2---3---|---------5---6-----------6---8---|
 B|-0---0---5---6---0---0---6---8---|-0---0---0---0---3---0---2---3---|-0---0---5---6---0---0---6---8---|


C#|---------------------------------|---------------------------------|---------------------------------|
G#|---------------------------------|---------------------------------|---------------------------------|
 E|---------------------------------|---------------------------------|---------------------------------|
 B|---------------------------------|---------------------------------|-3---3---3-------3---3---3---3---|
F#|-----------------3-------2---3---|---------5---6-----------6---8---|-2---2---2-------2---2---2---2---|
 B|-0---0---0---0---3---0---2---3---|-0---0---5---6---0---0---6---8---|---------------------------------|


C#|---------------------------------|---------------------------------|---------------------------------|
G#|---------------------------------|---------------------------------|---------------------------------|
 E|---------------------------------|---------------------------------|---------------------------------|
 B|-3---3---3-------3---3---3---3---|-3---3---3-------3---3---3---3---|-3---3---3-------3---3---3---3---|
F#|-2---2---2-------2---2---2---2---|-2---2---2-------2---2---2---2---|-2---2---2-------2---2---2---2---|
 B|---------------------------------|---------------------------------|---------------------------------|


C#|---------------------------------|---------------------------------|---------------------------------|
G#|---------------------------------|---------------------------------|---------------------------------|
 E|---------------------------------|---------------------------------|---------------------------------|
 B|-3---3---3-------3---3---3---3---|-3---3---3-------3---3---3---3---|-3---3---3-------3---3---3---3---|
F#|-2---2---2-------2---2---2---2---|-2---2---2-------2---2---2---2---|-2---2---2-------2---2---2---2---|
 B|---------------------------------|---------------------------------|---------------------------------|


C#|---------------------------------|--------------------|---------------------------------|
G#|---------------------------------|--------------------|---------------------------------|
 E|---------------------------------|--------------------|---------------------------------|
 B|-3---3---3-------3---3---3---3---|--------------------|---------------------------------|
F#|-2---2---2-------2---2---2---2---|-0---0---0----------|-----0---0---1-------0---0---1---|
 B|---------------------------------|-0---0---0----3-----|-3---0---0---1-------0---0---1---|


C#|--------------------|---------------------------------|--------------------|---------------------------------|
G#|--------------------|---------------------------------|--------------------|---------------------------------|
 E|--------------------|---------------------------------|--------------------|---------------------------------|
 B|--------------------|---------------------------------|--------------------|---------------------------------|
F#|-0---0---0----------|-----0---0---1-------0---0---1---|-0---0---0----------|-----0---0---1-------0---0---1---|
 B|-0---0---0----3-----|-3---0---0---1-------0---0---1---|-0---0---0----3-----|-3---0---0---1-------0---0---1---|


C#|--------------------|---------------------------------|--------------------|---------------------------------|
G#|--------------------|---------------------------------|--------------------|---------------------------------|
 E|--------------------|---------------------------------|--------------------|---------------------------------|
 B|--------------------|---------------------------------|--------------------|---------------------------------|
F#|-0---0---0----------|-----0---0---1-------0---0---1---|-0---0---0----------|-----0---0---1-------0---0---1---|
 B|-0---0---0----3-----|-3---0---0---1-------0---0---1---|-0---0---0----3-----|-3---0---0---1-------0---0---1---|


C#|---------------------------|-----------------|--------------------|---------------------------------|
G#|---------------------------|-----------------|--------------------|---------------------------------|
 E|---------------------------|-----------------|--------------------|---------------------------------|
 B|---------------------------|-----------------|--------------------|---------------------------------|
F#|-0---0---0-----------------|-----------------|-0---0---0----------|-----0---0---1-------0---0---1---|
 B|-0---0---0----3----3---3---|-3-----3---3-----|-0---0---0----3-----|-3---0---0---1-------0---0---1---|


C#|--------------------|---------------------------------|--------------------|---------------------------------|
G#|--------------------|---------------------------------|--------------------|---------------------------------|
 E|--------------------|---------------------------------|--------------------|---------------------------------|
 B|--------------------|---------------------------------|--------------------|---------------------------------|
F#|-0---0---0----------|-----0---0---1-------0---0---1---|-0---0---0----------|-----0---0---1-------0---0---1---|
 B|-0---0---0----3-----|-3---0---0---1-------0---0---1---|-0---0---0----3-----|-3---0---0---1-------0---0---1---|


C#|---------------------------|-----------------|--------------------|---------------------------------|
G#|---------------------------|-----------------|--------------------|---------------------------------|
 E|---------------------------|-----------------|--------------------|---------------------------------|
 B|---------------------------|-----------------|--------------------|---------------------------------|
F#|-0---0---0-----------------|-----------------|-0---0---0----------|-----0---0---1-------0---0---1---|
 B|-0---0---0----3----3---3---|-3-----3---3-----|-0---0---0----3-----|-3---0---0---1-------0---0---1---|


C#|--------------------|---------------------------------|--------------------|---------------------------------|
G#|--------------------|---------------------------------|--------------------|---------------------------------|
 E|--------------------|---------------------------------|--------------------|---------------------------------|
 B|--------------------|---------------------------------|--------------------|---------------------------------|
F#|-0---0---0----------|-----0---0---1-------0---0---1---|-0---0---0----------|-----0---0---1-------0---0---1---|
 B|-0---0---0----3-----|-3---0---0---1-------0---0---1---|-0---0---0----3-----|-3---0---0---1-------0---0---1---|


C#|--------------------|---------------------------------|--------|--------|-------------|
G#|--------------------|---------------------------------|--------|--------|-------------|
 E|--------------------|---------------------------------|--------|--------|-------------|
 B|--------------------|---------------------------------|--------|--------|-------------|
F#|-0---0---0----------|-----0---0---1-------0---0---1---|--------|--------|-------------|
 B|-0---0---0----3-----|-3---0---0---1-------0---0---1---|-0------|-4------|-1-----2-----|


C#|--------|--------|--------|-------------|--------|--------|--------|-------------|
G#|--------|--------|--------|-------------|--------|--------|--------|-------------|
 E|--------|--------|--------|-------------|--------|--------|--------|-------------|
 B|--------|--------|--------|-------------|--------|--------|--------|-------------|
F#|--------|--------|--------|-------------|--------|--------|--------|-------------|
 B|-2------|-0------|-4------|-1-----2-----|-2------|-0------|-4------|-1-----2-----|


C#|--------|--------|--------|-------------|--------|--------|--------|-------------|
G#|--------|--------|--------|-------------|--------|--------|--------|-------------|
 E|--------|--------|--------|-------------|--------|--------|--------|-------------|
 B|--------|--------|--------|-------------|--------|--------|--------|-------------|
F#|--------|--------|--------|-------------|--------|--------|--------|-------------|
 B|-2------|-0------|-4------|-1-----2-----|-2------|-0------|-4------|-1-----2-----|


C#|--------|--------|--------|-------------|--------|--------------------|---------------------------------|
G#|--------|--------|--------|-------------|--------|--------------------|---------------------------------|
 E|--------|--------|--------|-------------|--------|--------------------|---------------------------------|
 B|--------|--------|--------|-------------|--------|--------------------|---------------------------------|
F#|--------|--------|--------|-------------|--------|-0---0---0----------|-----0---0---1-------0---0---1---|
 B|-2------|-0------|-4------|-1-----2-----|-2------|-0---0---0----3-----|-3---0---0---1-------0---0---1---|


C#|--------------------|---------------------------------|--------------------|---------------------------------|
G#|--------------------|---------------------------------|--------------------|---------------------------------|
 E|--------------------|---------------------------------|--------------------|---------------------------------|
 B|--------------------|---------------------------------|--------------------|---------------------------------|
F#|-0---0---0----------|-----0---0---1-------0---0---1---|-0---0---0----------|-----0---0---1-------0---0---1---|
 B|-0---0---0----3-----|-3---0---0---1-------0---0---1---|-0---0---0----3-----|-3---0---0---1-------0---0---1---|


C#|---------------------------|-----------------|--------------------|---------------------------------|
G#|---------------------------|-----------------|--------------------|---------------------------------|
 E|---------------------------|-----------------|--------------------|---------------------------------|
 B|---------------------------|-----------------|--------------------|---------------------------------|
F#|-0---0---0-----------------|-----------------|-0---0---0----------|-----0---0---1-------0---0---1---|
 B|-0---0---0----3----3---3---|-3-----3---3-----|-0---0---0----3-----|-3---0---0---1-------0---0---1---|


C#|--------------------|---------------------------------|--------------------|---------------------------------|
G#|--------------------|---------------------------------|--------------------|---------------------------------|
 E|--------------------|---------------------------------|--------------------|---------------------------------|
 B|--------------------|---------------------------------|--------------------|---------------------------------|
F#|-0---0---0----------|-----0---0---1-------0---0---1---|-0---0---0----------|-----0---0---1-------0---0---1---|
 B|-0---0---0----3-----|-3---0---0---1-------0---0---1---|-0---0---0----3-----|-3---0---0---1-------0---0---1---|


C#|--------------------|------------------------------|------------------------------|
G#|--------------------|------------------------------|------------------------------|
 E|--------------------|------------------------------|------------------------------|
 B|--------------------|------------------------------|------------------------------|
F#|-0---0---0----------|-----0---0---1-----------1----|---------1------------1-------|
 B|-0---0---0----3-----|-3---0---0---1-------0---1----|-0---0---1----0---0---1-------|


C#|--------|--------------------|---------------------------------|--------------------|
G#|--------|--------------------|---------------------------------|--------------------|
 E|--------|--------------------|---------------------------------|--------------------|
 B|--------|--------------------|---------------------------------|--------------------|
F#|--------|-0---0---0----------|-----0---0---1---1---0---0---1---|-0---0---0----------|
 B|--------|-0---0---0----3-----|-3---0---0---1---1---0---0---1---|-0---0---0----3-----|


C#|---------------------------------|--------------------|---------------------------------|
G#|---------------------------------|--------------------|---------------------------------|
 E|---------------------------------|--------------------|---------------------------------|
 B|---------------------------------|--------------------|---------------------------------|
F#|-----0---0---1---1---0---0---1---|-0---0---0----------|-----0---0---1---1---0---0---1---|
 B|-3---0---0---1---1---0---0---1---|-0---0---0----3-----|-3---0---0---1---1---0---0---1---|


C#|--------------------|---------------------------------|--------------------|---------------------------------|
G#|--------------------|---------------------------------|--------------------|---------------------------------|
 E|--------------------|---------------------------------|--------------------|---------------------------------|
 B|--------------------|---------------------------------|--------------------|---------------------------------|
F#|-0---0---0----------|-----0---0---1-------0---0---1---|-0---0---0----------|-----0---0---1---1---0---0---1---|
 B|-0---0---0----3-----|-3---0---0---1-------0---0---1---|-0---0---0----3-----|-3---0---0---1---1---0---0---1---|


C#|--------------------|---------------------------------|--------------------|---------------------------------|
G#|--------------------|---------------------------------|--------------------|---------------------------------|
 E|--------------------|---------------------------------|--------------------|---------------------------------|
 B|--------------------|-------------1---1---------------|--------------------|---------------------------------|
F#|-0---0---0----------|-----0---0-----------0---0---1---|-0---0---0----------|-----0---0---1---1---0---0---1---|
 B|-0---0---0----3-----|-3---0---0-----------0---0---1---|-0---0---0----3-----|-3---0---0---1---1---0---0---1---|


C#|--------------------|---------------------------------|
G#|--------------------|---------------------------------|
 E|--------------------|---------------------------------|
 B|--------------------|---------------------------------|
F#|-0---0---0----------|-----0---0---1-------0---0---1---|
 B|-0---0---0----3-----|-3---0---0---1-------0---0---1---|





Track 2: Guitar 2

C#|--------|--------|--------|--------|--------|--------|--------|--------|--------|
G#|--------|--------|--------|--------|--------|--------|--------|--------|--------|
 E|--------|--------|--------|--------|--------|--------|--------|--------|--------|
 B|--------|--------|--------|--------|--------|--------|--------|--------|--------|
F#|--------|--------|--------|--------|--------|--------|--------|--------|--------|
 B|--------|--------|--------|--------|--------|--------|--------|--------|--------|


C#|--------|---------------------------------|--------------------|---------------------------------|
G#|--------|---------------------------------|--------------------|---------------------------------|
 E|--------|---------------------------------|--------------------|---------------------------------|
 B|--------|---------------------------------|--------------------|---------------------------------|
F#|--------|-----------------2-------1-------|--------------------|-----------------2-------1-------|
 B|--------|-0---0---0---3-------3-------2---|-0---0--------------|-0---0---0---3-------3-------2---|


C#|--------------------|---------------------------------|---------------------------------|
G#|--------------------|---------------------------------|---------------------------------|
 E|--------------------|---------------------------------|---------------------------------|
 B|--------------------|---------------------------------|-----------------------------1---|
F#|--------------------|-----------------2-------1-------|-------------2-----------1-------|
 B|-0---0--------------|-0---0---0---3-------3-------2---|-0---0---0-------0---0-----------|


C#|---------------------------------|---------------------------------|---------------------------------|
G#|---------------------------------|---------------------------------|---------------------------------|
 E|---------------------------------|---------------------------------|---------------------------------|
 B|---------------------------------|-----------------------------1---|---------------------------------|
F#|-----------------2-------1-------|-------------2-----------1-------|-----------------2-------1-------|
 B|-0---0---0---3-------3-------2---|-0---0---0-------0---0-----------|-0---0---0---3-------3-------2---|


C#|---------------------------------|---------------------------------|---------------------------------|
G#|---------------------------------|---------------------------------|---------------------------------|
 E|---------------------------------|---------------------------------|---------------------------------|
 B|-----------------------------1---|---------------------------------|-----------------------------1---|
F#|-------------2-----------1-------|-----------------2-------1-------|-------------2-----------1-------|
 B|-0---0---0-------0---0-----------|-0---0---0---3-------3-------2---|-0---0---0-------0---0-----------|


C#|---------------------------------|---------------------------------|---------------------------------|
G#|---------------------------------|---------------------------------|---------------------------------|
 E|---------------------------------|---------------------------------|---------------------------------|
 B|---------------------------------|-----------------------------1---|---------------------------------|
F#|-----------------2-------1-------|-------------2-----------1-------|-----------------2-------1-------|
 B|-0---0---0---3-------3-------2---|-0---0---0-------0---0-----------|-0---0---0---3-------3-------2---|


C#|---------------------------------|--------|--------|--------|--------|--------|
G#|---------------------------------|--------|--------|--------|--------|--------|
 E|---------------------------------|--------|--------|--------|--------|--------|
 B|-----------------------------1---|--------|--------|--------|--------|--------|
F#|-------------2-----------1-------|--------|--------|--------|--------|--------|
 B|-0---0---0-------0---0-----------|--------|--------|--------|--------|--------|


C#|--------|--------|--------|--------|--------|--------|--------|--------|--------|
G#|--------|--------|--------|--------|--------|--------|--------|--------|--------|
 E|--------|--------|--------|--------|--------|--------|--------|--------|--------|
 B|--------|--------|--------|--------|--------|--------|--------|--------|--------|
F#|--------|--------|--------|--------|--------|--------|--------|--------|--------|
 B|--------|--------|--------|--------|--------|--------|--------|--------|--------|


C#|--------|--------|--------|--------|--------|--------|--------|--------|--------|
G#|--------|--------|--------|--------|--------|--------|--------|--------|--------|
 E|--------|--------|--------|--------|--------|--------|--------|--------|--------|
 B|--------|--------|--------|--------|--------|--------|--------|--------|--------|
F#|--------|--------|--------|--------|--------|--------|--------|--------|--------|
 B|--------|--------|--------|--------|--------|--------|--------|--------|--------|


C#|--------|--------|--------|--------|--------|--------|--------|--------|--------|
G#|--------|--------|--------|--------|--------|--------|--------|--------|--------|
 E|--------|--------|--------|--------|--------|--------|--------|--------|--------|
 B|--------|--------|--------|--------|--------|--------|--------|--------|--------|
F#|--------|--------|--------|--------|--------|--------|--------|--------|--------|
 B|--------|--------|--------|--------|--------|--------|--------|--------|--------|


C#|--------|--------|--------|--------|--------|--------|--------|--------|--------|
G#|--------|--------|--------|--------|--------|--------|--------|--------|--------|
 E|--------|--------|--------|--------|--------|--------|--------|--------|--------|
 B|--------|--------|--------|--------|--------|--------|--------|--------|--------|
F#|--------|--------|--------|--------|--------|--------|--------|--------|--------|
 B|--------|--------|--------|--------|--------|--------|--------|--------|--------|


C#|--------|--------|--------|--------|--------|--------|--------|--------|--------|
G#|--------|--------|--------|--------|--------|--------|--------|--------|--------|
 E|--------|--------|--------|--------|--------|--------|--------|--------|--------|
 B|--------|--------|--------|--------|--------|--------|--------|--------|--------|
F#|--------|--------|--------|--------|--------|--------|--------|--------|--------|
 B|--------|--------|--------|--------|--------|--------|--------|--------|--------|


C#|--------|--------|---------------------------------|--------------------|---------------------------------|
G#|--------|--------|---------------------------------|--------------------|---------------------------------|
 E|--------|--------|---------------------------------|--------------------|---------------------------------|
 B|--------|--------|---------------------------------|--------------------|---------------------------------|
F#|--------|--------|-----------------2-------1-------|--------------------|-----------------2-------1-------|
 B|--------|--------|-0---0---0---3-------3-------2---|-0---0--------------|-0---0---0---3-------3-------2---|


C#|---------------------------------|--------|--------|--------|--------|--------|
G#|---------------------------------|--------|--------|--------|--------|--------|
 E|---------------------------------|--------|--------|--------|--------|--------|
 B|-----------------------------1---|--------|--------|--------|--------|--------|
F#|-------------2-----------1-------|--------|--------|--------|--------|--------|
 B|-0---0---0-------0---0-----------|--------|--------|--------|--------|--------|


C#|--------|--------|--------|--------|--------|--------|--------|--------|--------|
G#|--------|--------|--------|--------|--------|--------|--------|--------|--------|
 E|--------|--------|--------|--------|--------|--------|--------|--------|--------|
 B|--------|--------|--------|--------|--------|--------|--------|--------|--------|
F#|--------|--------|--------|--------|--------|--------|--------|--------|--------|
 B|--------|--------|--------|--------|--------|--------|--------|--------|--------|


C#|--------|--------|--------|--------|--------|--------|--------|--------|--------|
G#|--------|--------|--------|--------|--------|--------|--------|--------|--------|
 E|--------|--------|--------|--------|--------|--------|--------|--------|--------|
 B|--------|--------|--------|--------|--------|--------|--------|--------|--------|
F#|--------|--------|--------|--------|--------|--------|--------|--------|--------|
 B|--------|--------|--------|--------|--------|--------|--------|--------|--------|


C#|--------|--------|--------|--------|--------|--------|--------|--------|--------|
G#|--------|--------|--------|--------|--------|--------|--------|--------|--------|
 E|--------|--------|--------|--------|--------|--------|--------|--------|--------|
 B|--------|--------|--------|--------|--------|--------|--------|--------|--------|
F#|--------|--------|--------|--------|--------|--------|--------|--------|--------|
 B|--------|--------|--------|--------|--------|--------|--------|--------|--------|


C#|--------|--------|--------|--------|--------|--------|--------|--------|--------|
G#|--------|--------|--------|--------|--------|--------|--------|--------|--------|
 E|--------|--------|--------|--------|--------|--------|--------|--------|--------|
 B|--------|--------|--------|--------|--------|--------|--------|--------|--------|
F#|--------|--------|--------|--------|--------|--------|--------|--------|--------|
 B|--------|--------|--------|--------|--------|--------|--------|--------|--------|


C#|--------|--------|--------|--------|--------|--------|--------|--------|--------|
G#|--------|--------|--------|--------|--------|--------|--------|--------|--------|
 E|--------|--------|--------|--------|--------|--------|--------|--------|--------|
 B|--------|--------|--------|--------|--------|--------|--------|--------|--------|
F#|--------|--------|--------|--------|--------|--------|--------|--------|--------|
 B|--------|--------|--------|--------|--------|--------|--------|--------|--------|


C#|--------|--------|--------|--------|--------|--------|--------|--------|--------|
G#|--------|--------|--------|--------|--------|--------|--------|--------|--------|
 E|--------|--------|--------|--------|--------|--------|--------|--------|--------|
 B|--------|--------|--------|--------|--------|--------|--------|--------|--------|
F#|--------|--------|--------|--------|--------|--------|--------|--------|--------|
 B|--------|--------|--------|--------|--------|--------|--------|--------|--------|


C#|--------|--------|--------|--------|--------|--------|--------|--------|--------|
G#|--------|--------|--------|--------|--------|--------|--------|--------|--------|
 E|--------|--------|--------|--------|--------|--------|--------|--------|--------|
 B|--------|--------|--------|--------|--------|--------|--------|--------|--------|
F#|--------|--------|--------|--------|--------|--------|--------|--------|--------|
 B|--------|--------|--------|--------|--------|--------|--------|--------|--------|


C#|--------|--------|--------|--------|--------|--------|--------|--------|--------|
G#|--------|--------|--------|--------|--------|--------|--------|--------|--------|
 E|--------|--------|--------|--------|--------|--------|--------|--------|--------|
 B|--------|--------|--------|--------|--------|--------|--------|--------|--------|
F#|--------|--------|--------|--------|--------|--------|--------|--------|--------|
 B|--------|--------|--------|--------|--------|--------|--------|--------|--------|


C#|--------|--------|--------|--------|--------|--------|--------|---------------------------------|
G#|--------|--------|--------|--------|--------|--------|--------|---------------------------------|
 E|--------|--------|--------|--------|--------|--------|--------|---------------------------------|
 B|--------|--------|--------|--------|--------|--------|--------|---------------------------------|
F#|--------|--------|--------|--------|--------|--------|--------|---------------------------------|
 B|--------|--------|--------|--------|--------|--------|--------|-0---0---0---0---0---0---0---0---|


C#|---------------------------------|---------------------------------|---------------------------------|
G#|---------------------------------|---------------------------------|---------------------------------|
 E|---------------------------------|---------------------------------|---------------------------------|
 B|---------------------------------|---------------------------------|---------------------------------|
F#|---------------------------------|---------------------------------|---------------------------------|
 B|-4---4---4---4---4---4---4---4---|-1---1---1---1---2---2---2---2---|-2---2---2---2---2---2---2---2---|


C#|---------------------------------|---------------------------------|---------------------------------|
G#|---------------------------------|---------------------------------|---------------------------------|
 E|---------------------------------|---------------------------------|---------------------------------|
 B|---------------------------------|---------------------------------|---------------------------------|
F#|---------------------------------|---------------------------------|---------------------------------|
 B|-0---0---0---0---0---0---0---0---|-4---4---4---4---4---4---4---4---|-1---1---1---1---2---2---2---2---|


C#|---------------------------------|--------|--------|--------|--------|--------|
G#|---------------------------------|--------|--------|--------|--------|--------|
 E|---------------------------------|--------|--------|--------|--------|--------|
 B|---------------------------------|--------|--------|--------|--------|--------|
F#|---------------------------------|--------|--------|--------|--------|--------|
 B|-2---2---2---2---2---2---2---2---|--------|--------|--------|--------|--------|


C#|--------|--------|--------|--------|--------|--------|--------|--------|--------|
G#|--------|--------|--------|--------|--------|--------|--------|--------|--------|
 E|--------|--------|--------|--------|--------|--------|--------|--------|--------|
 B|--------|--------|--------|--------|--------|--------|--------|--------|--------|
F#|--------|--------|--------|--------|--------|--------|--------|--------|--------|
 B|--------|--------|--------|--------|--------|--------|--------|--------|--------|


C#|--------|--------|--------|--------|--------|--------|--------|--------|--------|
G#|--------|--------|--------|--------|--------|--------|--------|--------|--------|
 E|--------|--------|--------|--------|--------|--------|--------|--------|--------|
 B|--------|--------|--------|--------|--------|--------|--------|--------|--------|
F#|--------|--------|--------|--------|--------|--------|--------|--------|--------|
 B|--------|--------|--------|--------|--------|--------|--------|--------|--------|


C#|--------|--------|--------|--------------------|---------------------------------|
G#|--------|--------|--------|--------------------|---------------------------------|
 E|--------|--------|--------|--------------------|---------------------------------|
 B|--------|--------|--------|--------------------|---------------------------------|
F#|--------|--------|--------|-0---0---0----------|-----0---0---1---1---0---0---1---|
 B|--------|--------|--------|-0---0---0----3-----|-3---0---0---1---1---0---0---1---|


C#|--------------------|---------------------------------|--------|--------|--------|
G#|--------------------|---------------------------------|--------|--------|--------|
 E|--------------------|---------------------------------|--------|--------|--------|
 B|--------------------|---------------------------------|--------|--------|--------|
F#|-0---0---0----------|-----0---0---1---1---0---0---1---|--------|--------|--------|
 B|-0---0---0----3-----|-3---0---0---1---1---0---0---1---|--------|--------|--------|


C#|--------|
G#|--------|
 E|--------|
 B|--------|
F#|--------|
 B|--------|





Track 3: Guitar 3

C#|--------|--------|--------|--------|--------|--------|--------|--------|--------|
G#|--------|--------|--------|--------|--------|--------|--------|--------|--------|
 E|--------|--------|--------|--------|--------|--------|--------|--------|--------|
 B|--------|--------|--------|--------|--------|--------|--------|--------|--------|
F#|--------|--------|--------|--------|--------|--------|--------|--------|--------|
 B|--------|--------|--------|--------|--------|--------|--------|--------|--------|


C#|--------|--------|--------|--------|--------|--------|--------|--------|--------|
G#|--------|--------|--------|--------|--------|--------|--------|--------|--------|
 E|--------|--------|--------|--------|--------|--------|--------|--------|--------|
 B|--------|--------|--------|--------|--------|--------|--------|--------|--------|
F#|--------|--------|--------|--------|--------|--------|--------|--------|--------|
 B|--------|--------|--------|--------|--------|--------|--------|--------|--------|


C#|--------|--------|--------|--------|--------|--------|--------|--------|--------|
G#|--------|--------|--------|--------|--------|--------|--------|--------|--------|
 E|--------|--------|--------|--------|--------|--------|--------|--------|--------|
 B|--------|--------|--------|--------|--------|--------|--------|--------|--------|
F#|--------|--------|--------|--------|--------|--------|--------|--------|--------|
 B|--------|--------|--------|--------|--------|--------|--------|--------|--------|


C#|--------|--------|--------|--------|--------|--------|--------|--------|--------|
G#|--------|--------|--------|--------|--------|--------|--------|--------|--------|
 E|--------|--------|--------|--------|--------|--------|--------|--------|--------|
 B|--------|--------|--------|--------|--------|--------|--------|--------|--------|
F#|--------|--------|--------|--------|--------|--------|--------|--------|--------|
 B|--------|--------|--------|--------|--------|--------|--------|--------|--------|


C#|--------|--------|--------|--------|--------|--------|--------|--------|--------|
G#|--------|--------|--------|--------|--------|--------|--------|--------|--------|
 E|--------|--------|--------|--------|--------|--------|--------|--------|--------|
 B|--------|--------|--------|--------|--------|--------|--------|--------|--------|
F#|--------|--------|--------|--------|--------|--------|--------|--------|--------|
 B|--------|--------|--------|--------|--------|--------|--------|--------|--------|


C#|--------|--------|--------|--------|--------|--------|--------|--------|--------|
G#|--------|--------|--------|--------|--------|--------|--------|--------|--------|
 E|--------|--------|--------|--------|--------|--------|--------|--------|--------|
 B|--------|--------|--------|--------|--------|--------|--------|--------|--------|
F#|--------|--------|--------|--------|--------|--------|--------|--------|--------|
 B|--------|--------|--------|--------|--------|--------|--------|--------|--------|


C#|--------|--------|--------|--------|--------|--------|--------|--------|--------|
G#|--------|--------|--------|--------|--------|--------|--------|--------|--------|
 E|--------|--------|--------|--------|--------|--------|--------|--------|--------|
 B|--------|--------|--------|--------|--------|--------|--------|--------|--------|
F#|--------|--------|--------|--------|--------|--------|--------|--------|--------|
 B|--------|--------|--------|--------|--------|--------|--------|--------|--------|


C#|--------|--------|--------|--------|--------|--------|--------|--------|--------|
G#|--------|--------|--------|--------|--------|--------|--------|--------|--------|
 E|--------|--------|--------|--------|--------|--------|--------|--------|--------|
 B|--------|--------|--------|--------|--------|--------|--------|--------|--------|
F#|--------|--------|--------|--------|--------|--------|--------|--------|--------|
 B|--------|--------|--------|--------|--------|--------|--------|--------|--------|


C#|--------|--------|--------|--------|--------|--------|--------|--------|--------|
G#|--------|--------|--------|--------|--------|--------|--------|--------|--------|
 E|--------|--------|--------|--------|--------|--------|--------|--------|--------|
 B|--------|--------|--------|--------|--------|--------|--------|--------|--------|
F#|--------|--------|--------|--------|--------|--------|--------|--------|--------|
 B|--------|--------|--------|--------|--------|--------|--------|--------|--------|


C#|--------|--------|--------|--------|--------|--------|--------|--------|--------|
G#|--------|--------|--------|--------|--------|--------|--------|--------|--------|
 E|--------|--------|--------|--------|--------|--------|--------|--------|--------|
 B|--------|--------|--------|--------|--------|--------|--------|--------|--------|
F#|--------|--------|--------|--------|--------|--------|--------|--------|--------|
 B|--------|--------|--------|--------|--------|--------|--------|--------|--------|


C#|--------|--------|--------|--------|--------|--------|--------|--------|--------|
G#|--------|--------|--------|--------|--------|--------|--------|--------|--------|
 E|--------|--------|--------|--------|--------|--------|--------|--------|--------|
 B|--------|--------|--------|--------|--------|--------|--------|--------|--------|
F#|--------|--------|--------|--------|--------|--------|--------|--------|--------|
 B|--------|--------|--------|--------|--------|--------|--------|--------|--------|


C#|--------|--------|--------|--------|--------|--------|--------|--------|--------|
G#|--------|--------|--------|--------|--------|--------|--------|--------|--------|
 E|--------|--------|--------|--------|--------|--------|--------|--------|--------|
 B|--------|--------|--------|--------|--------|--------|--------|--------|--------|
F#|--------|--------|--------|--------|--------|--------|--------|--------|--------|
 B|--------|--------|--------|--------|--------|--------|--------|--------|--------|


C#|--------|--------|--------|--------|--------|--------|--------|--------|--------|
G#|--------|--------|--------|--------|--------|--------|--------|--------|--------|
 E|--------|--------|--------|--------|--------|--------|--------|--------|--------|
 B|--------|--------|--------|--------|--------|--------|--------|--------|--------|
F#|--------|--------|--------|--------|--------|--------|--------|--------|--------|
 B|--------|--------|--------|--------|--------|--------|--------|--------|--------|


C#|--------|--------|--------|--------|--------|--------|--------|--------|--------|
G#|--------|--------|--------|--------|--------|--------|--------|--------|--------|
 E|--------|--------|--------|--------|--------|--------|--------|--------|--------|
 B|--------|--------|--------|--------|--------|--------|--------|--------|--------|
F#|--------|--------|--------|--------|--------|--------|--------|--------|--------|
 B|--------|--------|--------|--------|--------|--------|--------|--------|--------|


C#|--------|--------|--------|--------|--------|--------|--------|--------|--------|
G#|--------|--------|--------|--------|--------|--------|--------|--------|--------|
 E|--------|--------|--------|--------|--------|--------|--------|--------|--------|
 B|--------|--------|--------|--------|--------|--------|--------|--------|--------|
F#|--------|--------|--------|--------|--------|--------|--------|--------|--------|
 B|--------|--------|--------|--------|--------|--------|--------|--------|--------|


C#|--------|--------|--------|--------|--------|--------|--------|--------|--------|
G#|--------|--------|--------|--------|--------|--------|--------|--------|--------|
 E|--------|--------|--------|--------|--------|--------|--------|--------|--------|
 B|--------|--------|--------|--------|--------|--------|--------|--------|--------|
F#|--------|--------|--------|--------|--------|--------|--------|--------|--------|
 B|--------|--------|--------|--------|--------|--------|--------|--------|--------|


C#|--------|--------|--------|--------|--------|--------|-12--12--12------12------12--12--|
G#|--------|--------|--------|--------|--------|--------|-------------16------16--16--16--|
 E|--------|--------|--------|--------|--------|--------|---------------------------------|
 B|--------|--------|--------|--------|--------|--------|---------------------------------|
F#|--------|--------|--------|--------|--------|--------|---------------------------------|
 B|--------|--------|--------|--------|--------|--------|---------------------------------|


C#|-12--12--12--12--12--12--12--12--|-12--12--12------12------12--12--|-12--12--12--12--12--12--12--12--|
G#|-16--16--16--16--16--16--16--16--|-------------16------16--16--16--|-16--16--16--16--16--16--16--16--|
 E|---------------------------------|---------------------------------|---------------------------------|
 B|---------------------------------|---------------------------------|---------------------------------|
F#|---------------------------------|---------------------------------|---------------------------------|
 B|---------------------------------|---------------------------------|---------------------------------|


C#|-12--12--12------12------12--12--|-12--12--12--12--12--12--12--12--|-12--12--12------12------12--12--|
G#|-------------16------16--16--16--|-16--16--16--16--16--16--16--16--|-------------16------16--16--16--|
 E|---------------------------------|---------------------------------|---------------------------------|
 B|---------------------------------|---------------------------------|---------------------------------|
F#|---------------------------------|---------------------------------|---------------------------------|
 B|---------------------------------|---------------------------------|---------------------------------|


C#|-12--12--12--12--12--12--12--12--|-12--12--12------12------12--12--|-12--12--12--12--12--12--12--12--|
G#|-16--16--16--16--16--16--16--16--|-------------16------16--16--16--|-16--16--16--16--16--16--16--16--|
 E|---------------------------------|---------------------------------|---------------------------------|
 B|---------------------------------|---------------------------------|---------------------------------|
F#|---------------------------------|---------------------------------|---------------------------------|
 B|---------------------------------|---------------------------------|---------------------------------|


C#|-12--12--12------12------12--12--|-12--12--12--12--12--12--12--12--|-12--12--12------12------12--12--|
G#|-------------16------16--16--16--|-16--16--16--16--16--16--16--16--|-------------16------16--16--16--|
 E|---------------------------------|---------------------------------|---------------------------------|
 B|---------------------------------|---------------------------------|---------------------------------|
F#|---------------------------------|---------------------------------|---------------------------------|
 B|---------------------------------|---------------------------------|---------------------------------|


C#|-12--12--12--12--12--12--12--12--|-12--12--12------12------12--12--|-12--12--12--12--12--12--12--12--|
G#|-16--16--16--16--16--16--16--16--|-------------16------16--16--16--|-16--16--16--16--16--16--16--16--|
 E|---------------------------------|---------------------------------|---------------------------------|
 B|---------------------------------|---------------------------------|---------------------------------|
F#|---------------------------------|---------------------------------|---------------------------------|
 B|---------------------------------|---------------------------------|---------------------------------|


C#|-12--12--12------12------12--12--|-12--12--12--12--12--12--12--12--|-12--12--12------12------12--12--|
G#|-------------16------16--16--16--|-16--16--16--16--16--16--16--16--|-------------16------16--16--16--|
 E|---------------------------------|---------------------------------|---------------------------------|
 B|---------------------------------|---------------------------------|---------------------------------|
F#|---------------------------------|---------------------------------|---------------------------------|
 B|---------------------------------|---------------------------------|---------------------------------|


C#|-12--12--12--12--12--12--12--12--|-12--12--12------12------12--12--|-12--12--12--12--12--12--12--12--|
G#|-16--16--16--16--16--16--16--16--|-------------16------16--16--16--|-16--16--16--16--16--16--16--16--|
 E|---------------------------------|---------------------------------|---------------------------------|
 B|---------------------------------|---------------------------------|---------------------------------|
F#|---------------------------------|---------------------------------|---------------------------------|
 B|---------------------------------|---------------------------------|---------------------------------|


C#|-12--12--12------12------12--12--|-12--12--12--12--12--12--12--12--|--------|--------|
G#|-------------16------16--16--16--|-16--16--16--16--16--16--16--16--|--------|--------|
 E|---------------------------------|---------------------------------|--------|--------|
 B|---------------------------------|---------------------------------|--------|--------|
F#|---------------------------------|---------------------------------|--------|--------|
 B|---------------------------------|---------------------------------|--------|--------|


C#|--------|--------|--------|--------|--------|--------|--------|--------|--------|
G#|--------|--------|--------|--------|--------|--------|--------|--------|--------|
 E|--------|--------|--------|--------|--------|--------|--------|--------|--------|
 B|--------|--------|--------|--------|--------|--------|--------|--------|--------|
F#|--------|--------|--------|--------|--------|--------|--------|--------|--------|
 B|--------|--------|--------|--------|--------|--------|--------|--------|--------|


C#|--------|--------|--------|--------|--------|--------|--------|--------|--------|
G#|--------|--------|--------|--------|--------|--------|--------|--------|--------|
 E|--------|--------|--------|--------|--------|--------|--------|--------|--------|
 B|--------|--------|--------|--------|--------|--------|--------|--------|--------|
F#|--------|--------|--------|--------|--------|--------|--------|--------|--------|
 B|--------|--------|--------|--------|--------|--------|--------|--------|--------|


C#|--------|--------|--------|--------|--------|--------|--------|--------|--------|
G#|--------|--------|--------|--------|--------|--------|--------|--------|--------|
 E|--------|--------|--------|--------|--------|--------|--------|--------|--------|
 B|--------|--------|--------|--------|--------|--------|--------|--------|--------|
F#|--------|--------|--------|--------|--------|--------|--------|--------|--------|
 B|--------|--------|--------|--------|--------|--------|--------|--------|--------|


C#|--------|--------|--------|--------|--------|
G#|--------|--------|--------|--------|--------|
 E|--------|--------|--------|--------|--------|
 B|--------|--------|--------|--------|--------|
F#|--------|--------|--------|--------|--------|
 B|--------|--------|--------|--------|--------|





Track 4: Bass

 E|--------|--------|--------|--------|--------|--------|--------|--------|--------|
 B|--------|--------|--------|--------|--------|--------|--------|--------|--------|
F#|--------|--------|--------|--------|--------|--------|--------|--------|--------|
 B|--------|--------|--------|--------|--------|--------|--------|--------|--------|


 E|--------|---------------------------------|--------------------|---------------------------------|
 B|--------|---------------------------------|--------------------|---------------------------------|
F#|--------|-----------------2-------1-------|--------------------|-----------------2-------1-------|
 B|--------|-0---0---0---3-------3-------2---|-0---0--------------|-0---0---0---3-------3-------2---|


 E|--------------------|---------------------------------|---------------------------------|
 B|--------------------|---------------------------------|-----------------------------1---|
F#|--------------------|-----------------2-------1-------|-------------2-----------1-------|
 B|-0---0--------------|-0---0---0---3-------3-------2---|-0---0---0-------0---0-----------|


 E|---------------------------------|---------------------------------|---------------------------------|
 B|---------------------------------|-----------------------------1---|---------------------------------|
F#|-----------------2-------1-------|-------------2-----------1-------|-----------------2-------1-------|
 B|-0---0---0---3-------3-------2---|-0---0---0-------0---0-----------|-0---0---0---3-------3-------2---|


 E|---------------------------------|---------------------------------|---------------------------------|
 B|-----------------------------1---|---------------------------------|-----------------------------1---|
F#|-------------2-----------1-------|-----------------2-------1-------|-------------2-----------1-------|
 B|-0---0---0-------0---0-----------|-0---0---0---3-------3-------2---|-0---0---0-------0---0-----------|


 E|---------------------------------|---------------------------------|---------------------------------|
 B|---------------------------------|-----------------------------1---|---------------------------------|
F#|-----------------2-------1-------|-------------2-----------1-------|-----------------2-------1-------|
 B|-0---0---0---3-------3-------2---|-0---0---0-------0---0-----------|-0---0---0---3-------3-------2---|


 E|---------------------------------|---------------------------------|---------------------------------|
 B|-----------------------------1---|---------------------------------|---------------------------------|
F#|-------------2-----------1-------|---------------------------------|---------------------------------|
 B|-0---0---0-------0---0-----------|-0---0---0---0---3---0---2---3---|-0---0---5---6---0---0---6---8---|


 E|---------------------------------|---------------------------------|---------------------------------|
 B|---------------------------------|---------------------------------|---------------------------------|
F#|---------------------------------|---------------------------------|---------------------------------|
 B|-0---0---0---0---3---0---2---3---|-0---0---5---6---0---0---6---8---|-0---0---0---0---3---0---2---3---|


 E|---------------------------------|---------------------------------|---------------------------------|
 B|---------------------------------|---------------------------------|---------------------------------|
F#|---------------------------------|---------------------------------|---------------------------------|
 B|-0---0---5---6---0---0---6---8---|-0---0---0---0---3---0---2---3---|-0---0---5---6---0---0---6---8---|


 E|---------------------------------|--------|---------------------------------|--------|
 B|---------------------------------|--------|---------------------------------|--------|
F#|---------------------------------|--------|---------------------------------|--------|
 B|-0---0---0---0---3---0---2---3---|--------|-0---0---0---0---3---0---2---3---|--------|


 E|---------------------------------|--------|---------------------------------|--------|
 B|---------------------------------|--------|---------------------------------|--------|
F#|---------------------------------|--------|---------------------------------|--------|
 B|-0---0---0---0---3---0---2---3---|--------|-0---0---0---0---3---0---2---3---|--------|


 E|---------------------------------|---------------------------------|---------------------------------|
 B|---------------------------------|---------------------------------|---------------------------------|
F#|---------------------------------|---------------------------------|---------------------------------|
 B|-0---0---0---0---3---0---2---3---|-0---0---5---6---0---0---6---8---|-0---0---0---0---3---0---2---3---|


 E|---------------------------------|---------------------------------|---------------------------------|
 B|---------------------------------|---------------------------------|---------------------------------|
F#|---------------------------------|---------------------------------|---------------------------------|
 B|-0---0---5---6---0---0---6---8---|-0---0---0---0---3---0---2---3---|-0---0---5---6---0---0---6---8---|


 E|---------------------------------|---------------------------------|---------------------------------|
 B|---------------------------------|---------------------------------|---------------------------------|
F#|---------------------------------|---------------------------------|---------------------------------|
 B|-0---0---0---0---3---0---2---3---|-0---0---5---6---0---0---6---8---|-0---0---0---0---3---0---2---3---|


 E|--------|---------------------------------|--------|---------------------------------|
 B|--------|---------------------------------|--------|---------------------------------|
F#|--------|---------------------------------|--------|---------------------------------|
 B|--------|-0---0---0---0---3---0---2---3---|--------|-0---0---0---0---3---0---2---3---|


 E|--------|---------------------------------|--------|---------------------------------|
 B|--------|---------------------------------|--------|---------------------------------|
F#|--------|---------------------------------|--------|---------------------------------|
 B|--------|-0---0---0---0---3---0---2---3---|--------|-0---0---0---0---3---0---2---3---|


 E|---------------------------------|---------------------------------|---------------------------------|
 B|---------------------------------|---------------------------------|---------------------------------|
F#|---------------------------------|---------------------------------|---------------------------------|
 B|-0---0---5---6---0---0---6---8---|-0---0---0---0---3---0---2---3---|-0---0---5---6---0---0---6---8---|


 E|---------------------------------|---------------------------------|---------------------------------|
 B|---------------------------------|---------------------------------|---------------------------------|
F#|---------------------------------|---------------------------------|---------------------------------|
 B|-0---0---0---0---3---0---2---3---|-0---0---5---6---0---0---6---8---|-0---0---0---0---3---0---2---3---|


 E|---------------------------------|---------------------------------|---------------------------------|
 B|---------------------------------|---------------------------------|---------------------------------|
F#|---------------------------------|---------------------------------|---------------------------------|
 B|-0---0---5---6---0---0---6---8---|-13--13--13------13--13--13--13--|-13--13--13------13--13--13--13--|


 E|---------------------------------|---------------------------------|---------------------------------|
 B|---------------------------------|---------------------------------|---------------------------------|
F#|---------------------------------|---------------------------------|---------------------------------|
 B|-13--13--13------13--13--13--13--|-13--13--13------13--13--13--13--|-13--13--13------13--13--13--13--|


 E|---------------------------------|---------------------------------|---------------------------------|
 B|---------------------------------|---------------------------------|---------------------------------|
F#|---------------------------------|---------------------------------|---------------------------------|
 B|-13--13--13------13--13--13--13--|-13--13--13------13--13--13--13--|-13--13--13------13--13--13--13--|


 E|--------|--------|--------|--------|---------------------------------|--------------------|
 B|--------|--------|--------|--------|---------------------------------|--------------------|
F#|--------|--------|--------|--------|---------------------------------|--------------------|
 B|--------|--------|--------|--------|-0---0---0---0---3---0---2---3---|-0---0--------------|


 E|---------------------------------|---------------------------------|---------------------------------|
 B|---------------------------------|---------------------------------|---------------------------------|
F#|---------------------------------|---------------------------------|---------------------------------|
 B|-0---0---0---0---3---0---2---3---|-0---0---5---6---0---0---6---8---|-0---0---0---0---3---0---2---3---|


 E|--------|---------------------------------|--------|---------------------------------|
 B|--------|---------------------------------|--------|---------------------------------|
F#|--------|---------------------------------|--------|---------------------------------|
 B|--------|-0---0---0---0---3---0---2---3---|--------|-0---0---0---0---3---0---2---3---|


 E|--------|---------------------------------|--------|---------------------------------|
 B|--------|---------------------------------|--------|---------------------------------|
F#|--------|---------------------------------|--------|---------------------------------|
 B|--------|-0---0---0---0---3---0---2---3---|--------|-0---0---0---0---3---0---2---3---|


 E|---------------------------------|---------------------------------|---------------------------------|
 B|---------------------------------|---------------------------------|---------------------------------|
F#|---------------------------------|---------------------------------|---------------------------------|
 B|-0---0---5---6---0---0---6---8---|-0---0---0---0---3---0---2---3---|-0---0---5---6---0---0---6---8---|


 E|---------------------------------|---------------------------------|---------------------------------|
 B|---------------------------------|---------------------------------|---------------------------------|
F#|---------------------------------|---------------------------------|---------------------------------|
 B|-0---0---0---0---3---0---2---3---|-0---0---5---6---0---0---6---8---|-0---0---0---0---3---0---2---3---|


 E|---------------------------------|---------------------------------|--------|---------------------------------|
 B|---------------------------------|---------------------------------|--------|---------------------------------|
F#|---------------------------------|---------------------------------|--------|---------------------------------|
 B|-0---0---5---6---0---0---6---8---|-0---0---0---0---3---0---2---3---|--------|-0---0---0---0---3---0---2---3---|


 E|--------|---------------------------------|--------|---------------------------------|
 B|--------|---------------------------------|--------|---------------------------------|
F#|--------|---------------------------------|--------|---------------------------------|
 B|--------|-0---0---0---0---3---0---2---3---|--------|-0---0---0---0---3---0---2---3---|


 E|--------|---------------------------------|---------------------------------|---------------------------------|
 B|--------|---------------------------------|---------------------------------|---------------------------------|
F#|--------|---------------------------------|---------------------------------|---------------------------------|
 B|--------|-0---0---0---0---3---0---2---3---|-0---0---5---6---0---0---6---8---|-0---0---0---0---3---0---2---3---|


 E|---------------------------------|---------------------------------|---------------------------------|
 B|---------------------------------|---------------------------------|---------------------------------|
F#|---------------------------------|---------------------------------|---------------------------------|
 B|-0---0---5---6---0---0---6---8---|-0---0---0---0---3---0---2---3---|-0---0---5---6---0---0---6---8---|


 E|---------------------------------|---------------------------------|---------------------------------|
 B|---------------------------------|---------------------------------|---------------------------------|
F#|---------------------------------|---------------------------------|---------------------------------|
 B|-0---0---0---0---3---0---2---3---|-0---0---5---6---0---0---6---8---|-13--13--13------13--13--13--13--|


 E|---------------------------------|---------------------------------|---------------------------------|
 B|---------------------------------|---------------------------------|---------------------------------|
F#|---------------------------------|---------------------------------|---------------------------------|
 B|-13--13--13------13--13--13--13--|-13--13--13------13--13--13--13--|-13--13--13------13--13--13--13--|


 E|---------------------------------|---------------------------------|---------------------------------|
 B|---------------------------------|---------------------------------|---------------------------------|
F#|---------------------------------|---------------------------------|---------------------------------|
 B|-13--13--13------13--13--13--13--|-13--13--13------13--13--13--13--|-13--13--13------13--13--13--13--|


 E|---------------------------------|--------------------|---------------------------------|
 B|---------------------------------|--------------------|---------------------------------|
F#|---------------------------------|--------------------|---------------------------------|
 B|-13--13--13------13--13--13--13--|-0---0---0----3-----|-3---0---0---1-------0---0---1---|


 E|--------------------|---------------------------------|--------------------|---------------------------------|
 B|--------------------|---------------------------------|--------------------|---------------------------------|
F#|--------------------|---------------------------------|--------------------|---------------------------------|
 B|-0---0---0----3-----|-3---0---0---1-------0---0---1---|-0---0---0----3-----|-3---0---0---1-------0---0---1---|


 E|--------------------|---------------------------------|--------------------|---------------------------------|
 B|--------------------|---------------------------------|--------------------|---------------------------------|
F#|--------------------|---------------------------------|--------------------|---------------------------------|
 B|-0---0---0----3-----|-3---0---0---1-------0---0---1---|-0---0---0----3-----|-3---0---0---1-------0---0---1---|


 E|---------------------------|-----------------|--------------------|---------------------------------|
 B|---------------------------|-----------------|--------------------|---------------------------------|
F#|---------------------------|-----------------|--------------------|---------------------------------|
 B|-0---0---0----3----3---3---|-3-----3---3-----|-0---0---0----3-----|-3---0---0---1-------0---0---1---|


 E|--------------------|---------------------------------|--------------------|---------------------------------|
 B|--------------------|---------------------------------|--------------------|---------------------------------|
F#|--------------------|---------------------------------|--------------------|---------------------------------|
 B|-0---0---0----3-----|-3---0---0---1-------0---0---1---|-0---0---0----3-----|-3---0---0---1-------0---0---1---|


 E|---------------------------|-----------------|--------------------|---------------------------------|
 B|---------------------------|-----------------|--------------------|---------------------------------|
F#|---------------------------|-----------------|--------------------|---------------------------------|
 B|-0---0---0----3----3---3---|-3-----3---3-----|-0---0---0----3-----|-3---0---0---1-------0---0---1---|


 E|--------------------|---------------------------------|--------------------|---------------------------------|
 B|--------------------|---------------------------------|--------------------|---------------------------------|
F#|--------------------|---------------------------------|--------------------|---------------------------------|
 B|-0---0---0----3-----|-3---0---0---1-------0---0---1---|-0---0---0----3-----|-3---0---0---1-------0---0---1---|


 E|--------------------|---------------------------------|--------|--------|-------------|
 B|--------------------|---------------------------------|--------|--------|-------------|
F#|--------------------|---------------------------------|--------|--------|-------------|
 B|-0---0---0----3-----|-3---0---0---1-------0---0---1---|-0------|-4------|-1-----2-----|


 E|--------|--------|--------|-------------|--------|--------|--------|-------------|
 B|--------|--------|--------|-------------|--------|--------|--------|-------------|
F#|--------|--------|--------|-------------|--------|--------|--------|-------------|
 B|-2------|-0------|-4------|-1-----2-----|-2------|-0------|-4------|-1-----2-----|


 E|--------|--------|--------|-------------|--------|--------|--------|-------------|
 B|--------|--------|--------|-------------|--------|--------|--------|-------------|
F#|--------|--------|--------|-------------|--------|--------|--------|-------------|
 B|-2------|-0------|-4------|-1-----2-----|-2------|-0------|-4------|-1-----2-----|


 E|--------|--------|--------|-------------|--------|--------------------|---------------------------------|
 B|--------|--------|--------|-------------|--------|--------------------|---------------------------------|
F#|--------|--------|--------|-------------|--------|--------------------|---------------------------------|
 B|-2------|-0------|-4------|-1-----2-----|-2------|-0---0---0----3-----|-3---0---0---1-------0---0---1---|


 E|--------------------|---------------------------------|--------------------|---------------------------------|
 B|--------------------|---------------------------------|--------------------|---------------------------------|
F#|--------------------|---------------------------------|--------------------|---------------------------------|
 B|-0---0---0----3-----|-3---0---0---1-------0---0---1---|-0---0---0----3-----|-3---0---0---1-------0---0---1---|


 E|---------------------------|-----------------|--------------------|---------------------------------|
 B|---------------------------|-----------------|--------------------|---------------------------------|
F#|---------------------------|-----------------|--------------------|---------------------------------|
 B|-0---0---0----3----3---3---|-3-----3---3-----|-0---0---0----3-----|-3---0---0---1-------0---0---1---|


 E|--------------------|---------------------------------|--------------------|---------------------------------|
 B|--------------------|---------------------------------|--------------------|---------------------------------|
F#|--------------------|---------------------------------|--------------------|---------------------------------|
 B|-0---0---0----3-----|-3---0---0---1-------0---0---1---|-0---0---0----3-----|-3---0---0---1-------0---0---1---|


 E|--------------------|------------------------------|------------------------------|
 B|--------------------|------------------------------|------------------------------|
F#|--------------------|------------------------------|------------------------------|
 B|-0---0---0----3-----|-3---0---0---1-------0---1----|-0---0---1----0---0---1-------|


 E|--------|--------------------|---------------------------------|--------------------|
 B|--------|--------------------|---------------------------------|--------------------|
F#|--------|--------------------|---------------------------------|--------------------|
 B|--------|-0---0---0----3-----|-3---0---0---1---1---0---0---1---|-0---0---0----3-----|


 E|---------------------------------|--------------------|---------------------------------|
 B|---------------------------------|--------------------|---------------------------------|
F#|---------------------------------|--------------------|---------------------------------|
 B|-3---0---0---1---1---0---0---1---|-0---0---0----3-----|-3---0---0---1---1---0---0---1---|


 E|--------------------|---------------------------------|--------------------|---------------------------------|
 B|--------------------|---------------------------------|--------------------|---------------------------------|
F#|--------------------|---------------------------------|--------------------|---------------------------------|
 B|-0---0---0----3-----|-3---0---0---1-------0---0---1---|-0---0---0----3-----|-3---0---0---1---1---0---0---1---|


 E|--------------------|---------------------------------|--------------------|---------------------------------|
 B|--------------------|---------------------------------|--------------------|---------------------------------|
F#|--------------------|---------------------------------|--------------------|---------------------------------|
 B|-0---0---0----3-----|-3---0---0---1---1---0---0---1---|-0---0---0----3-----|-3---0---0---1---1---0---0---1---|


 E|--------------------|---------------------------------|
 B|--------------------|---------------------------------|
F#|--------------------|---------------------------------|
 B|-0---0---0----3-----|-3---0---0---1-------0---0---1---|