Menu:

 

Search:

 

slipknot - eeyore:

 



Title: Eeyore
Artist: 
Album: Slipknot
Author: Slipknot


Track 1: Guitar 1

C#|--------|-----------------|-------------------------------|-------------------------------|
G#|-0------|-----------------|-------------------------------|-------------------------------|
 E|-0------|-----------------|-4--4--4--4--4--4--4--4--5-----|-4--4--4--4--4--4--4--4--5-----|
 B|-0------|-----------------|-0--0--0--0--0--0--0--0--3-----|-0--0--0--0--0--0--0--0--3-----|
F#|-0------|-----------------|-------------------------------|-------------------------------|
 B|--------|-0---------------|-------------------------------|-------------------------------|


C#|-------------------------------|-------------------------------|-------------------------------|
G#|-------------------------------|-------------------------------|-------------------------------|
 E|-4--4--4--4--4--4--4--4--5-----|-4--4--4--4--4--4--4--4--5-----|-4--4--4--4--4--4--4--4--5-----|
 B|-0--0--0--0--0--0--0--0--3-----|-0--0--0--0--0--0--0--0--3-----|-0--0--0--0--0--0--0--0--3-----|
F#|-------------------------------|-------------------------------|-------------------------------|
 B|-------------------------------|-------------------------------|-------------------------------|


C#|-------------------------------|-------------------------------|-------------------------------|
G#|-------------------------------|-------------------------------|-------------------------------|
 E|-4--4--4--4--4--4--4--4--5-----|-4--4--4--4--4--4--4--4--5-----|-4--4--4--4--4--4--4--4--5-----|
 B|-0--0--0--0--0--0--0--0--3-----|-0--0--0--0--0--0--0--0--3-----|-0--0--0--0--0--0--0--0--3-----|
F#|-------------------------------|-------------------------------|-------------------------------|
 B|-------------------------------|-------------------------------|-------------------------------|


C#|-------------------------------|-------------------------------|-------------------------------|
G#|-------------------------------|-------------------------------|-------------------------------|
 E|-4--4--4--4--4--4--4--4--5-----|-4--4--4--4--4--4--4--4--5-----|-4--4--4--4--4--4--4--4--5-----|
 B|-0--0--0--0--0--0--0--0--3-----|-0--0--0--0--0--0--0--0--3-----|-0--0--0--0--0--0--0--0--3-----|
F#|-------------------------------|-------------------------------|-------------------------------|
 B|-------------------------------|-------------------------------|-------------------------------|


C#|-------------------------------|-------------------------------|-------------------------------|
G#|-------------------------------|-------------------------------|-------------------------------|
 E|-4--4--4--4--4--4--4--4--5-----|-4--4--4--4--4--4--4--4--5-----|-4--4--4--4--4--4--4--4--5-----|
 B|-0--0--0--0--0--0--0--0--3-----|-0--0--0--0--0--0--0--0--3-----|-0--0--0--0--0--0--0--0--3-----|
F#|-------------------------------|-------------------------------|-------------------------------|
 B|-------------------------------|-------------------------------|-------------------------------|


C#|-------------------------------|-------------------------------|---------------------------------|
G#|-------------------------------|-------------------------------|---------------------------------|
 E|-4--4--4--4--4--4--4--4--5-----|-4--4--4--4--4--4--4--4--5-----|---------------------------------|
 B|-0--0--0--0--0--0--0--0--3-----|-0--0--0--0--0--0--0--0--3-----|---------------------------------|
F#|-------------------------------|-------------------------------|-7---7---7---7---7---7---7---7---|
 B|-------------------------------|-------------------------------|-7---7---7---7---7---7---7---7---|


C#|---------------------------------|---------------------------------|---------------------------------|
G#|---------------------------------|---------------------------------|---------------------------------|
 E|---------------------------------|---------------------------------|---------------------------------|
 B|---------------------------------|---------------------------------|---------------------------------|
F#|-3---3---3---3---2---2---2---2---|-7---7---7---7---7---7---7---7---|-3---3---3---3---2---2---2---2---|
 B|-3---3---3---3---2---2---2---2---|-7---7---7---7---7---7---7---7---|-3---3---3---3---2---2---2---2---|


C#|---------------------------------|---------------------------------|---------------------------------|
G#|---------------------------------|---------------------------------|---------------------------------|
 E|---------------------------------|---------------------------------|---------------------------------|
 B|---------------------------------|---------------------------------|---------------------------------|
F#|-7---7---7---7---7---7---7---7---|-3---3---3---3---2---2---2---2---|-7---7---7---7---7---7---7---7---|
 B|-7---7---7---7---7---7---7---7---|-3---3---3---3---2---2---2---2---|-7---7---7---7---7---7---7---7---|


C#|---------------------------------|-------------------------------------------------|
G#|---------------------------------|-------------------------------------------------|
 E|---------------------------------|-------------------------------------------------|
 B|---------------------------------|-------------------------------------------------|
F#|-3---3---3---3---2---2---2---2---|-------------------------------------------------|
 B|-3---3---3---3---2---2---2---2---|-7--7--7--7--7--7--7--7--7--7--7--7--7--7--7--7--|


C#|-------------------------------------------------|-------------------------------------------------|
G#|-------------------------------------------------|-------------------------------------------------|
 E|-------------------------------------------------|-------------------------------------------------|
 B|-------------------------------------------------|-------------------------------------------------|
F#|-------------------------------------------------|-------------------------------------------------|
 B|-3--3--3--3--3--3--3--3--2--2--2--2--2--2--2--2--|-7--7--7--7--7--7--7--7--7--7--7--7--7--7--7--7--|


C#|-------------------------------------------------|-------------------------------------------------|
G#|-------------------------------------------------|-------------------------------------------------|
 E|-------------------------------------------------|-------------------------------------------------|
 B|-------------------------------------------------|-------------------------------------------------|
F#|-------------------------------------------------|-------------------------------------------------|
 B|-3--3--3--3--3--3--3--3--2--2--2--2--2--2--2--2--|-7--7--7--7--7--7--7--7--7--7--7--7--7--7--7--7--|


C#|-------------------------------------------------|-------------------------------------------------|
G#|-------------------------------------------------|-------------------------------------------------|
 E|-------------------------------------------------|-------------------------------------------------|
 B|-------------------------------------------------|-------------------------------------------------|
F#|-------------------------------------------------|-------------------------------------------------|
 B|-3--3--3--3--3--3--3--3--2--2--2--2--2--2--2--2--|-7--7--7--7--7--7--7--7--7--7--7--7--7--7--7--7--|


C#|-------------------------------------------------|-------------------------------------------------|
G#|-------------------------------------------------|-------------------------------------------------|
 E|-------------------------------------------------|-------------------------------------------------|
 B|-------------------------------------------------|-------------------------------------------------|
F#|-------------------------------------------------|-------------------------------------------------|
 B|-3--3--3--3--3--3--3--3--2--2--2--2--2--2--2--2--|-7--7--7--7--7--7--7--7--7--7--7--7--7--7--7--7--|


C#|-------------------------------------------------|-------------------------------------------------|
G#|-------------------------------------------------|-------------------------------------------------|
 E|-------------------------------------------------|-------------------------------------------------|
 B|-------------------------------------------------|-------------------------------------------------|
F#|-------------------------------------------------|-------------------------------------------------|
 B|-3--3--3--3--3--3--3--3--2--2--2--2--2--2--2--2--|-7--7--7--7--7--7--7--7--7--7--7--7--7--7--7--7--|


C#|-------------------------------------------------|------------------------------|
G#|-------------------------------------------------|------------------------------|
 E|-------------------------------------------------|------------------------------|
 B|-------------------------------------------------|------------------------------|
F#|-------------------------------------------------|-0----------------------------|
 B|-3--3--3--3--3--3--3--3--2--2--2--2--2--2--2--2--|-0----0---0---0---0---0---0---|


C#|---------------------------------|---------------------------------|---------------------|
G#|---------------------------------|---------------------------------|---------------------|
 E|---------------------------------|---------------------------------|---------------------|
 B|---------------------------------|---------------------------------|----------------4----|
F#|-3-----------3-----------3---5---|-6-------------------------------|------5----3---------|
 B|-3---0---0---3---0---0---3---5---|-6---0---0---0---0---0---0---0---|-3-------------------|


C#|------------------------------|---------------------------------|---------------------------------|
G#|------------------------------|---------------------------------|---------------------------------|
 E|------------------------------|---------------------------------|---------------------------------|
 B|------------------------------|---------------------------------|---------------------------------|
F#|-0----------------------------|-3-----------3-----------3---5---|-6-------------------------------|
 B|-0----0---0---0---0---0---0---|-3---0---0---3---0---0---3---5---|-6---0---0---0---0---0---0---0---|


C#|---------------------|------------------------------|---------------------------------|
G#|---------------------|------------------------------|---------------------------------|
 E|---------------------|------------------------------|---------------------------------|
 B|----------------4----|------------------------------|---------------------------------|
F#|------5----3---------|-0----------------------------|-3-----------3-----------3---5---|
 B|-3-------------------|-0----0---0---0---0---0---0---|-3---0---0---3---0---0---3---5---|


C#|---------------------------------|---------------------|------------------------------|
G#|---------------------------------|---------------------|------------------------------|
 E|---------------------------------|---------------------|------------------------------|
 B|---------------------------------|----------------4----|------------------------------|
F#|-6-------------------------------|------5----3---------|-0----------------------------|
 B|-6---0---0---0---0---0---0---0---|-3-------------------|-0----0---0---0---0---0---0---|


C#|---------------------------------|---------------------------------|---------------------|
G#|---------------------------------|---------------------------------|---------------------|
 E|---------------------------------|---------------------------------|---------------------|
 B|---------------------------------|---------------------------------|----------------4----|
F#|-3-----------3-----------3---5---|-6-------------------------------|------5----3---------|
 B|-3---0---0---3---0---0---3---5---|-6---0---0---0---0---0---0---0---|-3-------------------|


C#|-----------------|------------------------|---------------------------------|---------------------------------|
G#|-----------------|------------------------|---------------------------------|---------------------------------|
 E|-----------------|------------------------|---------------------------------|---------------------------------|
 B|-----------------|------4-----------------|---------------------------------|---------------------------------|
F#|------------5----|-3---------0------------|-----------------3-----------3---|---------3---5---6---------------|
 B|-------3---------|-----------0----0---0---|-0---0---0---0---3---0---0---3---|-0---0---3---5---6---0---0---0---|


C#|---------------------------|------------------------|---------------------------------|
G#|---------------------------|------------------------|---------------------------------|
 E|---------------------------|------------------------|---------------------------------|
 B|---------------------------|------4-----------------|---------------------------------|
F#|----------------------5----|-3---------0------------|-----------------3-----------3---|
 B|-0---0---0---0---3---------|-----------0----0---0---|-0---0---0---0---3---0---0---3---|


C#|---------------------------------|---------------------------|-----------------|
G#|---------------------------------|---------------------------|-----------------|
 E|---------------------------------|---------------------------|-----------------|
 B|---------------------------------|---------------------------|------4----------|
F#|---------3---5---6---------------|----------------------5----|-3---------------|
 B|-0---0---3---5---6---0---0---0---|-0---0---0---0---3---------|-----------------|


C#|---------------------|----------------|---------------------------|----------------|
G#|---------------------|----------------|---------------------------|----------------|
 E|---------------------|----------------|---------------------------|----------------|
 B|----------------4----|----------------|---------------------------|----------------|
F#|------5----3---------|-3---0---0------|-3---0----3---0----3---5---|-6---0---0------|
 B|-3-------------------|-3---0---0------|-3---0----3---0----3---5---|-6---0---0------|


C#|---------------------|----------------|---------------------------|----------------|
G#|---------------------|----------------|---------------------------|----------------|
 E|---------------6-----|----------------|---------------------------|----------------|
 B|-----7---------4-----|----------------|---------------------------|----------------|
F#|-----5---------------|-3---0---0------|-3---0----3---0----3---5---|-6---0---0------|
 B|---------------------|-3---0---0------|-3---0----3---0----3---5---|-6---0---0------|


C#|---------------------|----------------|---------------------------|----------------|
G#|---------------------|----------------|---------------------------|----------------|
 E|---------------6-----|----------------|---------------------------|----------------|
 B|-----7---------4-----|----------------|---------------------------|----------------|
F#|-----5---------------|-3---0---0------|-3---0----3---0----3---5---|-6---0---0------|
 B|---------------------|-3---0---0------|-3---0----3---0----3---5---|-6---0---0------|


C#|---------------------|----------------|---------------------------|----------------|
G#|---------------------|----------------|---------------------------|----------------|
 E|---------------6-----|----------------|---------------------------|----------------|
 B|-----7---------4-----|----------------|---------------------------|----------------|
F#|-----5---------------|-3---0---0------|-3---0----3---0----3---5---|-6---0---0------|
 B|---------------------|-3---0---0------|-3---0----3---0----3---5---|-6---0---0------|


C#|---------------------|--------|--------|-------------------------------------------------|
G#|---------------------|--------|--------|-------------------------------------------------|
 E|---------------6-----|--------|--------|-------------------------------------------------|
 B|-----7---------4-----|--------|--------|-------------------------------------------------|
F#|-----5---------------|--------|--------|-------------------------------------------------|
 B|---------------------|--------|--------|-7--7--7--7--7--7--7--7--7--7--7--7--7--7--7--7--|


C#|-------------------------------------------------|-------------------------------------------------|
G#|-------------------------------------------------|-------------------------------------------------|
 E|-------------------------------------------------|-------------------------------------------------|
 B|-------------------------------------------------|-------------------------------------------------|
F#|-------------------------------------------------|-------------------------------------------------|
 B|-3--3--3--3--3--3--3--3--2--2--2--2--2--2--2--2--|-7--7--7--7--7--7--7--7--7--7--7--7--7--7--7--7--|


C#|-------------------------------------------------|-------------------------------------------------|
G#|-------------------------------------------------|-------------------------------------------------|
 E|-------------------------------------------------|-------------------------------------------------|
 B|-------------------------------------------------|-------------------------------------------------|
F#|-------------------------------------------------|-------------------------------------------------|
 B|-3--3--3--3--3--3--3--3--2--2--2--2--2--2--2--2--|-7--7--7--7--7--7--7--7--7--7--7--7--7--7--7--7--|


C#|-------------------------------------------------|-------------------------------------------------|
G#|-------------------------------------------------|-------------------------------------------------|
 E|-------------------------------------------------|-------------------------------------------------|
 B|-------------------------------------------------|-------------------------------------------------|
F#|-------------------------------------------------|-------------------------------------------------|
 B|-3--3--3--3--3--3--3--3--2--2--2--2--2--2--2--2--|-7--7--7--7--7--7--7--7--7--7--7--7--7--7--7--7--|


C#|-------------------------------------------------|-------------------------------|
G#|-------------------------------------------------|-------------------------------|
 E|-------------------------------------------------|-4--4--4--4--4--4--4--4--5-----|
 B|-------------------------------------------------|-0--0--0--0--0--0--0--0--3-----|
F#|-------------------------------------------------|-------------------------------|
 B|-3--3--3--3--3--3--3--3--2--2--2--2--2--2--2--2--|-------------------------------|


C#|-------------------------------|-------------------------------|-------------------------------|
G#|-------------------------------|-------------------------------|-------------------------------|
 E|-4--4--4--4--4--4--4--4--5-----|-4--4--4--4--4--4--4--4--5-----|-4--4--4--4--4--4--4--4--5-----|
 B|-0--0--0--0--0--0--0--0--3-----|-0--0--0--0--0--0--0--0--3-----|-0--0--0--0--0--0--0--0--3-----|
F#|-------------------------------|-------------------------------|-------------------------------|
 B|-------------------------------|-------------------------------|-------------------------------|


C#|-----------------|--------|
G#|-----------------|--------|
 E|-----------------|--------|
 B|-----------------|--------|
F#|-0---------------|--------|
 B|-0---------------|--------|





Track 2: Guitar 2

C#|--------|--------|--------|--------|--------|--------|--------|--------|--------|
G#|--------|--------|--------|--------|--------|--------|--------|--------|--------|
 E|--------|--------|--------|--------|--------|--------|--------|--------|--------|
 B|--------|--------|--------|--------|--------|--------|--------|--------|--------|
F#|--------|--------|--------|--------|--------|--------|--------|--------|--------|
 B|--------|--------|--------|--------|--------|--------|--------|--------|--------|


C#|--------|-----------------------------------|-----------------------------------|
G#|--------|-----------------------------------|-----------------------------------|
 E|--------|-----------------------------------|-----------------------------------|
 B|--------|-----------------------------------|-----------------------------------|
F#|--------|-----------------------------------|-----------------------------------|
 B|-0------|-0--0--0--0--1--1--1--1--0---------|-0--0--0--0--1--1--1--1--0---------|


C#|-----------------------------------|-----------------------------------|-----------------------------------|
G#|-----------------------------------|-----------------------------------|-----------------------------------|
 E|-----------------------------------|-----------------------------------|-----------------------------------|
 B|-----------------------------------|-----------------------------------|-----------------------------------|
F#|-----------------------------------|-----------------------------------|-----------------------------------|
 B|-0--0--0--0--1--1--1--1--0---------|-0--0--0--0--1--1--1--1--0---------|-0--0--0--0--1--1--1--1--0---------|


C#|-----------------------------------|-----------------------------------|-----------------------------------|
G#|-----------------------------------|-----------------------------------|-----------------------------------|
 E|-----------------------------------|-----------------------------------|-----------------------------------|
 B|-----------------------------------|-----------------------------------|-----------------------------------|
F#|-----------------------------------|-----------------------------------|-----------------------------------|
 B|-0--0--0--0--1--1--1--1--0---------|-0--0--0--0--1--1--1--1--0---------|-0--0--0--0--1--1--1--1--0---------|


C#|---------------------------------|---------------------------------|---------------------------------|
G#|---------------------------------|---------------------------------|---------------------------------|
 E|---------------------------------|---------------------------------|---------------------------------|
 B|---------------------------------|---------------------------------|---------------------------------|
F#|-7---7---7---7---7---7---7---7---|-3---3---3---3---2---2---2---2---|-7---7---7---7---7---7---7---7---|
 B|-7---7---7---7---7---7---7---7---|-3---3---3---3---2---2---2---2---|-7---7---7---7---7---7---7---7---|


C#|---------------------------------|---------------------------------|---------------------------------|
G#|---------------------------------|---------------------------------|---------------------------------|
 E|---------------------------------|---------------------------------|---------------------------------|
 B|---------------------------------|---------------------------------|---------------------------------|
F#|-3---3---3---3---2---2---2---2---|-7---7---7---7---7---7---7---7---|-3---3---3---3---2---2---2---2---|
 B|-3---3---3---3---2---2---2---2---|-7---7---7---7---7---7---7---7---|-3---3---3---3---2---2---2---2---|


C#|---------------------------------|---------------------------------|--------|--------|
G#|---------------------------------|---------------------------------|--------|--------|
 E|---------------------------------|---------------------------------|--------|--------|
 B|---------------------------------|---------------------------------|--------|--------|
F#|-7---7---7---7---7---7---7---7---|-3---3---3---3---2---2---2---2---|--------|--------|
 B|-7---7---7---7---7---7---7---7---|-3---3---3---3---2---2---2---2---|--------|--------|


C#|-------------------------------------------------|-------------------------------------------------|
G#|-------------------------------------------------|-------------------------------------------------|
 E|-------------------------------------------------|-------------------------------------------------|
 B|-------------------------------------------------|-------------------------------------------------|
F#|-7--7--7--7--7--7--7--7--7--7--7--7--7--7--7--7--|-3--3--3--3--3--3--3--3--2--2--2--2--2--2--2--2--|
 B|-------------------------------------------------|-------------------------------------------------|


C#|--------|--------|--------|--------|--------|--------|--------|--------|--------|
G#|--------|--------|--------|--------|--------|--------|--------|--------|--------|
 E|--------|--------|--------|--------|--------|--------|--------|--------|--------|
 B|--------|--------|--------|--------|--------|--------|--------|--------|--------|
F#|--------|--------|--------|--------|--------|--------|--------|--------|--------|
 B|--------|--------|--------|--------|--------|--------|--------|--------|--------|


C#|--------|--------|--------|--------|--------|--------|--------|--------|--------|
G#|--------|--------|--------|--------|--------|--------|--------|--------|--------|
 E|--------|--------|--------|--------|--------|--------|--------|--------|--------|
 B|--------|--------|--------|--------|--------|--------|--------|--------|--------|
F#|--------|--------|--------|--------|--------|--------|--------|--------|--------|
 B|--------|--------|--------|--------|--------|--------|--------|--------|--------|


C#|--------|--------|--------|--------|--------|--------|--------|--------|--------|
G#|--------|--------|--------|--------|--------|--------|--------|--------|--------|
 E|--------|--------|--------|--------|--------|--------|--------|--------|--------|
 B|--------|--------|--------|--------|--------|--------|--------|--------|--------|
F#|--------|--------|--------|--------|--------|--------|--------|--------|--------|
 B|--------|--------|--------|--------|--------|--------|--------|--------|--------|


C#|--------|--------|--------|--------|--------|--------|--------|--------|--------|
G#|--------|--------|--------|--------|--------|--------|--------|--------|--------|
 E|--------|--------|--------|--------|--------|--------|--------|--------|--------|
 B|--------|--------|--------|--------|--------|--------|--------|--------|--------|
F#|--------|--------|--------|--------|--------|--------|--------|--------|--------|
 B|--------|--------|--------|--------|--------|--------|--------|--------|--------|


C#|--------|--------|--------|--------|--------|--------|--------|--------|--------|
G#|--------|--------|--------|--------|--------|--------|--------|--------|--------|
 E|--------|--------|--------|--------|--------|--------|--------|--------|--------|
 B|--------|--------|--------|--------|--------|--------|--------|--------|--------|
F#|--------|--------|--------|--------|--------|--------|--------|--------|--------|
 B|--------|--------|--------|--------|--------|--------|--------|--------|--------|


C#|--------|--------|--------|--------|--------|--------|--------|--------|--------|
G#|--------|--------|--------|--------|--------|--------|--------|--------|--------|
 E|--------|--------|--------|--------|--------|--------|--------|--------|--------|
 B|--------|--------|--------|--------|--------|--------|--------|--------|--------|
F#|--------|--------|--------|--------|--------|--------|--------|--------|--------|
 B|--------|--------|--------|--------|--------|--------|--------|--------|--------|


C#|--------|--------|--------|--------|--------|--------|--------|-----------------------------------|
G#|--------|--------|--------|--------|--------|--------|--------|-----------------------------------|
 E|--------|--------|--------|--------|--------|--------|--------|-----------------------------------|
 B|--------|--------|--------|--------|--------|--------|--------|-----------------------------------|
F#|--------|--------|--------|--------|--------|--------|--------|-----------------------------------|
 B|--------|--------|--------|--------|--------|--------|--------|-0--0--0--0--1--1--1--1--0---------|


C#|-----------------------------------|-----------------------------------|-----------------------------------|
G#|-----------------------------------|-----------------------------------|-----------------------------------|
 E|-----------------------------------|-----------------------------------|-----------------------------------|
 B|-----------------------------------|-----------------------------------|-----------------------------------|
F#|-----------------------------------|-----------------------------------|-----------------------------------|
 B|-0--0--0--0--1--1--1--1--0---------|-0--0--0--0--1--1--1--1--0---------|-0--0--0--0--1--1--1--1--0---------|


C#|-----------------|--------|
G#|-----------------|--------|
 E|-----------------|--------|
 B|-----------------|--------|
F#|-0---------------|--------|
 B|-0---------------|--------|





Track 3: Bass

 E|--------|--------|--------|--------|--------|--------|--------|--------|--------|
 B|--------|--------|--------|--------|--------|--------|--------|--------|--------|
F#|--------|--------|--------|--------|--------|--------|--------|--------|--------|
 B|--------|--------|--------|--------|--------|--------|--------|--------|--------|


 E|--------|-----------------------------------|-----------------------------------|
 B|--------|-----------------------------------|-----------------------------------|
F#|--------|-----------------------------------|-----------------------------------|
 B|--------|-0--0--0--0--1--1--1--1--0---------|-0--0--0--0--1--1--1--1--0---------|


 E|-----------------------------------|-----------------------------------|-----------------------------------|
 B|-----------------------------------|-----------------------------------|-----------------------------------|
F#|-----------------------------------|-----------------------------------|-----------------------------------|
 B|-0--0--0--0--1--1--1--1--0---------|-0--0--0--0--1--1--1--1--0---------|-0--0--0--0--1--1--1--1--0---------|


 E|-----------------------------------|-----------------------------------|-----------------------------------|
 B|-----------------------------------|-----------------------------------|-----------------------------------|
F#|-----------------------------------|-----------------------------------|-----------------------------------|
 B|-0--0--0--0--1--1--1--1--0---------|-0--0--0--0--1--1--1--1--0---------|-0--0--0--0--1--1--1--1--0---------|


 E|---------------------------------|---------------------------------|---------------------------------|
 B|---------------------------------|---------------------------------|---------------------------------|
F#|---------------------------------|---------------------------------|---------------------------------|
 B|-7---7---7---7---7---7---7---7---|-3---3---3---3---2---2---2---2---|-7---7---7---7---7---7---7---7---|


 E|---------------------------------|---------------------------------|---------------------------------|
 B|---------------------------------|---------------------------------|---------------------------------|
F#|---------------------------------|---------------------------------|---------------------------------|
 B|-3---3---3---3---2---2---2---2---|-7---7---7---7---7---7---7---7---|-3---3---3---3---2---2---2---2---|


 E|---------------------------------|---------------------------------|-----------------|
 B|---------------------------------|---------------------------------|-----------------|
F#|---------------------------------|---------------------------------|-----------------|
 B|-7---7---7---7---7---7---7---7---|-3---3---3---3---2---2---2---2---|-7---------------|


 E|--------|--------|-----------------|---------------------------------|---------------------------------|
 B|--------|--------|-----------------|---------------------------------|---------------------------------|
F#|--------|--------|-----------------|---------------------------------|---------------------------------|
 B|--------|--------|------------12---|-7---7---7---7---7---7---7---7---|-3---3---3---3---2---2---2---2---|


 E|---------------------------------|---------------------------------|---------------------------------|
 B|---------------------------------|---------------------------------|---------------------------------|
F#|---------------------------------|---------------------------------|---------------------------------|
 B|-7---7---7---7---7---7---7---7---|-3---3---3---3---2---2---2---2---|-7---7---7---7---7---7---7---7---|


 E|---------------------------------|---------------------------------|---------------------------------|
 B|---------------------------------|---------------------------------|---------------------------------|
F#|---------------------------------|---------------------------------|---------------------------------|
 B|-3---3---3---3---2---2---2---2---|-7---7---7---7---7---7---7---7---|-3---3---3---3---2---2---2---2---|


 E|-----------------|--------|--------|--------|------------------------------|---------------------------------|
 B|-----------------|--------|--------|--------|------------------------------|---------------------------------|
F#|-----------------|--------|--------|--------|------------------------------|---------------------------------|
 B|-0---------------|--------|--------|--------|-0----0---0---0---0---0---0---|-3---0---0---3---0---0---3---5---|


 E|------------------------------|---------------------|------------------------------|
 B|------------------------------|----------------4----|------------------------------|
F#|------------------------------|------5----3---------|------------------------------|
 B|-6----0---0---0---0---0---0---|-3-------------------|-0----0---0---0---0---0---0---|


 E|---------------------------------|------------------------------|---------------------|
 B|---------------------------------|------------------------------|----------------4----|
F#|---------------------------------|------------------------------|------5----3---------|
 B|-3---0---0---3---0---0---3---5---|-6----0---0---0---0---0---0---|-3-------------------|


 E|------------------------------|---------------------------------|------------------------------|
 B|------------------------------|---------------------------------|------------------------------|
F#|------------------------------|---------------------------------|------------------------------|
 B|-0----0---0---0---0---0---0---|-3---0---0---3---0---0---3---5---|-6----0---0---0---0---0---0---|


 E|---------------------|-----------------|------------------------|---------------------------------|
 B|----------------4----|-----------------|------4-----------------|---------------------------------|
F#|------5----3---------|------------5----|-3----------------------|---------------------------------|
 B|-3-------------------|-------3---------|-----------0----0---0---|-0---0---0---0---3---0---0---3---|


 E|------------------------------|---------------------------|------------------------|
 B|------------------------------|---------------------------|------4-----------------|
F#|------------------------------|----------------------5----|-3----------------------|
 B|-0---0---3---5---6----0---0---|-0---0---0---0---3---------|-----------0----0---0---|


 E|---------------------------------|------------------------------|---------------------------|
 B|---------------------------------|------------------------------|---------------------------|
F#|---------------------------------|------------------------------|----------------------5----|
 B|-0---0---0---0---3---0---0---3---|-0---0---3---5---6----0---0---|-0---0---0---0---3---------|


 E|-----------------|---------------------|----------------|---------------------------|
 B|------4----------|----------------4----|----------------|---------------------------|
F#|-3---------------|------5----3---------|----------------|---------------------------|
 B|-----------------|-3-------------------|-3---0---0------|-3---0----3---0----3---5---|


 E|----------------|---------------6-----|----------------|---------------------------|
 B|----------------|-----7-----4---------|----------------|---------------------------|
F#|----------------|-5-------------------|----------------|---------------------------|
 B|-6---0---0------|---------------------|-3---0---0------|-3---0----3---0----3---5---|


 E|----------------|---------------6-----|----------------|---------------------------|
 B|----------------|-----7-----4---------|----------------|---------------------------|
F#|----------------|-5-------------------|----------------|---------------------------|
 B|-6---0---0------|---------------------|-3---0---0------|-3---0----3---0----3---5---|


 E|----------------|---------------6-----|----------------|---------------------------|
 B|----------------|-----7-----4---------|----------------|---------------------------|
F#|----------------|-5-------------------|----------------|---------------------------|
 B|-6---0---0------|---------------------|-3---0---0------|-3---0----3---0----3---5---|


 E|----------------|---------------6-----|-------------------------------------------------|
 B|----------------|-----7-----4---------|-------------------------------------------------|
F#|----------------|-5-------------------|-------------------------------------------------|
 B|-6---0---0------|---------------------|-7--7--7--7--7--7--7--7--7--7--7--7--7--7--7--7--|


 E|-------------------------------------------------|-------------------------------------------------|
 B|-------------------------------------------------|-------------------------------------------------|
F#|-------------------------------------------------|-------------------------------------------------|
 B|-3--3--3--3--3--3--3--3--2--2--2--2--2--2--2--2--|-7--7--7--7--7--7--7--7--7--7--7--7--7--7--7--7--|


 E|-------------------------------------------------|-------------------------------------------------|
 B|-------------------------------------------------|-------------------------------------------------|
F#|-------------------------------------------------|-------------------------------------------------|
 B|-3--3--3--3--3--3--3--3--2--2--2--2--2--2--2--2--|-7--7--7--7--7--7--7--7--7--7--7--7--7--7--7--7--|


 E|-------------------------------------------------|-------------------------------------------------|
 B|-------------------------------------------------|-------------------------------------------------|
F#|-------------------------------------------------|-------------------------------------------------|
 B|-3--3--3--3--3--3--3--3--2--2--2--2--2--2--2--2--|-7--7--7--7--7--7--7--7--7--7--7--7--7--7--7--7--|


 E|-------------------------------------------------|-------------------------------------------------|
 B|-------------------------------------------------|-------------------------------------------------|
F#|-------------------------------------------------|-------------------------------------------------|
 B|-3--3--3--3--3--3--3--3--2--2--2--2--2--2--2--2--|-7--7--7--7--7--7--7--7--7--7--7--7--7--7--7--7--|


 E|-------------------------------------------------|-----------------------------------|
 B|-------------------------------------------------|-----------------------------------|
F#|-------------------------------------------------|-----------------------------------|
 B|-3--3--3--3--3--3--3--3--2--2--2--2--2--2--2--2--|-0--0--0--0--1--1--1--1--0---------|


 E|-----------------------------------|-----------------------------------|-----------------------------------|
 B|-----------------------------------|-----------------------------------|-----------------------------------|
F#|-----------------------------------|-----------------------------------|-----------------------------------|
 B|-0--0--0--0--1--1--1--1--0---------|-0--0--0--0--1--1--1--1--0---------|-0--0--0--0--1--1--1--1--0---------|


 E|-----------------|--------|
 B|-----------------|--------|
F#|-----------------|--------|
 B|-0---------------|--------|