Menu:

 

Search:

 

slipknot - duality:

 



Title: Duality
Artist: 
Album: Subliminal Verses Vol.3
Author: Slipknot


Track 1: Untitled

C#|---------------------------------|---------------------------------|---------------------------------|
G#|---------------------------------|---------------------------------|---------------------------------|
 E|---------------------------------|---------------------------------|---------------------------------|
 B|---------------------------------|---------------------------------|---------------------------------|
F#|---------------------------------|---------------------------------|---------------------------------|
 B|-0---0---0---0---0---0---0---0---|-0---0---0---0---0---0---0---3---|-3---3---3---3---3---3---3---6---|


C#|---------------------------------|---------------------------------|---------------------------------|
G#|---------------------------------|---------------------------------|---------------------------------|
 E|---------------------------------|---------------------------------|---------------------------------|
 B|---------------------------------|---------------------------------|---------------------------------|
F#|---------------------------------|---------------------------------|---------------------------------|
 B|-6---1---1---1---1---3---1---0---|-0---0---0---0---0---0---0---0---|-0---0---0---0---0---0---0---3---|


C#|---------------------------------|---------------------------------|---------------------------------|
G#|---------------------------------|---------------------------------|---------------------------------|
 E|---------------------------------|---------------------------------|---------------------------------|
 B|---------------------------------|---------------------------------|---------------------------------|
F#|---------------------------------|---------------------------------|-0---0---0---0---0---0---0---0---|
 B|-3---3---3---3---3---3---3---6---|-6---1---1---1---1---3---1---0---|-0---0---0---0---0---0---0---0---|


C#|---------------------------------|---------------------------------|---------------------------------|
G#|---------------------------------|---------------------------------|---------------------------------|
 E|---------------------------------|---------------------------------|---------------------------------|
 B|---------------------------------|---------------------------------|---------------------------------|
F#|-0---0---0---0---0---0---0---3---|-3---3---3---3---3---3---3---6---|-6---1---1---1---1---3---1---0---|
 B|-0---0---0---0---0---0---0---3---|-3---3---3---3---3---3---3---6---|-6---1---1---1---1---3---1---0---|


C#|---------------------------------|---------------------------------|---------------------------------|
G#|---------------------------------|---------------------------------|---------------------------------|
 E|---------------------------------|---------------------------------|---------------------------------|
 B|---------------------------------|---------------------------------|---------------------------------|
F#|-0---0---0---0---0---0---0---0---|-0---0---0---0---0---0---0---3---|-3---3---3---3---3---3---3---6---|
 B|-0---0---0---0---0---0---0---0---|-0---0---0---0---0---0---0---3---|-3---3---3---3---3---3---3---6---|


C#|---------------------------------|-----------------------------|-----------------------------|
G#|---------------------------------|-----------------------------|-----------------------------|
 E|---------------------------------|-----------------------------|-----------------------------|
 B|---------------------------------|-----------------------------|-----------------------------|
F#|-6---1---1---1---1---3---1---0---|-----0----0----0---------0---|-0--------0----0----0--------|
 B|-6---1---1---1---1---3---1---0---|-----0----0----0---------0---|-0--------0----0----0--------|


C#|---------------------------|-----------------------------|-----------------------------|
G#|---------------------------|-----------------------------|-----------------------------|
 E|---------------------------|-----------------------------|-----------------------------|
 B|----------------------3----|-3---------------------------|-----------------------------|
F#|-----0---1---0---0---------|-----0----0----0---------0---|-0--------0----0----0--------|
 B|-----0---1---0---0---------|-----0----0----0---------0---|-0--------0----0----0--------|


C#|---------------------------|-----------------------------|-----------------------------|
G#|---------------------------|-----------------------------|-----------------------------|
 E|---------------------------|-----------------------------|-----------------------------|
 B|---------------------------|-----------------------------|-----------------------------|
F#|-----0---1---0---0---------|-----0----0----0---------0---|-0--------0----0----0--------|
 B|-----0---1---0---0----3----|-----0----0----0---------0---|-0--------0----0----0--------|


C#|---------------------------|-----------------------------|-----------------------------|
G#|---------------------------|-----------------------------|-----------------------------|
 E|---------------------------|-----------------------------|-----------------------------|
 B|----------------------3----|-3---------------------------|-----------------------------|
F#|-----0---1---0---0---------|-----0----0----0---------0---|-0--------0----0----0--------|
 B|-----0---1---0---0---------|-----0----0----0---------0---|-0--------0----0----0--------|


C#|---------------------------|-------------------------------------------------|-------------------------------------------------|
G#|---------------------------|-------------------------------------------------|-------------------------------------------------|
 E|---------------------------|-------------------------------------------------|-------------------------------------------------|
 B|---------------------------|-------------------------------------------------|-------------------------------------------------|
F#|-----0---1---0---0---------|-------------------------------------------------|-------------------------------------------------|
 B|-----0---1---0---0----3----|-7--7--7--7--7--7--10-10-10-10-5--5--5--5--7--7--|-3--3--3--3--5--5--1--1--1--1--0--0--0--0--0--0--|


C#|-------------------------------------------------|-------------------------------------------------|
G#|-------------------------------------------------|-------------------------------------------------|
 E|-------------------------------------------------|-------------------------------------------------|
 B|-------------------------------------------------|-------------------------------------------------|
F#|-------------------------------------------------|-------------------------------------------------|
 B|-7--7--7--7--7--7--10-10-10-10-5--5--5--5--7--7--|-3--3--3--3--5--5--1--1--1--1--0--0--0--0--0--0--|


C#|-------------------------------------------------|-------------------------------------------------|
G#|-------------------------------------------------|-------------------------------------------------|
 E|-------------------------------------------------|-------------------------------------------------|
 B|-------------------------------------------------|-------------------------------------------------|
F#|-------------------------------------------------|-------------------------------------------------|
 B|-7--7--7--7--7--7--10-10-10-10-5--5--5--5--7--7--|-3--3--3--3--5--5--1--1--1--1--0--0--0--0--0--0--|


C#|-------------------------------------------------|-------------------------------------------------|
G#|-------------------------------------------------|-------------------------------------------------|
 E|-------------------------------------------------|-------------------------------------------------|
 B|-------------------------------------------------|-------------------------------------------------|
F#|-------------------------------------------------|-------------------------------------------------|
 B|-7--7--7--7--7--7--10-10-10-10-5--5--5--5--7--7--|-3--3--3--3--5--5--1--1--1--1--0--0--0--0--0--0--|


C#|-------------------------------------------------|-------------------------------------------------|
G#|-------------------------------------------------|-------------------------------------------------|
 E|-------------------------------------------------|-------------------------------------------------|
 B|-------------------------------------------------|-------------------------------------------------|
F#|-------------------------------------------------|-------------------------------------------------|
 B|-7--7--7--7--7--7--10-10-10-10-5--5--5--5--7--7--|-3--3--3--3--5--5--1--1--1--1--0--0--0--0--0--0--|


C#|-------------------------------------------------|-------------------------------------------------|
G#|-------------------------------------------------|-------------------------------------------------|
 E|-------------------------------------------------|-------------------------------------------------|
 B|-------------------------------------------------|-------------------------------------------------|
F#|-------------------------------------------------|-------------------------------------------------|
 B|-7--7--7--7--7--7--10-10-10-10-5--5--5--5--7--7--|-3--3--3--3--5--5--1--1--1--1--0--0--0--0--0--0--|


C#|-------------------------------------------------|-------------------------------------------------|
G#|-------------------------------------------------|-------------------------------------------------|
 E|-------------------------------------------------|-------------------------------------------------|
 B|-------------------------------------------------|-------------------------------------------------|
F#|-------------------------------------------------|-------------------------------------------------|
 B|-7--7--7--7--7--7--10-10-10-10-5--5--5--5--7--7--|-3--3--3--3--5--5--1--1--1--1--0--0--0--0--0--0--|


C#|-------------------------------------------------|-------------------------------------------------|
G#|-------------------------------------------------|-------------------------------------------------|
 E|-------------------------------------------------|-------------------------------------------------|
 B|-------------------------------------------------|-------------------------------------------------|
F#|-------------------------------------------------|-------------------------------------------------|
 B|-7--7--7--7--7--7--10-10-10-10-5--5--5--5--7--7--|-3--3--3--3--5--5--1--1--1--1--0--0--0--0--0--0--|


C#|-------------------------------------|-----------------------------------|---------------------------------|
G#|-------------------------------------|-----------------------------------|---------------------------------|
 E|-------------------------------------|-----------------------------------|---------------------------------|
 B|-------------------------------------|-----------------------------------|---------------------------------|
F#|-3---3---3--3---3--3---3---3--3---3--|-3---3---3--3---3--2---2-----------|-0---0---0---0---0---0---0---0---|
 B|-3---3---3--3---3--3---3---3--3---3--|-3---3---3--3---3--2---2---2---10--|-0---0---0---0---0---0---0---0---|


C#|---------------------------------|---------------------------------|---------------------------------|
G#|---------------------------------|---------------------------------|---------------------------------|
 E|---------------------------------|---------------------------------|---------------------------------|
 B|---------------------------------|---------------------------------|---------------------------------|
F#|-0---0---0---0---0---0---0---3---|-3---3---3---3---3---3---3---6---|-6---1---1---1---1---3---1---0---|
 B|-0---0---0---0---0---0---0---3---|-3---3---3---3---3---3---3---6---|-6---1---1---1---1---3---1---0---|


C#|---------------------------------|---------------------------------|---------------------------------|
G#|---------------------------------|---------------------------------|---------------------------------|
 E|---------------------------------|---------------------------------|---------------------------------|
 B|---------------------------------|---------------------------------|---------------------------------|
F#|-0---0---0---0---0---0---0---0---|-0---0---0---0---0---0---0---3---|-3---3---3---3---3---3---3---6---|
 B|-0---0---0---0---0---0---0---0---|-0---0---0---0---0---0---0---3---|-3---3---3---3---3---3---3---6---|


C#|---------------------------------|-------------------------------------------------|
G#|---------------------------------|-------------------------------------------------|
 E|---------------------------------|-------------------------------------------------|
 B|---------------------------------|-------------------------------------------------|
F#|-6---1---1---1---1---3---1---0---|-------------------------------------------------|
 B|-6---1---1---1---1---3---1---0---|-7--7--7--7--7--7--10-10-10-10-5--5--5--5--7--7--|


C#|-------------------------------------------------|-------------------------------------------------|
G#|-------------------------------------------------|-------------------------------------------------|
 E|-------------------------------------------------|-------------------------------------------------|
 B|-------------------------------------------------|-------------------------------------------------|
F#|-------------------------------------------------|-------------------------------------------------|
 B|-3--3--3--3--5--5--1--1--1--1--0--0--0--0--0--0--|-7--7--7--7--7--7--10-10-10-10-5--5--5--5--7--7--|


C#|--------------------------|-------------------------------------------------|-------------------------------------------------|
G#|--------------------------|-------------------------------------------------|-------------------------------------------------|
 E|--------------------------|-------------------------------------------------|-------------------------------------------------|
 B|--------------------------|-------------------------------------------------|-------------------------------------------------|
F#|-3----5----1----0---------|-------------------------------------------------|-------------------------------------------------|
 B|-3----5----1----0---------|-7--7--7--7--7--7--10-10-10-10-5--5--5--5--7--7--|-3--3--3--3--5--5--1--1--1--1--0--0--0--0--0--0--|


C#|-------------------------------------------------|-------------------------------------------------|
G#|-------------------------------------------------|-------------------------------------------------|
 E|-------------------------------------------------|-------------------------------------------------|
 B|-------------------------------------------------|-------------------------------------------------|
F#|-------------------------------------------------|-------------------------------------------------|
 B|-7--7--7--7--7--7--10-10-10-10-5--5--5--5--7--7--|-3--3--3--3--5--5--1--1--1--1--0--0--0--0--0--0--|


C#|-------------------------------------------------|-------------------------------------------------|
G#|-------------------------------------------------|-------------------------------------------------|
 E|-------------------------------------------------|-------------------------------------------------|
 B|-------------------------------------------------|-------------------------------------------------|
F#|-------------------------------------------------|-------------------------------------------------|
 B|-7--7--7--7--7--7--10-10-10-10-5--5--5--5--7--7--|-3--3--3--3--5--5--1--1--1--1--0--0--0--0--0--0--|


C#|-------------------------------------------------|-------------------------------------------------|
G#|-------------------------------------------------|-------------------------------------------------|
 E|-------------------------------------------------|-------------------------------------------------|
 B|-------------------------------------------------|-------------------------------------------------|
F#|-------------------------------------------------|-------------------------------------------------|
 B|-7--7--7--7--7--7--10-10-10-10-5--5--5--5--7--7--|-3--3--3--3--5--5--1--1--1--1--0--0--0--0--0--0--|


C#|-------------------------------------|-----------------------------------|---------------------------------|
G#|-------------------------------------|-----------------------------------|---------------------------------|
 E|-------------------------------------|-----------------------------------|---------------------------------|
 B|-------------------------------------|-----------------------------------|---------------------------------|
F#|-3---3---3--3---3--3---3---3--3---3--|-3---3---3--3---3--2---2-----------|-0---0---0---0---0---0---0---0---|
 B|-3---3---3--3---3--3---3---3--3---3--|-3---3---3--3---3--2---2---2---10--|-0---0---0---0---0---0---0---0---|


C#|---------------------------------|---------------------------------|---------------------------------|
G#|---------------------------------|---------------------------------|---------------------------------|
 E|---------------------------------|---------------------------------|---------------------------------|
 B|---------------------------------|---------------------------------|---------------------------------|
F#|-0---0---0---0---0---0---0---3---|-3---3---3---3---3---3---3---6---|-6---1---1---1---1---3---1---0---|
 B|-0---0---0---0---0---0---0---3---|-3---3---3---3---3---3---3---6---|-6---1---1---1---1---3---1---0---|


C#|---------------------------------|---------------------------------|---------------------------------|
G#|---------------------------------|---------------------------------|---------------------------------|
 E|---------------------------------|---------------------------------|---------------------------------|
 B|---------------------------------|---------------------------------|---------------------------------|
F#|-0---0---0---0---0---0---0---0---|-0---0---0---0---0---0---0---3---|-3---3---3---3---3---3---3---6---|
 B|-0---0---0---0---0---0---0---0---|-0---0---0---0---0---0---0---3---|-3---3---3---3---3---3---3---6---|


C#|---------------------------------|---------------------------------|---------------------------------|
G#|---------------------------------|---------------------------------|---------------------------------|
 E|---------------------------------|---------------------------------|---------------------------------|
 B|---------------------------------|---------------------------------|---------------------------------|
F#|-6---1---1---1---1---3---1---0---|-0---0---0---0---0---0---0---0---|-0---0---0---0---0---0---0---3---|
 B|-6---1---1---1---1---3---1---0---|-0---0---0---0---0---0---0---0---|-0---0---0---0---0---0---0---3---|


C#|---------------------------------|---------------------------------|---------------------------------|
G#|---------------------------------|---------------------------------|---------------------------------|
 E|---------------------------------|---------------------------------|---------------------------------|
 B|---------------------------------|---------------------------------|---------------------------------|
F#|-3---3---3---3---3---3---3---6---|-6---1---1---1---1---3---1---0---|-0---0---0---0---0---0---0---0---|
 B|-3---3---3---3---3---3---3---6---|-6---1---1---1---1---3---1---0---|-0---0---0---0---0---0---0---0---|


C#|---------------------------------|---------------------------------|---------------------------------|
G#|---------------------------------|---------------------------------|---------------------------------|
 E|---------------------------------|---------------------------------|---------------------------------|
 B|---------------------------------|---------------------------------|---------------------------------|
F#|-0---0---0---0---0---0---0---3---|-3---3---3---3---3---3---3---6---|-6---1---1---1---1---3---1---0---|
 B|-0---0---0---0---0---0---0---3---|-3---3---3---3---3---3---3---6---|-6---1---1---1---1---3---1---0---|


C#|-----------------------------|-----------------------------|---------------------------|
G#|-----------------------------|-----------------------------|---------------------------|
 E|-----------------------------|-----------------------------|---------------------------|
 B|-----------------------------|-----------------------------|----------------------3----|
F#|-----0----0----0---------0---|-0--------0----0----0--------|-----0---1---0---0---------|
 B|-----0----0----0---------0---|-0--------0----0----0--------|-----0---1---0---0---------|


C#|-----------------------------|-----------------------------|---------------------------|
G#|-----------------------------|-----------------------------|---------------------------|
 E|-----------------------------|-----------------------------|---------------------------|
 B|-3---------------------------|-----------------------------|---------------------------|
F#|-----0----0----0---------0---|-0--------0----0----0--------|-----0---1---0---0---------|
 B|-----0----0----0---------0---|-0--------0----0----0--------|-----0---1---0---0----3----|


C#|-----------------------------|-----------------------------|---------------------------|
G#|-----------------------------|-----------------------------|---------------------------|
 E|-----------------------------|-----------------------------|---------------------------|
 B|-----------------------------|-----------------------------|----------------------3----|
F#|-----0----0----0---------0---|-0--------0----0----0--------|-----0---1---0---0---------|
 B|-----0----0----0---------0---|-0--------0----0----0--------|-----0---1---0---0---------|


C#|-----------------------------|-----------------------------|---------------------------|
G#|-----------------------------|-----------------------------|---------------------------|
 E|-----------------------------|-----------------------------|---------------------------|
 B|-3---------------------------|-----------------------------|---------------------------|
F#|-----0----0----0---------0---|-0--------0----0----0--------|-----0---1---0---0----3----|
 B|-----0----0----0---------0---|-0--------0----0----0--------|-----0---1---0---0----3----|


C#|-----------------------------|-----------------------------|---------------------------|
G#|-----------------------------|-----------------------------|---------------------------|
 E|-----------------------------|-----------------------------|---------------------------|
 B|-----------------------------|-----------------------------|----------------------3----|
F#|-----1----1----1---------1---|-1--------1----1----1--------|-----1---3---1---1---------|
 B|-----1----1----1---------1---|-1--------1----1----1--------|-----1---3---1---1---------|


C#|-----------------------------|-----------------------------|---------------------------|
G#|-----------------------------|-----------------------------|---------------------------|
 E|-----------------------------|-----------------------------|---------------------------|
 B|-3---------------------------|-----------------------------|---------------------------|
F#|-----1----1----1---------1---|-1--------1----1----1--------|-----1---3---1---1----3----|
 B|-----1----1----1---------1---|-1--------1----1----1--------|-----1---3---1---1----3----|


C#|-----------------------------|-----------------------------|---------------------------|
G#|-----------------------------|-----------------------------|---------------------------|
 E|-----------------------------|-----------------------------|---------------------------|
 B|-----------------------------|-----------------------------|----------------------3----|
F#|-----1----1----1---------1---|-1--------1----1----1--------|-----1---3---1---1---------|
 B|-----1----1----1---------1---|-1--------1----1----1--------|-----1---3---1---1---------|


C#|-----------------------------|-----------------------------|---------------------------|
G#|-----------------------------|-----------------------------|---------------------------|
 E|-----------------------------|-----------------------------|---------------------------|
 B|-3---------------------------|-----------------------------|---------------------------|
F#|-----1----1----1---------1---|-1--------1----1----1--------|-----1---3---1---1----3----|
 B|-----1----1----1---------1---|-1--------1----1----1--------|-----1---3---1---1----3----|


C#|-------------------------------------|-----------------------------------|-------------------------------------------------|
G#|-------------------------------------|-----------------------------------|-------------------------------------------------|
 E|-------------------------------------|-----------------------------------|-------------------------------------------------|
 B|-------------------------------------|-----------------------------------|-------------------------------------------------|
F#|-3---3---3--3---3--3---3---3--3---3--|-3---3---3--3---3--2---2---2---2---|-------------------------------------------------|
 B|-3---3---3--3---3--3---3---3--3---3--|-3---3---3--3---3--2---2---2---2---|-0--0--0--3--3--3--1--1--1--4--4--4--1--1--6--6--|


C#|-------------------------------------------------|--------|---------------------------------|
G#|-------------------------------------------------|--------|---------------------------------|
 E|-------------------------------------------------|--------|---------------------------------|
 B|-------------------------------------------------|--------|---------------------------------|
F#|-------------------------------------------------|--------|-0---0---0---0---0---0---0---0---|
 B|-0--0--0--6--6--6--9--9--9--5--5--5--0--0--6--6--|--------|-0---0---0---0---0---0---0---0---|


C#|---------------------------------|---------------------------------|---------------------------------|
G#|---------------------------------|---------------------------------|---------------------------------|
 E|---------------------------------|---------------------------------|---------------------------------|
 B|---------------------------------|---------------------------------|---------------------------------|
F#|-0---0---0---0---0---0---0---3---|-3---3---3---3---3---3---3---6---|-6---1---1---1---1---3---1---0---|
 B|-0---0---0---0---0---0---0---3---|-3---3---3---3---3---3---3---6---|-6---1---1---1---1---3---1---0---|


C#|---------------------------------|---------------------------------|---------------------------------|
G#|---------------------------------|---------------------------------|---------------------------------|
 E|---------------------------------|---------------------------------|---------------------------------|
 B|---------------------------------|---------------------------------|---------------------------------|
F#|-0---0---0---0---0---0---0---0---|-0---0---0---0---0---0---0---3---|-3---3---3---3---3---3---3---6---|
 B|-0---0---0---0---0---0---0---0---|-0---0---0---0---0---0---0---3---|-3---3---3---3---3---3---3---6---|


C#|---------------------------------|---------------------------------|---------------------------------|
G#|---------------------------------|---------------------------------|---------------------------------|
 E|---------------------------------|---------------------------------|---------------------------------|
 B|---------------------------------|---------------------------------|---------------------------------|
F#|-6---1---1---1---1---3---1---0---|-0---0---0---0---0---0---0---0---|-0---0---0---0---0---0---0---3---|
 B|-6---1---1---1---1---3---1---0---|-0---0---0---0---0---0---0---0---|-0---0---0---0---0---0---0---3---|


C#|---------------------------------|---------------------------------|---------------------------------|
G#|---------------------------------|---------------------------------|---------------------------------|
 E|---------------------------------|---------------------------------|---------------------------------|
 B|---------------------------------|---------------------------------|---------------------------------|
F#|-3---3---3---3---3---3---3---6---|-6---1---1---1---1---3---1---0---|-0---0---0---0---0---0---0---0---|
 B|-3---3---3---3---3---3---3---6---|-6---1---1---1---1---3---1---0---|-0---0---0---0---0---0---0---0---|


C#|---------------------------------|---------------------------------|---------------------------------|
G#|---------------------------------|---------------------------------|---------------------------------|
 E|---------------------------------|---------------------------------|---------------------------------|
 B|---------------------------------|---------------------------------|---------------------------------|
F#|-0---0---0---0---0---0---0---3---|-3---3---3---3---3---3---3---6---|-6---1---1---1---1---3---1---0---|
 B|-0---0---0---0---0---0---0---3---|-3---3---3---3---3---3---3---6---|-6---1---1---1---1---3---1---0---|


C#|-------------------------------|-------------------------------|---------------------------|
G#|-------------------------------|-------------------------------|---------------------------|
 E|-------------------------------|-------------------------------|---------------------------|
 B|-------------------------------|-------------------------------|----------------------3----|
F#|-----0----0----0---------0--0--|-0--0-------0----0----0--------|-----0---1---0---0---------|
 B|-----0----0----0---------0--0--|-0--0-------0----0----0--------|-----0---1---0---0---------|


C#|-------------------------------|-------------------------------|-----------------------------------------|
G#|-------------------------------|-------------------------------|-----------------------------------------|
 E|-------------------------------|-------------------------------|-----------------------------------------|
 B|-3-----------------------------|-------------------------------|-----------------------------------------|
F#|-----0----0----0---------0--0--|-0--0-------0----0----0--------|-----0---1---0---6---6---6---3---3---3---|
 B|-----0----0----0---------0--0--|-0--0-------0----0----0--------|-----0---1---0---6---6---6---3---3---3---|


C#|-----------------------------|-----------------------------------|--------------------------------|
G#|-----------------------------|-----------------------------------|--------------------------------|
 E|-----------------------------|-----------------------------------|--------------------------------|
 B|-----------------------------|-----------------------------------|--------------------------------|
F#|-1----0----0----0----0---0---|----0----0----0----0--0--0--0--0---|-----0----0----0----0---0---0---|
 B|-1----0----0----0----0---0---|----0----0----0----0--0--0--0--0---|-----0----0----0----0---0---0---|


C#|---------------------------|-----------------------------------|--------------------------------|
G#|---------------------------|-----------------------------------|--------------------------------|
 E|---------------------------|-----------------------------------|--------------------------------|
 B|--------------3----3-------|-----------------------------------|--------------------------------|
F#|-1---0---0-------------0---|----0----0----0----0--0--0--0--0---|-----0----0----0----0---0---0---|
 B|-1---0---0-------------0---|----0----0----0----0--0--0--0--0---|-----0----0----0----0---0---0---|


C#|---------------------------|-----------------------------------|--------------------------------|
G#|---------------------------|-----------------------------------|--------------------------------|
 E|---------------------------|-----------------------------------|--------------------------------|
 B|---------------------------|-----------------------------------|--------------------------------|
F#|-1---0---0-------------0---|----0----0---------0--0--0--0------|-----0----0----0------------0---|
 B|-1---0---0----3--------0---|----0----0---------0--0--0--0------|-----0----0----0------------0---|


C#|---------------------------|-----------------------------------|--------------------------------|
G#|---------------------------|-----------------------------------|--------------------------------|
 E|---------------------------|-----------------------------------|--------------------------------|
 B|--------------3----3-------|-----------------------------------|--------------------------------|
F#|-1---0---0-------------0---|----0----0---------0--0--0--0------|-----0----0----0------------0---|
 B|-1---0---0-------------0---|----0----0---------0--0--0--0------|-----0----0----0------------0---|


C#|------------------------|
G#|------------------------|
 E|------------------------|
 B|------------------------|
F#|-1---0---0--------------|
 B|-1---0---0----3---------|





Track 2: Untitled

C#|--------|------------|------------|----------------|--------|------------|------------|
G#|--------|------------|------------|----------------|--------|------------|------------|
 E|--------|------------|------------|----------------|--------|------------|------------|
 B|--------|------------|------------|----------------|--------|------------|------------|
F#|-5------|-5------8---|-8------11--|-11--6------5---|-5------|-5------8---|-8------11--|
 B|--------|------------|------------|----------------|--------|------------|------------|


C#|------------|--------|--------|--------|--------|--------|--------|--------|--------|
G#|------------|--------|--------|--------|--------|--------|--------|--------|--------|
 E|------------|--------|--------|--------|--------|--------|--------|--------|--------|
 B|------------|--------|--------|--------|--------|--------|--------|--------|--------|
F#|-11--6------|--------|--------|--------|--------|--------|--------|--------|--------|
 B|------------|--------|--------|--------|--------|--------|--------|--------|--------|


C#|--------|--------|--------|--------|--------|--------|--------|--------|--------|
G#|--------|--------|--------|--------|--------|--------|--------|--------|--------|
 E|--------|--------|--------|--------|--------|--------|--------|--------|--------|
 B|--------|--------|--------|--------|--------|--------|--------|--------|--------|
F#|--------|--------|--------|--------|--------|--------|--------|--------|--------|
 B|--------|--------|--------|--------|--------|--------|--------|--------|--------|


C#|--------|--------|--------|--------|--------|--------|--------|--------|--------|
G#|--------|--------|--------|--------|--------|--------|--------|--------|--------|
 E|--------|--------|--------|--------|--------|--------|--------|--------|--------|
 B|--------|--------|--------|--------|--------|--------|--------|--------|--------|
F#|--------|--------|--------|--------|--------|--------|--------|--------|--------|
 B|--------|--------|--------|--------|--------|--------|--------|--------|--------|


C#|--------|--------|--------|--------|--------|--------|--------|--------|--------|
G#|--------|--------|--------|--------|--------|--------|--------|--------|--------|
 E|--------|--------|--------|--------|--------|--------|--------|--------|--------|
 B|--------|--------|--------|--------|--------|--------|--------|--------|--------|
F#|--------|--------|--------|--------|--------|--------|--------|--------|--------|
 B|--------|--------|--------|--------|--------|--------|--------|--------|--------|


C#|--------|--------|--------|--------|--------|--------|--------|--------|--------|
G#|--------|--------|--------|--------|--------|--------|--------|--------|--------|
 E|--------|--------|--------|--------|--------|--------|--------|--------|--------|
 B|--------|--------|--------|--------|--------|--------|--------|--------|--------|
F#|--------|--------|--------|--------|--------|--------|--------|--------|--------|
 B|--------|--------|--------|--------|--------|--------|--------|--------|--------|


C#|--------|--------|--------|--------|--------|--------|--------|--------|--------|
G#|--------|--------|--------|--------|--------|--------|--------|--------|--------|
 E|--------|--------|--------|--------|--------|--------|--------|--------|--------|
 B|--------|--------|--------|--------|--------|--------|--------|--------|--------|
F#|--------|--------|--------|--------|--------|--------|--------|--------|--------|
 B|--------|--------|--------|--------|--------|--------|--------|--------|--------|


C#|--------|--------|--------|--------|--------|--------|--------|--------|--------|
G#|--------|--------|--------|--------|--------|--------|--------|--------|--------|
 E|--------|--------|--------|--------|--------|--------|--------|--------|--------|
 B|--------|--------|--------|--------|--------|--------|--------|--------|--------|
F#|--------|--------|--------|--------|--------|--------|--------|--------|--------|
 B|--------|--------|--------|--------|--------|--------|--------|--------|--------|


C#|--------|--------|--------|--------|--------|--------|--------|--------|--------|
G#|--------|--------|--------|--------|--------|--------|--------|--------|--------|
 E|--------|--------|--------|--------|--------|--------|--------|--------|--------|
 B|--------|--------|--------|--------|--------|--------|--------|--------|--------|
F#|--------|--------|--------|--------|--------|--------|--------|--------|--------|
 B|--------|--------|--------|--------|--------|--------|--------|--------|--------|


C#|--------|--------|--------|--------|--------|--------|--------|--------|--------|
G#|--------|--------|--------|--------|--------|--------|--------|--------|--------|
 E|--------|--------|--------|--------|--------|--------|--------|--------|--------|
 B|--------|--------|--------|--------|--------|--------|--------|--------|--------|
F#|--------|--------|--------|--------|--------|--------|--------|--------|--------|
 B|--------|--------|--------|--------|--------|--------|--------|--------|--------|


C#|--------|--------|--------|--------|--------|--------|--------|--------|--------|
G#|--------|--------|--------|--------|--------|--------|--------|--------|--------|
 E|--------|--------|--------|--------|--------|--------|--------|--------|--------|
 B|--------|--------|--------|--------|--------|--------|--------|--------|--------|
F#|--------|--------|--------|--------|--------|--------|--------|--------|--------|
 B|--------|--------|--------|--------|--------|--------|--------|--------|--------|


C#|--------|--------|--------|--------|--------|--------|--------|--------|--------|
G#|--------|--------|--------|--------|--------|--------|--------|--------|--------|
 E|--------|--------|--------|--------|--------|--------|--------|--------|--------|
 B|--------|--------|--------|--------|--------|--------|--------|--------|--------|
F#|--------|--------|--------|--------|--------|--------|--------|--------|--------|
 B|--------|--------|--------|--------|--------|--------|--------|--------|--------|


C#|--------|--------|--------|--------|--------|--------|--------|--------|--------|
G#|--------|--------|--------|--------|--------|--------|--------|--------|--------|
 E|--------|--------|--------|--------|--------|--------|--------|--------|--------|
 B|--------|--------|--------|--------|--------|--------|--------|--------|--------|
F#|--------|--------|--------|--------|--------|--------|--------|--------|--------|
 B|--------|--------|--------|--------|--------|--------|--------|--------|--------|


C#|--------|--------|--------|--------|--------|--------|--------|--------|--------|
G#|--------|--------|--------|--------|--------|--------|--------|--------|--------|
 E|--------|--------|--------|--------|--------|--------|--------|--------|--------|
 B|--------|--------|--------|--------|--------|--------|--------|--------|--------|
F#|--------|--------|--------|--------|--------|--------|--------|--------|--------|
 B|--------|--------|--------|--------|--------|--------|--------|--------|--------|


C#|--------|--------|--------|--------|--------|--------|--------|--------|--------|
G#|--------|--------|--------|--------|--------|--------|--------|--------|--------|
 E|--------|--------|--------|--------|--------|--------|--------|--------|--------|
 B|--------|--------|--------|--------|--------|--------|--------|--------|--------|
F#|--------|--------|--------|--------|--------|--------|--------|--------|--------|
 B|--------|--------|--------|--------|--------|--------|--------|--------|--------|


C#|--------|--------|--------|--------|--------|--------|--------|--------|--------|
G#|--------|--------|--------|--------|--------|--------|--------|--------|--------|
 E|--------|--------|--------|--------|--------|--------|--------|--------|--------|
 B|--------|--------|--------|--------|--------|--------|--------|--------|--------|
F#|--------|--------|--------|--------|--------|--------|--------|--------|--------|
 B|--------|--------|--------|--------|--------|--------|--------|--------|--------|


C#|--------|--------|--------|--------|--------|--------|
G#|--------|--------|--------|--------|--------|--------|
 E|--------|--------|--------|--------|--------|--------|
 B|--------|--------|--------|--------|--------|--------|
F#|--------|--------|--------|--------|--------|--------|
 B|--------|--------|--------|--------|--------|--------|





Track 3: Untitled

C#|--------|--------|--------|--------|--------|--------|--------|--------|--------|
G#|--------|--------|--------|--------|--------|--------|--------|--------|--------|
 E|--------|--------|--------|--------|--------|--------|--------|--------|--------|
 B|--------|--------|--------|--------|--------|--------|--------|--------|--------|
F#|--------|--------|--------|--------|--------|--------|--------|--------|--------|
 B|--------|--------|--------|--------|--------|--------|--------|--------|--------|


C#|--------|--------|--------|--------|--------|--------|--------|-----------------------------|
G#|--------|--------|--------|--------|--------|--------|--------|-----------------------------|
 E|--------|--------|--------|--------|--------|--------|--------|-----------------------------|
 B|--------|--------|--------|--------|--------|--------|--------|-----------------------------|
F#|--------|--------|--------|--------|--------|--------|--------|-----0----0----0---------0---|
 B|--------|--------|--------|--------|--------|--------|--------|-----0----0----0---------0---|


C#|-----------------------------|---------------------------|-----------------------------|
G#|-----------------------------|---------------------------|-----------------------------|
 E|-----------------------------|---------------------------|-----------------------------|
 B|-----------------------------|---------------------------|-----------------------------|
F#|-0--------0----0----0--------|-----0---1---0---0----3----|-3---0----0----0---------0---|
 B|-0--------0----0----0--------|-----0---1---0---0---------|-----0----0----0---------0---|


C#|-----------------------------|---------------------------|-----------------------------|
G#|-----------------------------|---------------------------|-----------------------------|
 E|-----------------------------|---------------------------|-----------------------------|
 B|-----------------------------|---------------------------|-----------------------------|
F#|-0--------0----0----0--------|-----0---1---0---0----3----|-----0----0----0---------0---|
 B|-0--------0----0----0--------|-----0---1---0---0---------|-----0----0----0---------0---|


C#|-----------------------------|---------------------------|-----------------------------|
G#|-----------------------------|---------------------------|-----------------------------|
 E|-----------------------------|---------------------------|-----------------------------|
 B|-----------------------------|---------------------------|-----------------------------|
F#|-0--------0----0----0--------|-----0---1---0---0----3----|-3---0----0----0---------0---|
 B|-0--------0----0----0--------|-----0---1---0---0---------|-----0----0----0---------0---|


C#|-----------------------------|---------------------------|--------|--------|--------|
G#|-----------------------------|---------------------------|--------|--------|--------|
 E|-----------------------------|---------------------------|--------|--------|--------|
 B|-----------------------------|---------------------------|--------|--------|--------|
F#|-0--------0----0----0--------|-----0---1---0---0----3----|--------|--------|--------|
 B|-0--------0----0----0--------|-----0---1---0---0---------|--------|--------|--------|


C#|--------|-------------------------------------------------|-------------------------------------------------|
G#|--------|-------------------------------------------------|-------------------------------------------------|
 E|--------|-------------------------------------------------|-------------------------------------------------|
 B|--------|-------------------------------------------------|-------------------------------------------------|
F#|--------|-7--7--7--7--7--7--------------------------------|-------------------------------------------------|
 B|--------|-------------------10-10-10-10-5--5--5--5--7--7--|-3--3--3--3--5--5--1--1--1--1--0--0--0--0--0--0--|


C#|-------------------------------------------------|-------------------------------------------------|
G#|-------------------------------------------------|-------------------------------------------------|
 E|-------------------------------------------------|-------------------------------------------------|
 B|-------------------------------------------------|-------------------------------------------------|
F#|-7--7--7--7--7--7--------------------------------|-------------------------------------------------|
 B|-------------------10-10-10-10-5--5--5--5--7--7--|-3--3--3--3--5--5--1--1--1--1--0--0--0--0--0--0--|


C#|-------------------------------------------------|-------------------------------------------------|
G#|-------------------------------------------------|-------------------------------------------------|
 E|-------------------------------------------------|-------------------------------------------------|
 B|-7--7--7-----------------------------------------|-------------------------------------------------|
F#|----------7--7--7--8--8--8--10-10-10-10-10-7--7--|-8--8--8--10-10-10-8--8--8--7--7--7--7--7--7--7--|
 B|-------------------------------------------------|-------------------------------------------------|


C#|-------------------------------------------------|-------------------------------------------------|
G#|-------------------------------------------------|-------------------------------------------------|
 E|-------------------------------------------------|-------------------------------------------------|
 B|-7--7--7-----------------------------------------|-------------------------------------------------|
F#|----------7--7--7--8--8--8--10-10-10-10-10-7--7--|-8--8--8--10-10-10-8--8--8--7--7--7--7--7--7--7--|
 B|-------------------------------------------------|-------------------------------------------------|


C#|-------------------------------------------------|-------------------------------------------------|
G#|-------------------------------------------------|-------------------------------------------------|
 E|-------------------------------------------------|-------------------------------------------------|
 B|-7--7--7-----------------------------------------|-------------------------------------------------|
F#|----------7--7--7--8--8--8--10-10-10-10-10-7--7--|-8--8--8--10-10-10-8--8--8--7--7--7--7--7--7--7--|
 B|-------------------------------------------------|-------------------------------------------------|


C#|-------------------------------------------------|-------------------------------------------------|
G#|-------------------------------------------------|-------------------------------------------------|
 E|-------------------------------------------------|-------------------------------------------------|
 B|-7--7--7-----------------------------------------|-------------------------------------------------|
F#|----------7--7--7--8--8--8--10-10-10-10-10-7--7--|-8--8--8--10-10-10-8--8--8--7--7--7--7--7--7--7--|
 B|-------------------------------------------------|-------------------------------------------------|


C#|--------|--------|--------|--------|--------|--------|--------|--------|--------|
G#|--------|--------|--------|--------|--------|--------|--------|--------|--------|
 E|--------|--------|--------|--------|--------|--------|--------|--------|--------|
 B|--------|--------|--------|--------|--------|--------|--------|--------|--------|
F#|--------|--------|--------|--------|--------|--------|--------|--------|--------|
 B|--------|--------|--------|--------|--------|--------|--------|--------|--------|


C#|--------|-------------------------------------------------|-------------------------------------------------|
G#|--------|-------------------------------------------------|-------------------------------------------------|
 E|--------|-------------------------------------------------|-------------------------------------------------|
 B|--------|-------------------------------------------------|-------------------------------------------------|
F#|--------|-7--7--7--7--7--7--------------------------------|-------------------------------------------------|
 B|--------|-------------------10-10-10-10-5--5--5--5--7--7--|-3--3--3--3--5--5--1--1--1--1--0--0--0--0--0--0--|


C#|-------------------------------------|--------------------------|-------------------------------------------------|
G#|-------------------------------------|--------------------------|-------------------------------------------------|
 E|-------------------------------------|--------------------------|-------------------------------------------------|
 B|-------------------------------------|--------------------------|-------------------------------------------------|
F#|-7--7--7--7--7--7--------------10----|-3----5----1----0---------|-7--7--7--7--7--7--------------------------------|
 B|-------------------10-10-10-10-10----|-3----5----1----0---------|-------------------10-10-10-10-5--5--5--5--7--7--|


C#|-------------------------------------------------|-------------------------------------------------|
G#|-------------------------------------------------|-------------------------------------------------|
 E|-------------------------------------------------|-------------------------------------------------|
 B|-------------------------------------------------|-------------------------------------------------|
F#|-------------------------------------------------|-7--7--7--7--7--7--------------------------------|
 B|-3--3--3--3--5--5--1--1--1--1--0--0--0--0--0--0--|-------------------10-10-10-10-5--5--5--5--7--7--|


C#|-------------------------------------------------|-------------------------------------------------|
G#|-------------------------------------------------|-------------------------------------------------|
 E|-------------------------------------------------|-------------------------------------------------|
 B|-------------------------------------------------|-7--7--7-----------------------------------------|
F#|-------------------------------------------------|----------7--7--7--8--8--8--10-10-10-10-10-7--7--|
 B|-3--3--3--3--5--5--1--1--1--1--0--0--0--0--0--0--|-------------------------------------------------|


C#|-------------------------------------------------|-------------------------------------------------|
G#|-------------------------------------------------|-------------------------------------------------|
 E|-------------------------------------------------|-------------------------------------------------|
 B|-------------------------------------------------|-7--7--7-----------------------------------------|
F#|-8--8--8--10-10-10-8--8--8--7--7--7--7--7--7--7--|----------7--7--7--8--8--8--10-10-10-10-10-7--7--|
 B|-------------------------------------------------|-------------------------------------------------|


C#|-------------------------------------------------|--------|--------|--------|--------|
G#|-------------------------------------------------|--------|--------|--------|--------|
 E|-------------------------------------------------|--------|--------|--------|--------|
 B|-------------------------------------------------|--------|--------|--------|--------|
F#|-8--8--8--10-10-10-8--8--8--7--7--7--7--7--7--7--|--------|--------|--------|--------|
 B|-------------------------------------------------|--------|--------|--------|--------|


C#|--------|--------|--------|--------|--------|--------|---------------------------------|
G#|--------|--------|--------|--------|--------|--------|---------------------------------|
 E|--------|--------|--------|--------|--------|--------|---------3---5---5---7---7---10--|
 B|--------|--------|--------|--------|--------|--------|---------3---5---5---7---7---9---|
F#|--------|--------|--------|--------|--------|--------|-0---0---1---3---3---5---5---8---|
 B|--------|--------|--------|--------|--------|--------|-0---0---------------------------|


C#|---------------------------|---------------------------------|---------------------------------|
G#|---------------------------|---------------------------------|---------------------------------|
 E|-10--12--12--15--14--------|---------------------------------|---------------------------------|
 B|-9---12--12--15--14--------|---------------------------------|---------------------------------|
F#|-8---10--10--13--12----3---|-3---3---3---3---3---3---3---6---|-6---1---1---1---1---3---1---0---|
 B|-----------------------3---|-3---3---3---3---3---3---3---6---|-6---1---1---1---1---3---1---0---|


C#|---------------------------------|---------------------------|---------------------------------|
G#|---------------------------------|---------------------------|---------------------------------|
 E|---------3---5---5---7---7---10--|-10--12--12--15--14--------|---------------------------------|
 B|---------3---5---5---7---7---9---|-9---12--12--15--14--------|---------------------------------|
F#|-0---0---1---3---3---5---5---8---|-8---10--10--13--12----3---|-3---3---3---3---3---3---3---6---|
 B|-0---0---------------------------|-----------------------3---|-3---3---3---3---3---3---3---6---|


C#|---------------------------------|-----------------------------|-----------------------------|
G#|---------------------------------|-----------------------------|-----------------------------|
 E|---------------------------------|-----------------------------|-----------------------------|
 B|---------------------------------|-----------------------------|-----------------------------|
F#|-6---1---1---1---1---3---1---0---|-----0----0----0---------0---|-0--------0----0----0--------|
 B|-6---1---1---1---1---3---1---0---|-----0----0----0---------0---|-0--------0----0----0--------|


C#|---------------------------|-----------------------------|-----------------------------|
G#|---------------------------|-----------------------------|-----------------------------|
 E|---------------------------|-----------------------------|-----------------------------|
 B|---------------------------|-----------------------------|-----------------------------|
F#|-----0---1---0---0----3----|-3---0----0----0---------0---|-0--------0----0----0--------|
 B|-----0---1---0---0---------|-----0----0----0---------0---|-0--------0----0----0--------|


C#|---------------------------|-----------------------------|-----------------------------|
G#|---------------------------|-----------------------------|-----------------------------|
 E|---------------------------|-----------------------------|-----------------------------|
 B|---------------------------|-----------------------------|-----------------------------|
F#|-----0---1---0---0----3----|-----0----0----0---------0---|-0--------0----0----0--------|
 B|-----0---1---0---0---------|-----0----0----0---------0---|-0--------0----0----0--------|


C#|---------------------------|-----------------------------|-----------------------------|
G#|---------------------------|-----------------------------|-----------------------------|
 E|---------------------------|-----------------------------|-----------------------------|
 B|---------------------------|-----------------------------|-----------------------------|
F#|-----0---1---0---0----3----|-3---0----0----0---------0---|-0--------0----0----0--------|
 B|-----0---1---0---0---------|-----0----0----0---------0---|-0--------0----0----0--------|


C#|---------------------------|-----------------------------|-----------------------------|
G#|---------------------------|-----------------------------|-----------------------------|
 E|---------------------------|-----------------------------|-----------------------------|
 B|---------------------------|-----------------------------|-----------------------------|
F#|-----0---1---0---0----3----|-----1----1----1---------1---|-1--------1----1----1--------|
 B|-----0---1---0---0----3----|-----1----1----1---------1---|-1--------1----1----1--------|


C#|---------------------------|-----------------------------|-----------------------------|
G#|---------------------------|-----------------------------|-----------------------------|
 E|---------------------------|-----------------------------|-----------------------------|
 B|---------------------------|-----------------------------|-----------------------------|
F#|-----1---3---1---1----3----|-3---1----1----1---------1---|-1--------1----1----1--------|
 B|-----1---3---1---1---------|-----1----1----1---------1---|-1--------1----1----1--------|


C#|---------------------------|-----------------------------|-----------------------------|
G#|---------------------------|-----------------------------|-----------------------------|
 E|---------------------------|-----------------------------|-----------------------------|
 B|---------------------------|-----------------------------|-----------------------------|
F#|-----1---3---1---1----3----|-----1----1----1---------1---|-1--------1----1----1--------|
 B|-----1---3---1---1----3----|-----1----1----1---------1---|-1--------1----1----1--------|


C#|---------------------------|-----------------------------|-----------------------------|
G#|---------------------------|-----------------------------|-----------------------------|
 E|---------------------------|-----------------------------|-----------------------------|
 B|---------------------------|-----------------------------|-----------------------------|
F#|-----1---3---1---1----3----|-3---1----1----1---------1---|-1--------1----1----1--------|
 B|-----1---3---1---1---------|-----1----1----1---------1---|-1--------1----1----1--------|


C#|---------------------------|--------|--------|-------------------------------------------------|
G#|---------------------------|--------|--------|-------------------------------------------------|
 E|---------------------------|--------|--------|-------------------------------------------------|
 B|---------------------------|--------|--------|-------------------------------------------------|
F#|-----1---3---1---1----3----|--------|--------|-0--0--0--3--3--3--1--1--1--4--4--4--1--1--6--6--|
 B|-----1---3---1---1----3----|--------|--------|-------------------------------------------------|


C#|-------------------------------------------------|--------|--------|--------|--------|
G#|-------------------------------------------------|--------|--------|--------|--------|
 E|-------------------------------------------------|--------|--------|--------|--------|
 B|-------------------------------------------------|--------|--------|--------|--------|
F#|-0--0--0--6--6--6--9--9--9--5--5--5--0--0--6--6--|--------|--------|--------|--------|
 B|-------------------------------------------------|--------|--------|--------|--------|


C#|--------|--------|--------|--------|--------|---------------------------------|
G#|--------|--------|--------|--------|--------|---------------------------------|
 E|--------|--------|--------|--------|--------|---------3---5---5---7---7---10--|
 B|--------|--------|--------|--------|--------|---------3---5---5---7---7---9---|
F#|--------|--------|--------|--------|--------|-0---0---1---3---3---5---5---8---|
 B|--------|--------|--------|--------|--------|-0---0---------------------------|


C#|---------------------------|---------------------------------|---------------------------------|
G#|---------------------------|---------------------------------|---------------------------------|
 E|-10--12--12--15--14--------|---------------------------------|---------------------------------|
 B|-9---12--12--15--14--------|---------------------------------|---------------------------------|
F#|-8---10--10--13--12----3---|-3---3---3---3---3---3---3---6---|-6---1---1---1---1---3---1---0---|
 B|-----------------------3---|-3---3---3---3---3---3---3---6---|-6---1---1---1---1---3---1---0---|


C#|---------------------------------|---------------------------|---------------------------------|
G#|---------------------------------|---------------------------|---------------------------------|
 E|---------3---5---5---7---7---10--|-10--12--12--15--14--------|---------------------------------|
 B|---------3---5---5---7---7---9---|-9---12--12--15--14--------|---------------------------------|
F#|-0---0---1---3---3---5---5---8---|-8---10--10--13--12----3---|-3---3---3---3---3---3---3---6---|
 B|-0---0---------------------------|-----------------------3---|-3---3---3---3---3---3---3---6---|


C#|---------------------------------|-------------------------------|-------------------------------|
G#|---------------------------------|-------------------------------|-------------------------------|
 E|---------------------------------|-------------------------------|-------------------------------|
 B|---------------------------------|-------------------------------|-------------------------------|
F#|-6---1---1---1---1---3---1---0---|-----0----0----0---------0--0--|-0--0-------0----0----0--------|
 B|-6---1---1---1---1---3---1---0---|-----0----0----0---------0--0--|-0--0-------0----0----0--------|


C#|---------------------------|-------------------------------|-------------------------------|
G#|---------------------------|-------------------------------|-------------------------------|
 E|---------------------------|-------------------------------|-------------------------------|
 B|---------------------------|-------------------------------|-------------------------------|
F#|-----0---1---0---0----3----|-3---0----0----0---------0--0--|-0--0-------0----0----0--------|
 B|-----0---1---0---0---------|-----0----0----0---------0--0--|-0--0-------0----0----0--------|


C#|-----------------------------------------|-----------------------------|-----------------------------------|
G#|-----------------------------------------|-----------------------------|-----------------------------------|
 E|-----------------------------------------|-----------------------------|-----------------------------------|
 B|-----------------------------------------|-----------------------------|-----------------------------------|
F#|-----0---1---0---6---6---6---3---3---3---|-1----0----0----0----0---0---|----0----0----0----0--0--0--0--0---|
 B|-----0---1---0---6---6---6---3---3---3---|-1----0----0----0----0---0---|----0----0----0----0--0--0--0--0---|


C#|--------------------------------|---------------------------|-----------------------------------|
G#|--------------------------------|---------------------------|-----------------------------------|
 E|--------------------------------|---------------------------|-----------------------------------|
 B|--------------------------------|---------------------------|-----------------------------------|
F#|-----0----0----0----0---0---0---|-1---0---0----3----3---0---|----0----0----0----0--0--0--0--0---|
 B|-----0----0----0----0---0---0---|-1---0---0-------------0---|----0----0----0----0--0--0--0--0---|


C#|--------------------------------|---------------------------|-----------------------------------|
G#|--------------------------------|---------------------------|-----------------------------------|
 E|--------------------------------|---------------------------|-----------------------------------|
 B|--------------------------------|---------------------------|-----------------------------------|
F#|-----0----0----0----0---0---0---|-1---0---0----3--------0---|----0----0---------0--0--0--0------|
 B|-----0----0----0----0---0---0---|-1---0---0-------------0---|----0----0---------0--0--0--0------|


C#|--------------------------------|---------------------------|-----------------------------------|
G#|--------------------------------|---------------------------|-----------------------------------|
 E|--------------------------------|---------------------------|-----------------------------------|
 B|--------------------------------|---------------------------|-----------------------------------|
F#|-----0----0----0------------0---|-1---0---0----3----3---0---|----0----0---------0--0--0--0------|
 B|-----0----0----0------------0---|-1---0---0-------------0---|----0----0---------0--0--0--0------|


C#|--------------------------------|------------------------|
G#|--------------------------------|------------------------|
 E|--------------------------------|------------------------|
 B|--------------------------------|------------------------|
F#|-----0----0----0------------0---|-1---0---0----3---------|
 B|-----0----0----0------------0---|-1---0---0--------------|





Track 4: Untitled

G|--------|--------|--------|--------|--------|--------|--------|--------|--------|
D|--------|--------|--------|--------|--------|--------|--------|--------|--------|
A|--------|--------|--------|--------|--------|--------|--------|--------|--------|
E|--------|--------|--------|--------|--------|--------|--------|--------|--------|


G|--------|--------|--------|--------|--------|--------|--------|--------|--------|
D|--------|--------|--------|--------|--------|--------|--------|--------|--------|
A|--------|--------|--------|--------|--------|--------|--------|--------|--------|
E|--------|--------|--------|--------|--------|--------|--------|--------|--------|


G|--------|--------|--------|--------|--------|--------|--------|--------|--------|
D|--------|--------|--------|--------|--------|--------|--------|--------|--------|
A|--------|--------|--------|--------|--------|--------|--------|--------|--------|
E|--------|--------|--------|--------|--------|--------|--------|--------|--------|


G|--------|--------|--------|--------|--------|--------|--------|--------|--------|
D|--------|--------|--------|--------|--------|--------|--------|--------|--------|
A|--------|--------|--------|--------|--------|--------|--------|--------|--------|
E|--------|--------|--------|--------|--------|--------|--------|--------|--------|


G|--------|--------|--------|--------|--------|--------|--------|--------|--------|
D|--------|--------|--------|--------|--------|--------|--------|--------|--------|
A|--------|--------|--------|--------|--------|--------|--------|--------|--------|
E|--------|--------|--------|--------|--------|--------|--------|--------|--------|


G|--------|--------|--------|--------|--------|--------|--------|--------|--------|
D|--------|--------|--------|--------|--------|--------|--------|--------|--------|
A|--------|--------|--------|--------|--------|--------|--------|--------|--------|
E|--------|--------|--------|--------|--------|--------|--------|--------|--------|


G|--------|--------|--------|--------|--------|--------|--------|--------|--------|
D|--------|--------|--------|--------|--------|--------|--------|--------|--------|
A|--------|--------|--------|--------|--------|--------|--------|--------|--------|
E|--------|--------|--------|--------|--------|--------|--------|--------|--------|


G|--------|--------|--------|--------|--------|--------|--------|--------|--------|
D|--------|--------|--------|--------|--------|--------|--------|--------|--------|
A|--------|--------|--------|--------|--------|--------|--------|--------|--------|
E|--------|--------|--------|--------|--------|--------|--------|--------|--------|


G|--------|--------|--------|--------|--------|--------|--------|--------|--------|
D|--------|--------|--------|--------|--------|--------|--------|--------|--------|
A|--------|--------|--------|--------|--------|--------|--------|--------|--------|
E|--------|--------|--------|--------|--------|--------|--------|--------|--------|


G|--------|--------|--------|--------|--------|--------|--------|--------|--------|
D|--------|--------|--------|--------|--------|--------|--------|--------|--------|
A|--------|--------|--------|--------|--------|--------|--------|--------|--------|
E|--------|--------|--------|--------|--------|--------|--------|--------|--------|


G|--------|--------|--------|--------|--------|--------|--------|--------|--------|
D|--------|--------|--------|--------|--------|--------|--------|--------|--------|
A|--------|--------|--------|--------|--------|--------|--------|--------|--------|
E|--------|--------|--------|--------|--------|--------|--------|--------|--------|


G|--------|--------|--------|--------|--------|--------|--------|--------|--------|
D|--------|--------|--------|--------|--------|--------|--------|--------|--------|
A|--------|--------|--------|--------|--------|--------|--------|--------|--------|
E|--------|--------|--------|--------|--------|--------|--------|--------|--------|


G|--------|--------|--------|--------|--------|--------|--------|--------|--------|
D|--------|--------|--------|--------|--------|--------|--------|--------|--------|
A|--------|--------|--------|--------|--------|--------|--------|--------|--------|
E|--------|--------|--------|--------|--------|--------|--------|--------|--------|


G|--------|--------|--------|--------|--------|--------|--------|--------|--------|
D|--------|--------|--------|--------|--------|--------|--------|--------|--------|
A|--------|--------|--------|--------|--------|--------|--------|--------|--------|
E|--------|--------|--------|--------|--------|--------|--------|--------|--------|


G|--------|--------|--------|--------|--------|--------|--------|--------|--------|
D|--------|--------|--------|--------|--------|--------|--------|--------|--------|
A|--------|--------|--------|--------|--------|--------|--------|--------|--------|
E|--------|--------|--------|--------|--------|--------|--------|--------|--------|


G|--------|--------|--------|--------|--------|--------|--------|--------|--------|
D|--------|--------|--------|--------|--------|--------|--------|--------|--------|
A|--------|--------|--------|--------|--------|--------|--------|--------|--------|
E|--------|--------|--------|--------|--------|--------|--------|--------|--------|


G|--------|--------|--------|--------|
D|--------|--------|--------|--------|
A|--------|--------|--------|--------|
E|--------|--------|--------|--------|