Menu:

 

Search:

 

slipknot - duality:

 



Title: Duality
Artist: 
Album: Vol: 3 (The Subliminal Verses)
Author: Slipknot


Track 1: Synth

C#|--------|----------------|----------------|----------------|--------|----------------|
G#|--------|----------------|----------------|----------------|--------|----------------|
 E|--------|----------------|----------------|----------------|--------|----------------|
 B|--------|----------------|----------------|----------------|--------|----------------|
F#|-5------|-5------5---8---|-8------8---11--|-11--6------6---|-5------|-5------5---8---|
 B|--------|----------------|----------------|----------------|--------|----------------|


C#|----------------|----------------|--------|----------------|----------------|----------------|
G#|----------------|----------------|--------|----------------|----------------|----------------|
 E|----------------|----------------|--------|----------------|----------------|----------------|
 B|----------------|----------------|--------|----------------|----------------|----------------|
F#|-8------8---11--|-11--6------6---|-5------|-5------5---8---|-8------8---11--|-11--6------6---|
 B|----------------|----------------|--------|----------------|----------------|----------------|


C#|--------|----------------|----------------|----------------|--------|--------|--------|
G#|--------|----------------|----------------|----------------|--------|--------|--------|
 E|--------|----------------|----------------|----------------|--------|--------|--------|
 B|--------|----------------|----------------|----------------|--------|--------|--------|
F#|-5------|-5------5---8---|-8------8---11--|-11--6------6---|--------|--------|--------|
 B|--------|----------------|----------------|----------------|--------|--------|--------|


C#|--------|--------|--------|--------|--------|--------|--------|--------|--------|
G#|--------|--------|--------|--------|--------|--------|--------|--------|--------|
 E|--------|--------|--------|--------|--------|--------|--------|--------|--------|
 B|--------|--------|--------|--------|--------|--------|--------|--------|--------|
F#|--------|--------|--------|--------|--------|--------|--------|--------|--------|
 B|--------|--------|--------|--------|--------|--------|--------|--------|--------|


C#|--------|--------|--------|--------|--------|--------|--------|--------|--------|
G#|--------|--------|--------|--------|--------|--------|--------|--------|--------|
 E|--------|--------|--------|--------|--------|--------|--------|--------|--------|
 B|--------|--------|--------|--------|--------|--------|--------|--------|--------|
F#|--------|--------|--------|--------|--------|--------|--------|--------|--------|
 B|--------|--------|--------|--------|--------|--------|--------|--------|--------|


C#|--------|--------|--------|--------|--------|--------|--------|--------|--------|
G#|--------|--------|--------|--------|--------|--------|--------|--------|--------|
 E|--------|--------|--------|--------|--------|--------|--------|--------|--------|
 B|--------|--------|--------|--------|--------|--------|--------|--------|--------|
F#|--------|--------|--------|--------|--------|--------|--------|--------|--------|
 B|--------|--------|--------|--------|--------|--------|--------|--------|--------|


C#|--------|--------|--------|--------|--------|--------|--------|--------|--------|
G#|--------|--------|--------|--------|--------|--------|--------|--------|--------|
 E|--------|--------|--------|--------|--------|--------|--------|--------|--------|
 B|--------|--------|--------|--------|--------|--------|--------|--------|--------|
F#|--------|--------|--------|--------|--------|--------|--------|--------|--------|
 B|--------|--------|--------|--------|--------|--------|--------|--------|--------|


C#|--------|--------|--------|--------|--------|--------|--------|--------|--------|
G#|--------|--------|--------|--------|--------|--------|--------|--------|--------|
 E|--------|--------|--------|--------|--------|--------|--------|--------|--------|
 B|--------|--------|--------|--------|--------|--------|--------|--------|--------|
F#|--------|--------|--------|--------|--------|--------|--------|--------|--------|
 B|--------|--------|--------|--------|--------|--------|--------|--------|--------|


C#|--------|--------|--------|--------|--------|--------|--------|--------|--------|
G#|--------|--------|--------|--------|--------|--------|--------|--------|--------|
 E|--------|--------|--------|--------|--------|--------|--------|--------|--------|
 B|--------|--------|--------|--------|--------|--------|--------|--------|--------|
F#|--------|--------|--------|--------|--------|--------|--------|--------|--------|
 B|--------|--------|--------|--------|--------|--------|--------|--------|--------|


C#|--------|--------|--------|--------|--------|--------|--------|--------|--------|
G#|--------|--------|--------|--------|--------|--------|--------|--------|--------|
 E|--------|--------|--------|--------|--------|--------|--------|--------|--------|
 B|--------|--------|--------|--------|--------|--------|--------|--------|--------|
F#|--------|--------|--------|--------|--------|--------|--------|--------|--------|
 B|--------|--------|--------|--------|--------|--------|--------|--------|--------|


C#|--------|--------|--------|--------|--------|--------|--------|--------|--------|
G#|--------|--------|--------|--------|--------|--------|--------|--------|--------|
 E|--------|--------|--------|--------|--------|--------|--------|--------|--------|
 B|--------|--------|--------|--------|--------|--------|--------|--------|--------|
F#|--------|--------|--------|--------|--------|--------|--------|--------|--------|
 B|--------|--------|--------|--------|--------|--------|--------|--------|--------|


C#|--------|--------|--------|--------|--------|--------|--------|--------|--------|
G#|--------|--------|--------|--------|--------|--------|--------|--------|--------|
 E|--------|--------|--------|--------|--------|--------|--------|--------|--------|
 B|--------|--------|--------|--------|--------|--------|--------|--------|--------|
F#|--------|--------|--------|--------|--------|--------|--------|--------|--------|
 B|--------|--------|--------|--------|--------|--------|--------|--------|--------|


C#|--------|--------|--------|--------|--------|--------|--------|--------|--------|
G#|--------|--------|--------|--------|--------|--------|--------|--------|--------|
 E|--------|--------|--------|--------|--------|--------|--------|--------|--------|
 B|--------|--------|--------|--------|--------|--------|--------|--------|--------|
F#|--------|--------|--------|--------|--------|--------|--------|--------|--------|
 B|--------|--------|--------|--------|--------|--------|--------|--------|--------|


C#|--------|--------|--------|--------|--------|--------|--------|--------|--------|
G#|--------|--------|--------|--------|--------|--------|--------|--------|--------|
 E|--------|--------|--------|--------|--------|--------|--------|--------|--------|
 B|--------|--------|--------|--------|--------|--------|--------|--------|--------|
F#|--------|--------|--------|--------|--------|--------|--------|--------|--------|
 B|--------|--------|--------|--------|--------|--------|--------|--------|--------|


C#|--------|--------|--------|--------|--------|--------|--------|
G#|--------|--------|--------|--------|--------|--------|--------|
 E|--------|--------|--------|--------|--------|--------|--------|
 B|--------|--------|--------|--------|--------|--------|--------|
F#|--------|--------|--------|--------|--------|--------|--------|
 B|--------|--------|--------|--------|--------|--------|--------|





Track 2: w/dist

C#|---------------------------------|---------------------------------|---------------------------------|
G#|---------------------------------|---------------------------------|---------------------------------|
 E|---------------------------------|---------------------------------|---------------------------------|
 B|---------------------------------|---------------------------------|---------------------------------|
F#|---------------------------------|---------------------------------|---------------------------------|
 B|-0---0---0---0---0---0---0---0---|-0---0---0---0---0---0---0---3---|-3---3---3---3---3---3---3---6---|


C#|---------------------------------|---------------------------------|---------------------------------|
G#|---------------------------------|---------------------------------|---------------------------------|
 E|---------------------------------|---------------------------------|---------------------------------|
 B|---------------------------------|---------------------------------|---------------------------------|
F#|---------------------------------|---------------------------------|---------------------------------|
 B|-6---1---1---1---1---1---1---0---|-0---0---0---0---0---0---0---0---|-0---0---0---0---0---0---0---3---|


C#|---------------------------------|---------------------------------|---------------------------------|
G#|---------------------------------|---------------------------------|---------------------------------|
 E|---------------------------------|---------------------------------|---------------------------------|
 B|---------------------------------|---------------------------------|-0---0---0---0---0---0---0---0---|
F#|---------------------------------|---------------------------------|-0---0---0---0---0---0---0---0---|
 B|-3---3---3---3---3---3---3---6---|-6---1---1---1---1---1---1---0---|-0---0---0---0---0---0---0---0---|


C#|---------------------------------|---------------------------------|---------------------------------|
G#|---------------------------------|---------------------------------|---------------------------------|
 E|---------------------------------|---------------------------------|---------------------------------|
 B|-0---0---0---0---0---0---0---3---|-3---3---3---3---3---3---3---6---|-6---1---1---1---1---3---1---0---|
F#|-0---0---0---0---0---0---0---3---|-3---3---3---3---3---3---3---6---|-6---1---1---1---1---3---1---0---|
 B|-0---0---0---0---0---0---0---3---|-3---3---3---3---3---3---3---6---|-6---1---1---1---1---3---1---0---|


C#|---------------------------------|---------------------------------|---------------------------------|
G#|---------------------------------|---------------------------------|---------------------------------|
 E|---------------------------------|---------------------------------|---------------------------------|
 B|-0---0---0---0---0---0---0---0---|-0---0---0---0---0---0---0---3---|-3---3---3---3---3---3---3---6---|
F#|-0---0---0---0---0---0---0---0---|-0---0---0---0---0---0---0---3---|-3---3---3---3---3---3---3---6---|
 B|-0---0---0---0---0---0---0---0---|-0---0---0---0---0---0---0---3---|-3---3---3---3---3---3---3---6---|


C#|---------------------------------|-------------------------------|----------------------------|
G#|---------------------------------|-------------------------------|----------------------------|
 E|---------------------------------|-------------------------------|----------------------------|
 B|-6---1---1---1---1---3---1---0---|-----0----0----0-----------0---|-0--------0----0----0-------|
F#|-6---1---1---1---1---3---1---0---|-----0----0----0-----------0---|-0--------0----0----0-------|
 B|-6---1---1---1---1---3---1---0---|-----0----0----0-----------0---|-0--------0----0----0-------|


C#|--------------------------------|-------------------------------|----------------------------|
G#|--------------------------------|-------------------------------|----------------------------|
 E|----------------------5---5--5--|-------------------------------|----------------------------|
 B|-----0-----------3--------------|-----0----0----0-----------0---|-0--------0----0----0-------|
F#|-----0---1---1---3--------------|-----0----0----0-----------0---|-0--------0----0----0-------|
 B|-----0---1---1---3--------------|-----0----0----0-----------0---|-0--------0----0----0-------|


C#|---------------------------|-------------------------------------------------|-------------------------------------------------|
G#|---------------------------|-------------------------------------------------|-------------------------------------------------|
 E|---------------------------|-------------------------------------------------|-------------------------------------------------|
 B|-----0---------------------|-------------------------------------------------|-------------------------------------------------|
F#|-----0---1---0---6---------|-------------------------------------------------|-------------------------------------------------|
 B|-----0---1---0---6----1----|-7--7--7--7--7--7--10-10-10-10-5--5--5--5--7--7--|-3--3--3--3--5--5--1--1--1--1--0--0--0--0--0--0--|


C#|-------------------------------------------------|-------------------------------------------------|
G#|-------------------------------------------------|-------------------------------------------------|
 E|-------------------------------------------------|-------------------------------------------------|
 B|-------------------------------------------------|-------------------------------------------------|
F#|-------------------------------------------------|-------------------------------------------------|
 B|-7--7--7--7--7--7--10-10-10-10-5--5--5--5--7--7--|-3--3--3--3--5--5--1--1--1--1--0--0--0--0--0--0--|


C#|-------------------------------------------------|-------------------------------------------------|
G#|-------------------------------------------------|-------------------------------------------------|
 E|-------------------------------------------------|-------------------------------------------------|
 B|-------------------------------------------------|-------------------------------------------------|
F#|-------------------------------------------------|-------------------------------------------------|
 B|-7--7--7--7--7--7--10-10-10-10-5--5--5--5--7--7--|-3--3--3--3--5--5--1--1--1--1--0--0--0--0--0--0--|


C#|-------------------------------------------------|-------------------------------------------------|
G#|-------------------------------------------------|-------------------------------------------------|
 E|-------------------------------------------------|-------------------------------------------------|
 B|-------------------------------------------------|-------------------------------------------------|
F#|-------------------------------------------------|-------------------------------------------------|
 B|-7--7--7--7--7--7--10-10-10-10-5--5--5--5--7--7--|-3--3--3--3--5--5--1--1--1--1--0--0--0--0--0--0--|


C#|-------------------------------------------------|-------------------------------------------------|
G#|-------------------------------------------------|-------------------------------------------------|
 E|-------------------------------------------------|-------------------------------------------------|
 B|-------------------------------------------------|-------------------------------------------------|
F#|-------------------------------------------------|-------------------------------------------------|
 B|-7--7--7--7--7--7--10-10-10-10-5--5--5--5--7--7--|-3--3--3--3--5--5--1--1--1--1--0--0--0--0--0--0--|


C#|-------------------------------------------------|-------------------------------------------------|
G#|-------------------------------------------------|-------------------------------------------------|
 E|-------------------------------------------------|-------------------------------------------------|
 B|-------------------------------------------------|-------------------------------------------------|
F#|-------------------------------------------------|-------------------------------------------------|
 B|-7--7--7--7--7--7--10-10-10-10-5--5--5--5--7--7--|-3--3--3--3--5--5--1--1--1--1--0--0--0--0--0--0--|


C#|-------------------------------------------------|-------------------------------------------------|
G#|-------------------------------------------------|-------------------------------------------------|
 E|-------------------------------------------------|-------------------------------------------------|
 B|-------------------------------------------------|-------------------------------------------------|
F#|-------------------------------------------------|-------------------------------------------------|
 B|-7--7--7--7--7--7--10-10-10-10-5--5--5--5--7--7--|-3--3--3--3--5--5--1--1--1--1--0--0--0--0--0--0--|


C#|-------------------------------------------------|-------------------------------------------------|
G#|-------------------------------------------------|-------------------------------------------------|
 E|-------------------------------------------------|-------------------------------------------------|
 B|-------------------------------------------------|-------------------------------------------------|
F#|-------------------------------------------------|-------------------------------------------------|
 B|-7--7--7--7--7--7--10-10-10-10-5--5--5--5--7--7--|-3--3--3--3--5--5--1--1--1--1--0--0--0--0--0--0--|


C#|-------------------------------------------------|-------------------------------------------------|
G#|-------------------------------------------------|-------------------------------------------------|
 E|-------------------------------------------------|-------------------------------------------------|
 B|-------------------------------------------------|-------------------------------------------------|
F#|-------------------------------------------------|-------------------------------------------------|
 B|-7--7--7--7--7--7--10-10-10-10-5--5--5--5--7--7--|-3--3--3--3--5--5--1--1--1--1--0--0--0--0--0--0--|


C#|-------------------------------------|-----------------------------------|---------------------------------|
G#|-------------------------------------|-----------------------------------|---------------------------------|
 E|-------------------------------------|-----------------------------------|---------------------------------|
 B|-------------------------------------|---------------------------1---1---|-0---0---0---0---0---0---0---0---|
F#|-3---3---3--3---3--3---3---3--3---3--|-3---3---3--3---3--2---2---1---1---|-0---0---0---0---0---0---0---0---|
 B|-3---3---3--3---3--3---3---3--3---3--|-3---3---3--3---3--2---2---1---1---|-0---0---0---0---0---0---0---0---|


C#|---------------------------------|---------------------------------|---------------------------------|
G#|---------------------------------|---------------------------------|---------------------------------|
 E|---------------------------------|---------------------------------|---------------------------------|
 B|-0---0---0---0---0---0---0---3---|-3---3---3---3---3---3---3---6---|-6---1---1---1---1---3---1---0---|
F#|-0---0---0---0---0---0---0---3---|-3---3---3---3---3---3---3---6---|-6---1---1---1---1---3---1---0---|
 B|-0---0---0---0---0---0---0---3---|-3---3---3---3---3---3---3---6---|-6---1---1---1---1---3---1---0---|


C#|---------------------------------|---------------------------------|---------------------------------|
G#|---------------------------------|---------------------------------|---------------------------------|
 E|---------------------------------|---------------------------------|---------------------------------|
 B|-0---0---0---0---0---0---0---0---|-0---0---0---0---0---0---0---3---|-3---3---3---3---3---3---3---6---|
F#|-0---0---0---0---0---0---0---0---|-0---0---0---0---0---0---0---3---|-3---3---3---3---3---3---3---6---|
 B|-0---0---0---0---0---0---0---0---|-0---0---0---0---0---0---0---3---|-3---3---3---3---3---3---3---6---|


C#|---------------------------------|-------------------------------------------------|
G#|---------------------------------|-------------------------------------------------|
 E|---------------------------------|-------------------------------------------------|
 B|-6---1---1---1---1---3---1---1---|-------------------------------------------------|
F#|-6---1---1---1---1---3---1---1---|-------------------------------------------------|
 B|-6---1---1---1---1---3---1---1---|-7--7--7--7--7--7--10-10-10-10-5--5--5--5--7--7--|


C#|-------------------------------------------------|-------------------------------------------------|
G#|-------------------------------------------------|-------------------------------------------------|
 E|-------------------------------------------------|-------------------------------------------------|
 B|-------------------------------------------------|-------------------------------------------------|
F#|-------------------------------------------------|-------------------------------------------------|
 B|-3--3--3--3--5--5--1--1--1--1--0--0--0--0--0--0--|-7--7--7--7--7--7--10-10-10-10-5--5--5--5--7--7--|


C#|--------------------------|-------------------------------------------------|-------------------------------------------------|
G#|--------------------------|-------------------------------------------------|-------------------------------------------------|
 E|--------------------------|-------------------------------------------------|-------------------------------------------------|
 B|--------------------------|-------------------------------------------------|-------------------------------------------------|
F#|-3----5----1----0---------|-------------------------------------------------|-------------------------------------------------|
 B|-3----5----1----0---------|-7--7--7--7--7--7--10-10-10-10-5--5--5--5--7--7--|-3--3--3--3--5--5--1--1--1--1--0--0--0--0--0--0--|


C#|-------------------------------------------------|-------------------------------------------------|
G#|-------------------------------------------------|-------------------------------------------------|
 E|-------------------------------------------------|-------------------------------------------------|
 B|-------------------------------------------------|-------------------------------------------------|
F#|-------------------------------------------------|-------------------------------------------------|
 B|-7--7--7--7--7--7--10-10-10-10-5--5--5--5--7--7--|-3--3--3--3--5--5--1--1--1--1--0--0--0--0--0--0--|


C#|-------------------------------------------------|-------------------------------------------------|
G#|-------------------------------------------------|-------------------------------------------------|
 E|-------------------------------------------------|-------------------------------------------------|
 B|-------------------------------------------------|-------------------------------------------------|
F#|-------------------------------------------------|-------------------------------------------------|
 B|-7--7--7--7--7--7--10-10-10-10-5--5--5--5--7--7--|-3--3--3--3--5--5--1--1--1--1--0--0--0--0--0--0--|


C#|-------------------------------------------------|-------------------------------------------------|
G#|-------------------------------------------------|-------------------------------------------------|
 E|-------------------------------------------------|-------------------------------------------------|
 B|-------------------------------------------------|-------------------------------------------------|
F#|-------------------------------------------------|-------------------------------------------------|
 B|-7--7--7--7--7--7--10-10-10-10-5--5--5--5--7--7--|-3--3--3--3--5--5--1--1--1--1--0--0--0--0--0--0--|


C#|-------------------------------------|-----------------------------------|---------------------------------|
G#|-------------------------------------|-----------------------------------|---------------------------------|
 E|-------------------------------------|-----------------------------------|---------------------------------|
 B|-------------------------------------|---------------------------1---1---|-0---0---0---0---0---0---0---0---|
F#|-3---3---3--3---3--3---3---3--3---3--|-3---3---3--3---3--2---2---1---1---|-0---0---0---0---0---0---0---0---|
 B|-3---3---3--3---3--3---3---3--3---3--|-3---3---3--3---3--2---2---1---1---|-0---0---0---0---0---0---0---0---|


C#|---------------------------------|---------------------------------|---------------------------------|
G#|---------------------------------|---------------------------------|---------------------------------|
 E|---------------------------------|---------------------------------|---------------------------------|
 B|-0---0---0---0---0---0---0---3---|-3---3---3---3---3---3---3---6---|-6---1---1---1---1---3---1---0---|
F#|-0---0---0---0---0---0---0---3---|-3---3---3---3---3---3---3---6---|-6---1---1---1---1---3---1---0---|
 B|-0---0---0---0---0---0---0---3---|-3---3---3---3---3---3---3---6---|-6---1---1---1---1---3---1---0---|


C#|---------------------------------|---------------------------------|---------------------------------|
G#|---------------------------------|---------------------------------|---------------------------------|
 E|---------------------------------|---------------------------------|---------------------------------|
 B|-0---0---0---0---0---0---0---0---|-0---0---0---0---0---0---0---3---|-3---3---3---3---3---3---3---6---|
F#|-0---0---0---0---0---0---0---0---|-0---0---0---0---0---0---0---3---|-3---3---3---3---3---3---3---6---|
 B|-0---0---0---0---0---0---0---0---|-0---0---0---0---0---0---0---3---|-3---3---3---3---3---3---3---6---|


C#|---------------------------------|---------------------------------|---------------------------|
G#|---------------------------------|---------------------------------|---------------------------|
 E|---------------------------------|-----14--14--7---7---10--10--14--|-14--15--14--14--14--------|
 B|-6---1---1---1---1---3---1---0---|-0---14--14------7-------10------|-14------14--14--------3---|
F#|-6---1---1---1---1---3---1---0---|-0---12--12--5---5---8---8---12--|-12--13--12--12--12----3---|
 B|-6---1---1---1---1---3---1---0---|-0-------------------------------|-----------------------3---|


C#|---------------------------------|---------------------------------|---------------------------------|
G#|---------------------------------|---------------------------------|---------------------------------|
 E|---------------------------------|---------------------------------|-----14--14--7---7---10--10--14--|
 B|-3---3---3---3---3---3---3---6---|-6---1---1---1---1---3---1---0---|-0---14--14------7-------10------|
F#|-3---3---3---3---3---3---3---6---|-6---1---1---1---1---3---1---0---|-0---12--12--5---5---8---8---12--|
 B|-3---3---3---3---3---3---3---6---|-6---1---1---1---1---3---1---0---|-0-------------------------------|


C#|---------------------------|---------------------------------|---------------------------------|
G#|---------------------------|---------------------------------|---------------------------------|
 E|-14--15--14--14--14--------|---------------------------------|---------------------------------|
 B|-14------14--14--------3---|-3---3---3---3---3---3---3---6---|-6---1---1---1---1---3---1---1---|
F#|-12--13--12--12--12----3---|-3---3---3---3---3---3---3---6---|-6---1---1---1---1---3---1---1---|
 B|-----------------------3---|-3---3---3---3---3---3---3---6---|-6---1---1---1---1---3---1---1---|


C#|-------------------------------|----------------------------|--------------------------------|
G#|-------------------------------|----------------------------|--------------------------------|
 E|-------------------------------|----------------------------|----------------------5---5--5--|
 B|-----0----0----0-----------0---|-0--------0----0----0-------|-----0-----------3--------------|
F#|-----0----0----0-----------0---|-0--------0----0----0-------|-----0---1---1---3--------------|
 B|-----0----0----0-----------0---|-0--------0----0----0-------|-----0---1---1---3--------------|


C#|-------------------------------|----------------------------|---------------------------|
G#|-------------------------------|----------------------------|---------------------------|
 E|-------------------------------|----------------------------|---------------------------|
 B|-----0----0----0-----------0---|-0--------0----0----0-------|-----0---------------------|
F#|-----0----0----0-----------0---|-0--------0----0----0-------|-----0---1---0---6---------|
 B|-----0----0----0-----------0---|-0--------0----0----0-------|-----0---1---0---6----1----|


C#|-------------------------------|----------------------------|--------------------------------|
G#|-------------------------------|----------------------------|--------------------------------|
 E|-------------------------------|----------------------------|----------------------5---5--5--|
 B|-----0----0----0-----------0---|-0--------0----0----0-------|-----0-----------3--------------|
F#|-----0----0----0-----------0---|-0--------0----0----0-------|-----0---1---1---3--------------|
 B|-----0----0----0-----------0---|-0--------0----0----0-------|-----0---1---1---3--------------|


C#|-------------------------------|----------------------------|-----------------------------------------|
G#|-------------------------------|----------------------------|-----------------------------------------|
 E|-------------------------------|----------------------------|-----------------------------------------|
 B|-----0----0----0-----------0---|-0--------0----0----0-------|-----0-----------------------------------|
F#|-----0----0----0-----------0---|-0--------0----0----0-------|-----0---1---0---6---6---6---3---3---3---|
 B|-----0----0----0-----------0---|-0--------0----0----0-------|-----0---1---0---6---6---6---3---3---3---|


C#|-------------------------------|----------------------------|--------------------------------|
G#|-------------------------------|----------------------------|--------------------------------|
 E|-------------------------------|----------------------------|----------------------5---5--5--|
 B|-----1----1----1-----------1---|-1--------1----1----1-------|-----1-----------3--------------|
F#|-----1----1----1-----------1---|-1--------1----1----1-------|-----1---3---1---3--------------|
 B|-----1----1----1-----------1---|-1--------1----1----1-------|-----1---3---1---3--------------|


C#|-------------------------------|----------------------------|---------------------------|
G#|-------------------------------|----------------------------|---------------------------|
 E|-------------------------------|----------------------------|---------------------------|
 B|-----1----1----1-----------1---|-1--------1----1----1-------|-----1---------------------|
F#|-----1----1----1-----------1---|-1--------1----1----1-------|-----1---3---1---6---------|
 B|-----1----1----1-----------1---|-1--------1----1----1-------|-----1---3---1---6----1----|


C#|-------------------------------------|-----------------------------------|-------------------------------------------------|
G#|-------------------------------------|-----------------------------------|-------------------------------------------------|
 E|-------------------------------------|-----------------------------------|-------------------------------------------------|
 B|-------------------------------------|---------------------------1---1---|-------------------------------------------------|
F#|-3---3---3--3---3--3---3---3--3---3--|-3---3---3--3---3--2---2---1---1---|-------------------------------------------------|
 B|-3---3---3--3---3--3---3---3--3---3--|-3---3---3--3---3--2---2---1---1---|-0--0--0--3--3--3--1--1--1--5--5--5--3--3--6--6--|


C#|-------------------------------------------------|--------|---------------------------------|
G#|-------------------------------------------------|--------|---------------------------------|
 E|-------------------------------------------------|--------|---------------------------------|
 B|-------------------------------------------------|--------|-0---0---0---0---0---0---0---0---|
F#|-------------------------------------------------|--------|-0---0---0---0---0---0---0---0---|
 B|-12-12-12-7--7--7--10-10-10-5--5--5--3--3--6--6--|--------|-0---0---0---0---0---0---0---0---|


C#|---------------------------------|---------------------------------|---------------------------------|
G#|---------------------------------|---------------------------------|---------------------------------|
 E|---------------------------------|---------------------------------|---------------------------------|
 B|-0---0---0---0---0---0---0---3---|-3---3---3---3---3---3---3---6---|-6---1---1---1---1---3---1---0---|
F#|-0---0---0---0---0---0---0---3---|-3---3---3---3---3---3---3---6---|-6---1---1---1---1---3---1---0---|
 B|-0---0---0---0---0---0---0---3---|-3---3---3---3---3---3---3---6---|-6---1---1---1---1---3---1---0---|


C#|---------------------------------|---------------------------------|---------------------------------|
G#|---------------------------------|---------------------------------|---------------------------------|
 E|---------------------------------|---------------------------------|---------------------------------|
 B|-0---0---0---0---0---0---0---0---|-0---0---0---0---0---0---0---3---|-3---3---3---3---3---3---3---6---|
F#|-0---0---0---0---0---0---0---0---|-0---0---0---0---0---0---0---3---|-3---3---3---3---3---3---3---6---|
 B|-0---0---0---0---0---0---0---0---|-0---0---0---0---0---0---0---3---|-3---3---3---3---3---3---3---6---|


C#|---------------------------------|---------------------------------|---------------------------|
G#|---------------------------------|---------------------------------|---------------------------|
 E|---------------------------------|-----14--14--7---7---10--10--14--|-14--15--14--14--14--------|
 B|-6---1---1---1---1---3---1---0---|-0---14--14------7-------10------|-14------14--14--------3---|
F#|-6---1---1---1---1---3---1---0---|-0---12--12--5---5---8---8---12--|-12--13--12--12--12----3---|
 B|-6---1---1---1---1---3---1---0---|-0-------------------------------|-----------------------3---|


C#|---------------------------------|---------------------------------|---------------------------------|
G#|---------------------------------|---------------------------------|---------------------------------|
 E|---------------------------------|---------------------------------|-----14--14--7---7---10--10--14--|
 B|-3---3---3---3---3---3---3---6---|-6---1---1---1---1---3---1---0---|-0---14--14------7-------10------|
F#|-3---3---3---3---3---3---3---6---|-6---1---1---1---1---3---1---0---|-0---12--12--5---5---8---8---12--|
 B|-3---3---3---3---3---3---3---6---|-6---1---1---1---1---3---1---0---|-0-------------------------------|


C#|---------------------------|---------------------------------|---------------------------------|
G#|---------------------------|---------------------------------|---------------------------------|
 E|-14--15--14--14--14--------|---------------------------------|---------------------------------|
 B|-14------14--14--------3---|-3---3---3---3---3---3---3---6---|-6---1---1---1---1---3---1---1---|
F#|-12--13--12--12--12----3---|-3---3---3---3---3---3---3---6---|-6---1---1---1---1---3---1---1---|
 B|-----------------------3---|-3---3---3---3---3---3---3---6---|-6---1---1---1---1---3---1---1---|


C#|---------------------------------|------------------------------|--------------------------------|
G#|---------------------------------|------------------------------|--------------------------------|
 E|---------------------------------|------------------------------|----------------------5---5--5--|
 B|-----0----0----0-----------------|------------0----0----0-------|-----0-----------3--------------|
F#|-----0----0----0-----------0--0--|-0--0-------0----0----0-------|-----0---1---1---3--------------|
 B|-----0----0----0-----------0--0--|-0--0-------0----0----0-------|-----0---1---1---3--------------|


C#|---------------------------------|------------------------------|---------------------------|
G#|---------------------------------|------------------------------|---------------------------|
 E|---------------------------------|------------------------------|---------------------------|
 B|-----0----0----0-----------------|------------0----0----0-------|-----0---------------------|
F#|-----0----0----0-----------0--0--|-0--0-------0----0----0-------|-----0---1---0---6---------|
 B|-----0----0----0-----------0--0--|-0--0-------0----0----0-------|-----0---1---0---6----1----|





Track 3: w/dist

C#|--------|--------|--------|--------|--------|--------|--------|--------|--------|
G#|--------|--------|--------|--------|--------|--------|--------|--------|--------|
 E|--------|--------|--------|--------|--------|--------|--------|--------|--------|
 B|--------|--------|--------|--------|--------|--------|--------|--------|--------|
F#|--------|--------|--------|--------|--------|--------|--------|--------|--------|
 B|--------|--------|--------|--------|--------|--------|--------|--------|--------|


C#|--------|--------|--------|--------|--------|--------|--------|-------------------------------|
G#|--------|--------|--------|--------|--------|--------|--------|-------------------------------|
 E|--------|--------|--------|--------|--------|--------|--------|-------------------------------|
 B|--------|--------|--------|--------|--------|--------|--------|-----0----0----0-----------0---|
F#|--------|--------|--------|--------|--------|--------|--------|-----0----0----0-----------0---|
 B|--------|--------|--------|--------|--------|--------|--------|-----0----0----0-----------0---|


C#|----------------------------|--------------------------------|-------------------------------|
G#|----------------------------|--------------------------------|-------------------------------|
 E|----------------------------|----------------------5---5--5--|-------------------------------|
 B|-0--------0----0----0-------|-----0-----------3--------------|-----0----0----0-----------0---|
F#|-0--------0----0----0-------|-----0---1---1---3--------------|-----0----0----0-----------0---|
 B|-0--------0----0----0-------|-----0---1---1---3--------------|-----0----0----0-----------0---|


C#|----------------------------|---------------------------|--------|--------|--------|
G#|----------------------------|---------------------------|--------|--------|--------|
 E|----------------------------|---------------------------|--------|--------|--------|
 B|-0--------0----0----0-------|-----0----------------3----|--------|--------|--------|
F#|-0--------0----0----0-------|-----0---1---0---6---------|--------|--------|--------|
 B|-0--------0----0----0-------|-----0---1---0---6---------|--------|--------|--------|


C#|--------|--------|--------|--------|--------|--------|--------|-------------------------------------------------|
G#|--------|--------|--------|--------|--------|--------|--------|-------------------------------------------------|
 E|--------|--------|--------|--------|--------|--------|--------|-------------------------------------------------|
 B|--------|--------|--------|--------|--------|--------|--------|-7--7--7--2--2--2--3--3--3-----------------------|
F#|--------|--------|--------|--------|--------|--------|--------|----------------------------2--2--2--2--2--2--2--|
 B|--------|--------|--------|--------|--------|--------|--------|-------------------------------------------------|


C#|-------------------------------------------------|-------------------------------------------------|
G#|-------------------------------------------------|-------------------------------------------------|
 E|-------------------------------------------------|-------------------------------------------------|
 B|-3--3--3--5--5--5--3--3--3--2--2--2--2--2--2--2--|-7--7--7--2--2--2--3--3--3-----------------------|
F#|-------------------------------------------------|----------------------------2--2--2--2--2--2--2--|
 B|-------------------------------------------------|-------------------------------------------------|


C#|-------------------------------------------------|-------------------------------------------------|
G#|-------------------------------------------------|-------------------------------------------------|
 E|-------------------------------------------------|-------------------------------------------------|
 B|-3--3--3--5--5--5--3--3--3--2--2--2--2--2--2--2--|-7--7--7--2--2--2--3--3--3-----------------------|
F#|-------------------------------------------------|----------------------------2--2--2--2--2--2--2--|
 B|-------------------------------------------------|-------------------------------------------------|


C#|-------------------------------------------------|-------------------------------------------------|
G#|-------------------------------------------------|-------------------------------------------------|
 E|-------------------------------------------------|-------------------------------------------------|
 B|-3--3--3--5--5--5--3--3--3--2--2--2--2--2--2--2--|-7--7--7--2--2--2--3--3--3-----------------------|
F#|-------------------------------------------------|----------------------------2--2--2--2--2--2--2--|
 B|-------------------------------------------------|-------------------------------------------------|


C#|-------------------------------------------------|--------|--------|--------|--------|
G#|-------------------------------------------------|--------|--------|--------|--------|
 E|-------------------------------------------------|--------|--------|--------|--------|
 B|-3--3--3--5--5--5--3--3--3--2--2--2--2--2--2--2--|--------|--------|--------|--------|
F#|-------------------------------------------------|--------|--------|--------|--------|
 B|-------------------------------------------------|--------|--------|--------|--------|


C#|--------|--------|--------|--------|--------|--------|---------------------------|
G#|--------|--------|--------|--------|--------|--------|---------------------------|
 E|--------|--------|--------|--------|--------|--------|---------------------------|
 B|--------|--------|--------|--------|--------|--------|---------------------------|
F#|--------|--------|--------|--------|--------|--------|---------------------------|
 B|--------|--------|--------|--------|--------|--------|-0--0--0--0--0-------------|


C#|--------|-----------------|--------------------------|--------|--------|--------|
G#|--------|-----------------|--------------------------|--------|--------|--------|
 E|--------|-----------------|--------------------------|--------|--------|--------|
 B|--------|-----------------|--------------------------|--------|--------|--------|
F#|--------|-------6----2----|-3----5----1----0---------|--------|--------|--------|
 B|--------|-------6----2----|-3----5----1----0---------|--------|--------|--------|


C#|--------|-------------------------------------------------|-------------------------------------------------|
G#|--------|-------------------------------------------------|-------------------------------------------------|
 E|--------|-------------------------------------------------|-------------------------------------------------|
 B|--------|-7--7--7--2--2--2--3--3--3-----------------------|-3--3--3--5--5--5--3--3--3--2--2--2--2--2--2--2--|
F#|--------|----------------------------2--2--2--2--2--2--2--|-------------------------------------------------|
 B|--------|-------------------------------------------------|-------------------------------------------------|


C#|-------------------------------------------------|-------------------------------------------------|
G#|-------------------------------------------------|-------------------------------------------------|
 E|-------------------------------------------------|-------------------------------------------------|
 B|-7--7--7--2--2--2--3--3--3-----------------------|-3--3--3--5--5--5--3--3--3--2--2--2--2--2--2--2--|
F#|----------------------------2--2--2--2--2--2--2--|-------------------------------------------------|
 B|-------------------------------------------------|-------------------------------------------------|


C#|--------|--------|--------|--------|--------|--------|--------|--------|--------|
G#|--------|--------|--------|--------|--------|--------|--------|--------|--------|
 E|--------|--------|--------|--------|--------|--------|--------|--------|--------|
 B|--------|--------|--------|--------|--------|--------|--------|--------|--------|
F#|--------|--------|--------|--------|--------|--------|--------|--------|--------|
 B|--------|--------|--------|--------|--------|--------|--------|--------|--------|


C#|--------|---------------------------------|---------------------------------|---------------------------------|
G#|--------|---------------------------------|---------------------------------|---------------------------------|
 E|--------|---------------------------------|---------------------------------|---------------------------------|
 B|--------|-0---0---0---0---0---0---0---0---|-0---0---0---0---0---0---0---3---|-3---3---3---3---3---3---3---6---|
F#|--------|-0---0---0---0---0---0---0---0---|-0---0---0---0---0---0---0---3---|-3---3---3---3---3---3---3---6---|
 B|--------|-0---0---0---0---0---0---0---0---|-0---0---0---0---0---0---0---3---|-3---3---3---3---3---3---3---6---|


C#|---------------------------------|---------------------------------|---------------------------------|
G#|---------------------------------|---------------------------------|---------------------------------|
 E|---------------------------------|---------------------------------|---------------------------------|
 B|-6---1---1---1---1---3---1---0---|-0---0---0---0---0---0---0---0---|-0---0---0---0---0---0---0---3---|
F#|-6---1---1---1---1---3---1---0---|-0---0---0---0---0---0---0---0---|-0---0---0---0---0---0---0---3---|
 B|-6---1---1---1---1---3---1---0---|-0---0---0---0---0---0---0---0---|-0---0---0---0---0---0---0---3---|


C#|---------------------------------|---------------------------------|-------------------------------|
G#|---------------------------------|---------------------------------|-------------------------------|
 E|---------------------------------|---------------------------------|-------------------------------|
 B|-3---3---3---3---3---3---3---6---|-6---1---1---1---1---3---1---1---|-----0----0----0-----------0---|
F#|-3---3---3---3---3---3---3---6---|-6---1---1---1---1---3---1---1---|-----0----0----0-----------0---|
 B|-3---3---3---3---3---3---3---6---|-6---1---1---1---1---3---1---1---|-----0----0----0-----------0---|


C#|----------------------------|--------------------------------|-------------------------------|
G#|----------------------------|--------------------------------|-------------------------------|
 E|----------------------------|----------------------5---5--5--|-------------------------------|
 B|-0--------0----0----0-------|-----0-----------3--------------|-----0----0----0-----------0---|
F#|-0--------0----0----0-------|-----0---1---1---3--------------|-----0----0----0-----------0---|
 B|-0--------0----0----0-------|-----0---1---1---3--------------|-----0----0----0-----------0---|


C#|----------------------------|---------------------------|-------------------------------|
G#|----------------------------|---------------------------|-------------------------------|
 E|----------------------------|---------------------------|-------------------------------|
 B|-0--------0----0----0-------|-----0----------------3----|-----0----0----0-----------0---|
F#|-0--------0----0----0-------|-----0---1---0---6---------|-----0----0----0-----------0---|
 B|-0--------0----0----0-------|-----0---1---0---6---------|-----0----0----0-----------0---|


C#|----------------------------|--------------------------------|-------------------------------|
G#|----------------------------|--------------------------------|-------------------------------|
 E|----------------------------|----------------------5---5--5--|-------------------------------|
 B|-0--------0----0----0-------|-----0-----------3--------------|-----0----0----0-----------0---|
F#|-0--------0----0----0-------|-----0---1---1---3--------------|-----0----0----0-----------0---|
 B|-0--------0----0----0-------|-----0---1---1---3--------------|-----0----0----0-----------0---|


C#|----------------------------|-----------------------------------------|-------------------------------|
G#|----------------------------|-----------------------------------------|-------------------------------|
 E|----------------------------|-----------------------------------------|-------------------------------|
 B|-0--------0----0----0-------|-----0-----------------------------------|-----1----1----1-----------1---|
F#|-0--------0----0----0-------|-----0---1---0---6---6---6---3---3---3---|-----1----1----1-----------1---|
 B|-0--------0----0----0-------|-----0---1---0---6---6---6---3---3---3---|-----1----1----1-----------1---|


C#|----------------------------|--------------------------------|-------------------------------|
G#|----------------------------|--------------------------------|-------------------------------|
 E|----------------------------|----------------------5---5--5--|-------------------------------|
 B|-1--------1----1----1-------|-----1-----------3--------------|-----1----1----1-----------1---|
F#|-1--------1----1----1-------|-----1---3---1---3--------------|-----1----1----1-----------1---|
 B|-1--------1----1----1-------|-----1---3---1---3--------------|-----1----1----1-----------1---|


C#|----------------------------|---------------------------|--------|--------|--------|
G#|----------------------------|---------------------------|--------|--------|--------|
 E|----------------------------|---------------------------|--------|--------|--------|
 B|-1--------1----1----1-------|-----1---------------------|--------|--------|--------|
F#|-1--------1----1----1-------|-----1---3---1---6---------|--------|--------|--------|
 B|-1--------1----1----1-------|-----1---3---1---6----1----|--------|--------|--------|


C#|--------|--------|--------|--------|--------|--------|--------|--------|--------|
G#|--------|--------|--------|--------|--------|--------|--------|--------|--------|
 E|--------|--------|--------|--------|--------|--------|--------|--------|--------|
 B|--------|--------|--------|--------|--------|--------|--------|--------|--------|
F#|--------|--------|--------|--------|--------|--------|--------|--------|--------|
 B|--------|--------|--------|--------|--------|--------|--------|--------|--------|


C#|--------|---------------------------------|---------------------------------|---------------------------------|
G#|--------|---------------------------------|---------------------------------|---------------------------------|
 E|--------|---------------------------------|---------------------------------|---------------------------------|
 B|--------|-0---0---0---0---0---0---0---0---|-0---0---0---0---0---0---0---3---|-3---3---3---3---3---3---3---6---|
F#|--------|-0---0---0---0---0---0---0---0---|-0---0---0---0---0---0---0---3---|-3---3---3---3---3---3---3---6---|
 B|--------|-0---0---0---0---0---0---0---0---|-0---0---0---0---0---0---0---3---|-3---3---3---3---3---3---3---6---|


C#|---------------------------------|---------------------------------|---------------------------------|
G#|---------------------------------|---------------------------------|---------------------------------|
 E|---------------------------------|---------------------------------|---------------------------------|
 B|-6---1---1---1---1---3---1---0---|-0---0---0---0---0---0---0---0---|-0---0---0---0---0---0---0---3---|
F#|-6---1---1---1---1---3---1---0---|-0---0---0---0---0---0---0---0---|-0---0---0---0---0---0---0---3---|
 B|-6---1---1---1---1---3---1---0---|-0---0---0---0---0---0---0---0---|-0---0---0---0---0---0---0---3---|


C#|---------------------------------|---------------------------------|---------------------------------|
G#|---------------------------------|---------------------------------|---------------------------------|
 E|---------------------------------|---------------------------------|---------------------------------|
 B|-3---3---3---3---3---3---3---6---|-6---1---1---1---1---3---1---1---|-----0----0----0-----------------|
F#|-3---3---3---3---3---3---3---6---|-6---1---1---1---1---3---1---1---|-----0----0----0-----------0--0--|
 B|-3---3---3---3---3---3---3---6---|-6---1---1---1---1---3---1---1---|-----0----0----0-----------0--0--|


C#|------------------------------|--------------------------------|---------------------------------|
G#|------------------------------|--------------------------------|---------------------------------|
 E|------------------------------|----------------------5---5--5--|---------------------------------|
 B|------------0----0----0-------|-----0-----------3--------------|-----0----0----0-----------------|
F#|-0--0-------0----0----0-------|-----0---1---1---3--------------|-----0----0----0-----------0--0--|
 B|-0--0-------0----0----0-------|-----0---1---1---3--------------|-----0----0----0-----------0--0--|


C#|------------------------------|---------------------------|
G#|------------------------------|---------------------------|
 E|------------------------------|---------------------------|
 B|------------0----0----0-------|-----0----------------3----|
F#|-0--0-------0----0----0-------|-----0---1---0---6---------|
 B|-0--0-------0----0----0-------|-----0---1---0---6---------|





Track 4: w/finger

 E|--------|--------|--------|--------|--------|--------|--------|--------|---------------------------------|
 B|--------|--------|--------|--------|--------|--------|--------|--------|---------------------------------|
F#|--------|--------|--------|--------|--------|--------|--------|--------|---------------------------------|
 B|--------|--------|--------|--------|--------|--------|--------|--------|-0---0---0---0---0---0---0---0---|


 E|---------------------------------|---------------------------------|---------------------------------|
 B|---------------------------------|---------------------------------|---------------------------------|
F#|---------------------------------|---------------------------------|---------------------------------|
 B|-0---0---0---0---0---0---0---3---|-3---3---3---3---3---3---3---6---|-6---1---1---1---1---3---1---0---|


 E|---------------------------------|---------------------------------|---------------------------------|
 B|---------------------------------|---------------------------------|---------------------------------|
F#|---------------------------------|---------------------------------|---------------------------------|
 B|-0---0---0---0---0---0---0---0---|-0---0---0---0---0---0---0---3---|-3---3---3---3---3---3---3---6---|


 E|---------------------------------|-----------------------------|----------------------------|
 B|---------------------------------|-----------------------------|----------------------------|
F#|---------------------------------|-----------------------------|----------------------------|
 B|-6---1---1---1---1---3---1---0---|-----0----0----0---------0---|-0--------0----0----0-------|


 E|---------------------------|-----------------------------|----------------------------|
 B|---------------------------|-----------------------------|----------------------------|
F#|----------------------3----|-----------------------------|----------------------------|
 B|-----0---1---1---3---------|-----0----0----0---------0---|-0--------0----0----0-------|


 E|---------------------------|--------|--------|---------------------|---------------------|
 B|---------------------------|--------|--------|---------------------|---------------------|
F#|---------------------------|--------|--------|---------------------|---------------------|
 B|-----0---1---1---6----1----|--------|--------|-7-----10---5----7---|-3----5---1----0-----|


 E|---------------------|---------------------|---------------------|---------------------|
 B|---------------------|---------------------|---------------------|---------------------|
F#|---------------------|---------------------|---------------------|---------------------|
 B|-7-----10---5----7---|-3----5---1----0-----|-7-----10---5----7---|-3----5---1----0-----|


 E|---------------------|---------------------|---------------------|---------------------|
 B|---------------------|---------------------|---------------------|---------------------|
F#|---------------------|---------------------|---------------------|---------------------|
 B|-7-----10---5----7---|-3----5---1----0-----|-7-----10---5----7---|-3----5---1----0-----|


 E|---------------------|---------------------|---------------------|---------------------|
 B|---------------------|---------------------|---------------------|---------------------|
F#|---------------------|---------------------|---------------------|---------------------|
 B|-7-----10---5----7---|-3----5---1----0-----|-7-----10---5----7---|-3----5---1----0-----|


 E|---------------------|---------------------|-------------------------------------|
 B|---------------------|---------------------|-------------------------------------|
F#|---------------------|---------------------|-------------------------------------|
 B|-7-----10---5----7---|-3----5---1----0-----|-3---3---3--3---3--3---3---3--3---3--|


 E|-----------------------------------|---------------------------------|---------------------------------|
 B|-----------------------------------|---------------------------------|---------------------------------|
F#|-----------------------------------|---------------------------------|---------------------------------|
 B|-3---3---3--3---3--2---2---1---1---|-0---0---0---0---0---0---0---0---|-0---0---0---0---0---0---0---3---|


 E|---------------------------------|---------------------------------|---------------------------------|
 B|---------------------------------|---------------------------------|---------------------------------|
F#|---------------------------------|---------------------------------|---------------------------------|
 B|-3---3---3---3---3---3---3---6---|-6---1---1---1---1---3---1---0---|-0---0---0---0---0---0---0---0---|


 E|---------------------------------|---------------------------------|---------------------------------|
 B|---------------------------------|---------------------------------|---------------------------------|
F#|---------------------------------|---------------------------------|---------------------------------|
 B|-0---0---0---0---0---0---0---3---|-3---3---3---3---3---3---3---6---|-6---1---1---1---1---3---1---1---|


 E|---------------------------|--------|--------|--------------------------|-------------------------------------------------|
 B|---------------------------|--------|--------|--------------------------|-------------------------------------------------|
F#|---------------------------|--------|--------|--------------------------|-------------------------------------------------|
 B|-0--0--0--0--0-------------|--------|--------|-3----5----1----0---------|-7--7--7--7--7--7--10-10-10-10-5--5--5--5--7--7--|


 E|-------------------------------------------------|-------------------------------------------------|
 B|-------------------------------------------------|-------------------------------------------------|
F#|-------------------------------------------------|-------------------------------------------------|
 B|-3--3--3--3--5--5--1--1--1--1--0--0--0--0--0--0--|-7--7--7--7--7--7--10-10-10-10-5--5--5--5--7--7--|


 E|-------------------------------------------------|-------------------------------------------------|
 B|-------------------------------------------------|-------------------------------------------------|
F#|-------------------------------------------------|-------------------------------------------------|
 B|-3--3--3--3--5--5--1--1--1--1--0--0--0--0--0--0--|-7--7--7--7--7--7--10-10-10-10-5--5--5--5--7--7--|


 E|-------------------------------------------------|-------------------------------------------------|
 B|-------------------------------------------------|-------------------------------------------------|
F#|-------------------------------------------------|-------------------------------------------------|
 B|-3--3--3--3--5--5--1--1--1--1--0--0--0--0--0--0--|-7--7--7--7--7--7--10-10-10-10-5--5--5--5--7--7--|


 E|-------------------------------------------------|-------------------------------------|
 B|-------------------------------------------------|-------------------------------------|
F#|-------------------------------------------------|-------------------------------------|
 B|-3--3--3--3--5--5--1--1--1--1--0--0--0--0--0--0--|-3---3---3--3---3--3---3---3--3---3--|


 E|-----------------------------------|---------------------------------|---------------------------------|
 B|-----------------------------------|---------------------------------|---------------------------------|
F#|-----------------------------------|---------------------------------|---------------------------------|
 B|-3---3---3--3---3--2---2---1---1---|-0---0---0---0---0---0---0---0---|-0---0---0---0---0---0---0---3---|


 E|---------------------------------|---------------------------------|---------------------------------|
 B|---------------------------------|---------------------------------|---------------------------------|
F#|---------------------------------|---------------------------------|---------------------------------|
 B|-3---3---3---3---3---3---3---6---|-6---1---1---1---1---3---1---0---|-0---0---0---0---0---0---0---0---|


 E|---------------------------------|---------------------------------|---------------------------------|
 B|---------------------------------|---------------------------------|---------------------------------|
F#|---------------------------------|---------------------------------|---------------------------------|
 B|-0---0---0---0---0---0---0---3---|-3---3---3---3---3---3---3---6---|-6---1---1---1---1---3---1---0---|


 E|---------------------------------|---------------------------|---------------------------------|
 B|---------------------------------|---------------------------|---------------------------------|
F#|-----12--12--5---5---8---8---12--|-12--13--12--12--12--------|---------------------------------|
 B|-0-------------------------------|-----------------------3---|-3---3---3---3---3---3---3---6---|


 E|---------------------------------|---------------------------------|---------------------------|
 B|---------------------------------|---------------------------------|---------------------------|
F#|---------------------------------|-----12--12--5---5---8---8---12--|-12--13--12--12--12--------|
 B|-6---1---1---1---1---3---1---0---|-0-------------------------------|-----------------------3---|


 E|---------------------------------|---------------------------------|-----------------------------|
 B|---------------------------------|---------------------------------|-----------------------------|
F#|---------------------------------|---------------------------------|-----------------------------|
 B|-3---3---3---3---3---3---3---6---|-6---1---1---1---1---3---1---1---|-----0----0----0---------0---|


 E|----------------------------|---------------------------|-----------------------------|
 B|----------------------------|---------------------------|-----------------------------|
F#|----------------------------|----------------------3----|-----------------------------|
 B|-0--------0----0----0-------|-----0---1---1---3---------|-----0----0----0---------0---|


 E|----------------------------|---------------------------|-----------------------------|
 B|----------------------------|---------------------------|-----------------------------|
F#|----------------------------|---------------------------|-----------------------------|
 B|-0--------0----0----0-------|-----0---1---1---6----1----|-----0----0----0---------0---|


 E|----------------------------|---------------------------|-----------------------------|
 B|----------------------------|---------------------------|-----------------------------|
F#|----------------------------|----------------------3----|-----------------------------|
 B|-0--------0----0----0-------|-----0---1---1---3---------|-----0----0----0---------0---|


 E|----------------------------|---------------------------|-----------------------------|
 B|----------------------------|---------------------------|-----------------------------|
F#|----------------------------|---------------------------|-----------------------------|
 B|-0--------0----0----0-------|-----0---1---1---6----1----|-----1----1----1---------1---|


 E|----------------------------|---------------------------|-----------------------------|
 B|----------------------------|---------------------------|-----------------------------|
F#|----------------------------|----------------------3----|-----------------------------|
 B|-1--------1----1----1-------|-----1---3---1---3---------|-----1----1----1---------1---|


 E|----------------------------|---------------------------|-------------------------------------|
 B|----------------------------|---------------------------|-------------------------------------|
F#|----------------------------|---------------------------|-------------------------------------|
 B|-1--------1----1----1-------|-----1---3---1---6----1----|-3---3---3--3---3--3---3---3--3---3--|


 E|-----------------------------------|-------------------------------------------------|
 B|-----------------------------------|-------------------------------------------------|
F#|-----------------------------------|-------------------------------------------------|
 B|-3---3---3--3---3--2---2---1---1---|-0--0--0--3--3--3--1--1--1--5--5--5--3--3--6--6--|


 E|-------------------------------------------------|--------|---------------------------------|
 B|-------------------------------------------------|--------|---------------------------------|
F#|-------------------------------------------------|--------|---------------------------------|
 B|-12-12-12-7--7--7--10-10-10-5--5--5--3--3--6--6--|--------|-0---0---0---0---0---0---0---0---|


 E|---------------------------------|---------------------------------|---------------------------------|
 B|---------------------------------|---------------------------------|---------------------------------|
F#|---------------------------------|---------------------------------|---------------------------------|
 B|-0---0---0---0---0---0---0---3---|-3---3---3---3---3---3---3---6---|-6---1---1---1---1---3---1---0---|


 E|---------------------------------|---------------------------------|---------------------------------|
 B|---------------------------------|---------------------------------|---------------------------------|
F#|---------------------------------|---------------------------------|---------------------------------|
 B|-0---0---0---0---0---0---0---0---|-0---0---0---0---0---0---0---3---|-3---3---3---3---3---3---3---6---|


 E|---------------------------------|---------------------------------|---------------------------|
 B|---------------------------------|---------------------------------|---------------------------|
F#|---------------------------------|-----12--12--5---5---8---8---12--|-12--13--12--12--12--------|
 B|-6---1---1---1---1---3---1---0---|-0-------------------------------|-----------------------3---|


 E|---------------------------------|---------------------------------|---------------------------------|
 B|---------------------------------|---------------------------------|---------------------------------|
F#|---------------------------------|---------------------------------|-----12--12--5---5---8---8---12--|
 B|-3---3---3---3---3---3---3---6---|-6---1---1---1---1---3---1---0---|-0-------------------------------|


 E|---------------------------|---------------------------------|---------------------------------|
 B|---------------------------|---------------------------------|---------------------------------|
F#|-12--13--12--12--12--------|---------------------------------|---------------------------------|
 B|-----------------------3---|-3---3---3---3---3---3---3---6---|-6---1---1---1---1---3---1---1---|


 E|-------------------------------|------------------------------|---------------------------|
 B|-------------------------------|------------------------------|---------------------------|
F#|-------------------------------|------------------------------|----------------------3----|
 B|-----0----0----0---------0--0--|-0--0-------0----0----0-------|-----0---1---1---3---------|


 E|-------------------------------|------------------------------|---------------------------|
 B|-------------------------------|------------------------------|---------------------------|
F#|-------------------------------|------------------------------|---------------------------|
 B|-----0----0----0---------0--0--|-0--0-------0----0----0-------|-----0---1---1---6----1----|