Menu:

 

Search:

 

slipknot - diluted:

 



Title: Diluted
Artist: 
Album: Slipknot
Author: Slipknot


Track 1: Guitar 1

C#|---------------------------------------|---------------------------------------|
G#|---------------------------------------|---------------------------------------|
 E|---------------------------------------|---------------------------------------|
 B|---------------------------------------|---------------------------------------|
F#|-0--1---0--1---0--1--1--0--------------|-0--1---0--1---0--1--1--0--------------|
 B|-0--1---0--1---0--1--1--0--1---1---1---|-0--1---0--1---0--1--1--0--1---1---1---|


C#|---------------------------------------|---------------------------------------|
G#|---------------------------------------|---------------------------------------|
 E|---------------------------------------|---------------------------------------|
 B|---------------------------------------|---------------------------------------|
F#|-0--1---0--1---0--1--1--0--------------|-0--1---0--1---0--1--1--0--------------|
 B|-0--1---0--1---0--1--1--0--1---1---1---|-0--1---0--1---0--1--1--0--1---1---1---|


C#|---------------------------------------|---------------------------------------|
G#|---------------------------------------|---------------------------------------|
 E|---------------------------------------|---------------------------------------|
 B|---------------------------------------|---------------------------------------|
F#|-0--1---0--1---0--1--1--0--------------|-0--1---0--1---0--1--1--0--------------|
 B|-0--1---0--1---0--1--1--0--1---1---1---|-0--1---0--1---0--1--1--0--1---1---1---|


C#|---------------------------------------|---------------------------------------|
G#|---------------------------------------|---------------------------------------|
 E|---------------------------------------|---------------------------------------|
 B|---------------------------------------|---------------------------------------|
F#|-0--1---0--1---0--1--1--0--------------|-0--1---0--1---0--1--1--0--------------|
 B|-0--1---0--1---0--1--1--0--1---1---1---|-0--1---0--1---0--1--1--0--1---1---1---|


C#|---------------------------------------|---------------------------------------|
G#|---------------------------------------|---------------------------------------|
 E|---------------------------------------|---------------------------------------|
 B|---------------------------------------|---------------------------------------|
F#|-0--1---0--1---0--1--1--0--------------|-0--1---0--1---0--1--1--0--------------|
 B|-0--1---0--1---0--1--1--0--1---1---1---|-0--1---0--1---0--1--1--0--1---1---1---|


C#|---------------------------------------|---------------------------------------|
G#|---------------------------------------|---------------------------------------|
 E|---------------------------------------|---------------------------------------|
 B|---------------------------------------|---------------------------------------|
F#|-0--1---0--1---0--1--1--0--------------|-0--1---0--1---0--1--1--0--------------|
 B|-0--1---0--1---0--1--1--0--1---1---1---|-0--1---0--1---0--1--1--0--1---1---1---|


C#|---------------------------------------|------------------------------------|--------|
G#|---------------------------------------|------------------------------------|--------|
 E|---------------------------------------|------------------------------------|--------|
 B|---------------------------------------|------------------------------------|--------|
F#|-0--1---0--1---0--1--1--0--------------|-0--1---0--1---0--1--1--0-----------|--------|
 B|-0--1---0--1---0--1--1--0--1---1---1---|-0--1---0--1---0--1--1--0--1---8----|-8------|


C#|-----------------|-----------------|---------------------|---------------------|
G#|-----------------|-----------------|---------------------|---------------------|
 E|-----------------|-----------------|---------------------|---------------------|
 B|------------20---|------------20---|---------------------|---------------------|
F#|-----------------|-----------------|---------------------|---------------------|
 B|-----------------|-----------------|-1----1----1----1----|-1----1----1----1----|


C#|---------------------|---------------------|---------------------|---------------------|
G#|---------------------|---------------------|---------------------|---------------------|
 E|---------------------|---------------------|---------------------|---------------------|
 B|---------------------|---------------------|---------------------|---------------------|
F#|---------------------|---------------------|---------------------|---------------------|
 B|-1----1----1----1----|-1----0----0----0----|-1----1----1----1----|-1----1----1----1----|


C#|---------------------|---------------------|---------------------|---------------------------------------|
G#|---------------------|---------------------|---------------------|---------------------------------------|
 E|---------------------|---------------------|---------------------|---------------------------------------|
 B|---------------------|---------------------|---------------------|---------------------------------------|
F#|---------------------|---------------------|---------------------|-0--1---0--1---0--1--1--0--------------|
 B|-1----1----1----1----|-1----0----0----0----|-1----1----1----1----|-0--1---0--1---0--1--1--0--1---1---1---|


C#|---------------------------------------|---------------------------------------|
G#|---------------------------------------|---------------------------------------|
 E|---------------------------------------|---------------------------------------|
 B|---------------------------------------|---------------------------------------|
F#|-0--1---0--1---0--1--1--0--------------|-0--1---0--1---0--1--1--0--------------|
 B|-0--1---0--1---0--1--1--0--1---1---1---|-0--1---0--1---0--1--1--0--1---1---1---|


C#|---------------------------------------|---------------------------------------|
G#|---------------------------------------|---------------------------------------|
 E|---------------------------------------|---------------------------------------|
 B|---------------------------------------|---------------------------------------|
F#|-0--1---0--1---0--1--1--0--------------|-0--1---0--1---0--1--1--0--------------|
 B|-0--1---0--1---0--1--1--0--1---1---1---|-0--1---0--1---0--1--1--0--1---1---1---|


C#|---------------------------------------|---------------------------------------|
G#|---------------------------------------|---------------------------------------|
 E|---------------------------------------|---------------------------------------|
 B|---------------------------------------|---------------------------------------|
F#|-0--1---0--1---0--1--1--0--------------|-0--1---0--1---0--1--1--0--------------|
 B|-0--1---0--1---0--1--1--0--1---1---1---|-0--1---0--1---0--1--1--0--1---1---1---|


C#|---------------------------------------|-------------------------------------------------|
G#|---------------------------------------|-------------------------------------------------|
 E|---------------------------------------|-------------------------------------------------|
 B|---------------------------------------|-------------------------------------------------|
F#|-0--1---0--1---0--1--1--0--------------|-1--1--1--1--1--1--1--1--1--1--1--1--1--1--1--1--|
 B|-0--1---0--1---0--1--1--0--1---1---1---|-------------------------------------------------|


C#|-------------------------------------------------|-------------------------------------------------|
G#|-------------------------------------------------|-------------------------------------------------|
 E|-------------------------------------------------|-------------------------------------------------|
 B|-------------------------------------------------|-------------------------------------------------|
F#|-1--1--1--1--1--1--1--1--1--1--1--1--1--1--1--1--|-1--1--1--1--1--1--1--1--1--1--1--1--1--1--1--1--|
 B|-------------------------------------------------|-------------------------------------------------|


C#|-------------------------------------------------|-------------------------------------------------|
G#|-------------------------------------------------|-------------------------------------------------|
 E|-------------------------------------------------|-------------------------------------------------|
 B|-------------------------------------------------|-------------------------------------------------|
F#|-1--1--1--1--1--1--1--1--1--1--1--1--1--1--1--1--|-1--1--1--1--1--1--1--1--1--1--1--1--1--1--1--1--|
 B|-------------------------------------------------|-------------------------------------------------|


C#|-------------------------------------------------|-------------------------------------------------|
G#|-------------------------------------------------|-------------------------------------------------|
 E|-------------------------------------------------|-------------------------------------------------|
 B|-------------------------------------------------|-------------------------------------------------|
F#|-1--1--1--1--1--1--1--1--1--1--1--1--1--1--1--1--|-1--1--1--1--1--1--1--1--1--1--1--1--1--1--1--1--|
 B|-------------------------------------------------|-------------------------------------------------|


C#|-------------------------------------------------|---------------------------|---------------------------|
G#|-------------------------------------------------|---------------------------|---------------------------|
 E|-------------------------------------------------|---------------------------|---------------------------|
 B|-------------------------------------------------|---------------------------|---------------------------|
F#|-1--1--1--1--1--1--1--1--1--1--1--1--1--1--1--1--|-2-----1---1---2---2--2----|-2-----1---1---2---2--2----|
 B|-------------------------------------------------|-2-----1---1---2---2--2----|-2-----1---1---2---2--2----|


C#|---------------------------|---------------------------|--------------------|--------|
G#|---------------------------|---------------------------|--------------------|--------|
 E|---------------------------|---------------------------|--------------------|--------|
 B|---------------------------|---------------------------|--------------------|--------|
F#|-2-----1---1---2---2--2----|-2-----1---1---2---2--2----|-2------------------|--------|
 B|-2-----1---1---2---2--2----|-2-----1---1---2---2--2----|-2------------------|--------|


C#|--------|--------|--------------------|--------|---------------------------|---------------------------|
G#|--------|--------|--------------------|--------|---------------------------|---------------------------|
 E|--------|--------|--------------------|--------|---------------------------|---------------------------|
 B|--------|--------|--------------------|--------|---------------------------|---------------------------|
F#|--------|--------|-2------------------|--------|-2----1---2---2---2---1----|-2----1---2---2---2---1----|
 B|--------|--------|-2------------------|--------|-2----1---2---2---2---1----|-2----1---2---2---2---1----|


C#|---------------------------|---------------------------|---------------------------|
G#|---------------------------|---------------------------|---------------------------|
 E|---------------------------|---------------------------|---------------------------|
 B|---------------------------|---------------------------|---------------------------|
F#|-2----1---2---2---2---1----|-2----1---2---2---2---1----|-2----1---2---2---2---1----|
 B|-2----1---2---2---2---1----|-2----1---2---2---2---1----|-2----1---2---2---2---1----|


C#|---------------------------|---------------------------|---------------------------|
G#|---------------------------|---------------------------|---------------------------|
 E|---------------------------|---------------------------|---------------------------|
 B|---------------------------|---------------------------|---------------------------|
F#|-2----1---2---2---2---1----|-2----1---2---2---2---1----|-2----1---2---2---2---1----|
 B|-2----1---2---2---2---1----|-2----1---2---2---2---1----|-2----1---2---2---2---1----|


C#|----------------|---------------------------|---------------------------|---------------------------|
G#|----------------|---------------------------|---------------------------|---------------------------|
 E|----------------|---------------------------|---------------------------|---------------------------|
 B|----------------|---------------------------|---------------------------|---------------------------|
F#|--------3---1---|-2----1---2---2---2---1----|-2----1---2---2---2---1----|-2----1---2---2---2---1----|
 B|--------3---1---|-2----1---2---2---2---1----|-2----1---2---2---2---1----|-2----1---2---2---2---1----|


C#|---------------------------|---------------------------|---------------------------|
G#|---------------------------|---------------------------|---------------------------|
 E|---------------------------|---------------------------|---------------------------|
 B|---------------------------|---------------------------|---------------------------|
F#|-2----1---2---2---2---1----|-2----1---2---2---2---1----|-2----1---2---2---2---1----|
 B|-2----1---2---2---2---1----|-2----1---2---2---2---1----|-2----1---2---2---2---1----|


C#|---------------------------|---------------------------|-------------------------------------------------|
G#|---------------------------|---------------------------|-------------------------------------------------|
 E|---------------------------|---------------------------|-------------------------------------------------|
 B|---------------------------|---------------------------|-------------------------------------------------|
F#|-2----1---2---2---2---1----|-2----1---2---2---2---1----|-1--1--1--1--1--1--1--1--1--1--1--1--1--1--1--1--|
 B|-2----1---2---2---2---1----|-2----1---2---2---2---1----|-------------------------------------------------|


C#|-------------------------------------------------|-------------------------------------------------|
G#|-------------------------------------------------|-------------------------------------------------|
 E|-------------------------------------------------|-------------------------------------------------|
 B|-------------------------------------------------|-------------------------------------------------|
F#|-1--1--1--1--1--1--1--1--1--1--1--1--1--1--1--1--|-1--1--1--1--1--1--1--1--1--1--1--1--1--1--1--1--|
 B|-------------------------------------------------|-------------------------------------------------|


C#|-------------------------------------------------|-------------------------------------------------|
G#|-------------------------------------------------|-------------------------------------------------|
 E|-------------------------------------------------|-------------------------------------------------|
 B|-------------------------------------------------|-------------------------------------------------|
F#|-1--1--1--1--1--1--1--1--1--1--1--1--1--1--1--1--|-1--1--1--1--1--1--1--1--1--1--1--1--1--1--1--1--|
 B|-------------------------------------------------|-------------------------------------------------|


C#|-------------------------------------------------|-------------------------------------------------|
G#|-------------------------------------------------|-------------------------------------------------|
 E|-------------------------------------------------|-------------------------------------------------|
 B|-------------------------------------------------|-------------------------------------------------|
F#|-1--1--1--1--1--1--1--1--1--1--1--1--1--1--1--1--|-1--1--1--1--1--1--1--1--1--1--1--1--1--1--1--1--|
 B|-------------------------------------------------|-------------------------------------------------|


C#|-------------------------------------------------|---------------------------|---------------------------|
G#|-------------------------------------------------|---------------------------|---------------------------|
 E|-------------------------------------------------|---------------------------|---------------------------|
 B|-------------------------------------------------|---------------------------|---------------------------|
F#|-1--1--1--1--1--1--1--1--1--1--1--1--1--1--1--1--|-2-----1---1---2---2--2----|-2-----1---1---2---2--2----|
 B|-------------------------------------------------|-2-----1---1---2---2--2----|-2-----1---1---2---2--2----|


C#|---------------------------|---------------------------|---------------------------|
G#|---------------------------|---------------------------|---------------------------|
 E|---------------------------|---------------------------|---------------------------|
 B|---------------------------|---------------------------|---------------------------|
F#|-2-----1---1---2---2--2----|-2-----1---1---2---2--2----|-2-----1---1---2---2--2----|
 B|-2-----1---1---2---2--2----|-2-----1---1---2---2--2----|-2-----1---1---2---2--2----|


C#|---------------------------|---------------------------|---------------------------|
G#|---------------------------|---------------------------|---------------------------|
 E|---------------------------|---------------------------|---------------------------|
 B|---------------------------|---------------------------|---------------------------|
F#|-2-----1---1---2---2--2----|-2-----1---1---2---2--2----|-2-----1---1---2---2--2----|
 B|-2-----1---1---2---2--2----|-2-----1---1---2---2--2----|-2-----1---1---2---2--2----|


C#|---------------------------|---------------------------|---------------------------|
G#|---------------------------|---------------------------|---------------------------|
 E|---------------------------|---------------------------|---------------------------|
 B|---------------------------|---------------------------|---------------------------|
F#|-2-----1---1---2---2--2----|-2-----1---1---2---2--2----|-2-----1---1---2---2--2----|
 B|-2-----1---1---2---2--2----|-2-----1---1---2---2--2----|-2-----1---1---2---2--2----|


C#|---------------------------|---------------------|---------------------|---------------------|
G#|---------------------------|---------------------|---------------------|---------------------|
 E|---------------------------|---------------------|---------------------|---------------------|
 B|---------------------------|---------------------|---------------------|---------------------|
F#|-2-----1---1---2---2--2----|---------------------|---------------------|---------------------|
 B|-2-----1---1---2---2--2----|-1----1----1----1----|-1----1----1----1----|-1----1----1----1----|


C#|---------------------|---------------------|---------------------|---------------------|
G#|---------------------|---------------------|---------------------|---------------------|
 E|---------------------|---------------------|---------------------|---------------------|
 B|---------------------|---------------------|---------------------|---------------------|
F#|---------------------|---------------------|---------------------|---------------------|
 B|-1----0----0----0----|-1----1----1----1----|-1----1----1----1----|-1----1----1----1----|


C#|------------------------------|
G#|------------------------------|
 E|------------------------------|
 B|------------------------------|
F#|------------------------------|
 B|-1----0--0---0---0------------|





Track 2: Guitar 2

C#|--------|--------|-------------------------|--------|--------|--------|--------|
G#|--------|--------|-------------------------|--------|--------|--------|--------|
 E|--------|--------|-------------------------|--------|--------|--------|--------|
 B|--------|--------|-------------------------|--------|--------|--------|--------|
F#|--------|--------|-----------1------1------|--------|--------|--------|--------|
 B|--------|--------|-----------1------1------|--------|--------|--------|--------|


C#|--------|--------|--------|--------|--------|--------|--------|--------|--------|
G#|--------|--------|--------|--------|--------|--------|--------|--------|--------|
 E|--------|--------|--------|--------|--------|--------|--------|--------|--------|
 B|--------|--------|--------|--------|--------|--------|--------|--------|--------|
F#|--------|--------|--------|--------|--------|--------|--------|--------|--------|
 B|--------|--------|--------|--------|--------|--------|--------|--------|--------|


C#|--------|--------|--------|--------|--------|--------|--------|--------|--------|
G#|--------|--------|--------|--------|--------|--------|--------|--------|--------|
 E|--------|--------|--------|--------|--------|--------|--------|--------|--------|
 B|--------|--------|--------|--------|--------|--------|--------|--------|--------|
F#|--------|--------|--------|--------|--------|--------|--------|--------|--------|
 B|--------|--------|--------|--------|--------|--------|--------|--------|--------|


C#|--------|--------|--------|--------|--------|--------|--------|--------|--------|
G#|--------|--------|--------|--------|--------|--------|--------|--------|--------|
 E|--------|--------|--------|--------|--------|--------|--------|--------|--------|
 B|--------|--------|--------|--------|--------|--------|--------|--------|--------|
F#|--------|--------|--------|--------|--------|--------|--------|--------|--------|
 B|--------|--------|--------|--------|--------|--------|--------|--------|--------|


C#|--------|--------|--------|--------|--------|--------|--------|--------|--------|
G#|--------|--------|--------|--------|--------|--------|--------|--------|--------|
 E|--------|--------|--------|--------|--------|--------|--------|--------|--------|
 B|--------|--------|--------|--------|--------|--------|--------|--------|--------|
F#|--------|--------|--------|--------|--------|--------|--------|--------|--------|
 B|--------|--------|--------|--------|--------|--------|--------|--------|--------|


C#|--------|--------|--------|--------|--------|--------|--------|--------|--------|
G#|--------|--------|--------|--------|--------|--------|--------|--------|--------|
 E|--------|--------|--------|--------|--------|--------|--------|--------|--------|
 B|--------|--------|--------|--------|--------|--------|--------|--------|--------|
F#|--------|--------|--------|--------|--------|--------|--------|--------|--------|
 B|--------|--------|--------|--------|--------|--------|--------|--------|--------|


C#|--------|--------|--------|--------|--------|--------|--------|--------|--------------------------------------|
G#|--------|--------|--------|--------|--------|--------|--------|--------|--------------------------------------|
 E|--------|--------|--------|--------|--------|--------|--------|--------|--------------------------------------|
 B|--------|--------|--------|--------|--------|--------|--------|--------|--------------5--5--5--5--5--5--------|
F#|--------|--------|--------|--------|--------|--------|--------|--------|--------5--5--5--5--5--5--5--5--------|
 B|--------|--------|--------|--------|--------|--------|--------|--------|-5--5---------------------------------|


C#|--------|--------|--------|--------|--------|--------|--------|--------|--------|
G#|--------|--------|--------|--------|--------|--------|--------|--------|--------|
 E|--------|--------|--------|--------|--------|--------|--------|--------|--------|
 B|--------|--------|--------|--------|--------|--------|--------|--------|--------|
F#|--------|--------|--------|--------|--------|--------|--------|--------|--------|
 B|--------|--------|--------|--------|--------|--------|--------|--------|--------|


C#|--------|--------|--------|--------|--------|--------|--------|--------|--------|
G#|--------|--------|--------|--------|--------|--------|--------|--------|--------|
 E|--------|--------|--------|--------|--------|--------|--------|--------|--------|
 B|--------|--------|--------|--------|--------|--------|--------|--------|--------|
F#|--------|--------|--------|--------|--------|--------|--------|--------|--------|
 B|--------|--------|--------|--------|--------|--------|--------|--------|--------|


C#|--------|--------|--------|--------|--------|--------|--------|--------|--------|
G#|--------|--------|--------|--------|--------|--------|--------|--------|--------|
 E|--------|--------|--------|--------|--------|--------|--------|--------|--------|
 B|--------|--------|--------|--------|--------|--------|--------|--------|--------|
F#|--------|--------|--------|--------|--------|--------|--------|--------|--------|
 B|--------|--------|--------|--------|--------|--------|--------|--------|--------|


C#|--------|--------|--------|--------|--------|--------|--------|--------|--------|
G#|--------|--------|--------|--------|--------|--------|--------|--------|--------|
 E|--------|--------|--------|--------|--------|--------|--------|--------|--------|
 B|--------|--------|--------|--------|--------|--------|--------|--------|--------|
F#|--------|--------|--------|--------|--------|--------|--------|--------|--------|
 B|--------|--------|--------|--------|--------|--------|--------|--------|--------|





Track 3: Bass

 E|---------------------------------------|---------------------------------------|
 B|---------------------------------------|---------------------------------------|
F#|---------------------------------------|---------------------------------------|
 B|-0--1---0--1---0--1--1--0--1---1---1---|-0--1---0--1---0--1--1--0--1---1---1---|


 E|---------------------------------------|---------------------------------------|
 B|---------------------------------------|---------------------------------------|
F#|---------------------------------------|---------------------------------------|
 B|-0--1---0--1---0--1--1--0--1---1---1---|-0--1---0--1---0--1--1--0--1---1---1---|


 E|---------------------------------------|---------------------------------------|
 B|---------------------------------------|---------------------------------------|
F#|---------------------------------------|---------------------------------------|
 B|-0--1---0--1---0--1--1--0--1---1---1---|-0--1---0--1---0--1--1--0--1---1---1---|


 E|---------------------------------------|---------------------------------------|
 B|---------------------------------------|---------------------------------------|
F#|---------------------------------------|---------------------------------------|
 B|-0--1---0--1---0--1--1--0--1---1---1---|-0--1---0--1---0--1--1--0--1---1---1---|


 E|---------------------------------------|---------------------------------------|
 B|---------------------------------------|---------------------------------------|
F#|---------------------------------------|---------------------------------------|
 B|-0--1---0--1---0--1--1--0--1---1---1---|-0--1---0--1---0--1--1--0--1---1---1---|


 E|---------------------------------------|---------------------------------------|
 B|---------------------------------------|---------------------------------------|
F#|---------------------------------------|---------------------------------------|
 B|-0--1---0--1---0--1--1--0--1---1---1---|-0--1---0--1---0--1--1--0--1---1---1---|


 E|---------------------------------------|------------------------------------|--------|
 B|---------------------------------------|------------------------------------|--------|
F#|---------------------------------------|------------------------------------|--------|
 B|-0--1---0--1---0--1--1--0--1---1---1---|-0--1---0--1---0--1--1--0--1---8----|-8------|


 E|------------------------|------------------------|---------------------|---------------------|
 B|------------------------|------------------------|---------------------|---------------------|
F#|------------------------|------------------------|---------------------|---------------------|
 B|-1--------2----2---0----|-1--------2----2---0----|-1----1----1----1----|-1----1----1----1----|


 E|---------------------|---------------------|---------------------|---------------------|
 B|---------------------|---------------------|---------------------|---------------------|
F#|---------------------|---------------------|---------------------|---------------------|
 B|-1----1----1----1----|-1----0----0----0----|-1----1----1----1----|-1----1----1----1----|


 E|---------------------|---------------------|---------------------|---------------------------------------|
 B|---------------------|---------------------|---------------------|---------------------------------------|
F#|---------------------|---------------------|---------------------|---------------------------------------|
 B|-1----1----1----1----|-1----0----0----0----|-1----1----1----1----|-0--1---0--1---0--1--1--0--1---1---1---|


 E|---------------------------------------|---------------------------------------|
 B|---------------------------------------|---------------------------------------|
F#|---------------------------------------|---------------------------------------|
 B|-0--1---0--1---0--1--1--0--1---1---1---|-0--1---0--1---0--1--1--0--1---1---1---|


 E|---------------------------------------|---------------------------------------|
 B|---------------------------------------|---------------------------------------|
F#|---------------------------------------|---------------------------------------|
 B|-0--1---0--1---0--1--1--0--1---1---1---|-0--1---0--1---0--1--1--0--1---1---1---|


 E|---------------------------------------|---------------------------------------|
 B|---------------------------------------|---------------------------------------|
F#|---------------------------------------|---------------------------------------|
 B|-0--1---0--1---0--1--1--0--1---1---1---|-0--1---0--1---0--1--1--0--1---1---1---|


 E|---------------------------------------|-------------------------------------------------|
 B|---------------------------------------|-------------------------------------------------|
F#|---------------------------------------|-------------------------------------------------|
 B|-0--1---0--1---0--1--1--0--1---1---1---|-1--1--1--1--1--1--1--1--1--1--1--1--1--1--1--1--|


 E|-------------------------------------------------|-------------------------------------------------|
 B|-------------------------------------------------|-------------------------------------------------|
F#|-------------------------------------------------|-------------------------------------------------|
 B|-1--1--1--1--1--1--1--1--1--1--1--1--1--1--1--1--|-1--1--1--1--1--1--1--1--1--1--1--1--1--1--1--1--|


 E|-------------------------------------------------|-------------------------------------------------|
 B|-------------------------------------------------|-------------------------------------------------|
F#|-------------------------------------------------|-------------------------------------------------|
 B|-1--1--1--1--1--1--1--1--1--1--1--1--1--1--1--1--|-1--1--1--1--1--1--1--1--1--1--1--1--1--1--1--1--|


 E|-------------------------------------------------|-------------------------------------------------|
 B|-------------------------------------------------|-------------------------------------------------|
F#|-------------------------------------------------|-------------------------------------------------|
 B|-1--1--1--1--1--1--1--1--1--1--1--1--1--1--1--1--|-1--1--1--1--1--1--1--1--1--1--1--1--1--1--1--1--|


 E|-------------------------------------------------|---------------------------|---------------------------|
 B|-------------------------------------------------|---------------------------|---------------------------|
F#|-------------------------------------------------|---------------------------|---------------------------|
 B|-1--1--1--1--1--1--1--1--1--1--1--1--1--1--1--1--|-2-----1---1---2---2--2----|-2-----1---1---2---2--2----|


 E|---------------------------|---------------------------|--------------------|--------|
 B|---------------------------|---------------------------|--------------------|--------|
F#|---------------------------|---------------------------|--------------------|--------|
 B|-2-----1---1---2---2--2----|-2-----1---1---2---2--2----|-2------------------|--------|


 E|--------|--------|--------------------|--------|---------------------------|---------------------------|
 B|--------|--------|--------------------|--------|---------------------------|---------------------------|
F#|--------|--------|--------------------|--------|---------------------------|---------------------------|
 B|--------|--------|-2------------------|--------|-2----1---2---2---2---1----|-2----1---2---2---2---1----|


 E|---------------------------|---------------------------|---------------------------|
 B|---------------------------|---------------------------|---------------------------|
F#|---------------------------|---------------------------|---------------------------|
 B|-2----1---2---2---2---1----|-2----1---2---2---2---1----|-2----1---2---2---2---1----|


 E|---------------------------|---------------------------|---------------------------|
 B|---------------------------|---------------------------|---------------------------|
F#|---------------------------|---------------------------|---------------------------|
 B|-2----1---2---2---2---1----|-2----1---2---2---2---1----|-2----1---2---2---2---1----|


 E|--------|---------------------------|---------------------------|---------------------------|
 B|--------|---------------------------|---------------------------|---------------------------|
F#|--------|---------------------------|---------------------------|---------------------------|
 B|--------|-2----1---2---2---2---1----|-2----1---2---2---2---1----|-2----1---2---2---2---1----|


 E|---------------------------|---------------------------|---------------------------|
 B|---------------------------|---------------------------|---------------------------|
F#|---------------------------|---------------------------|---------------------------|
 B|-2----1---2---2---2---1----|-2----1---2---2---2---1----|-2----1---2---2---2---1----|


 E|---------------------------|---------------------------|-------------------------------------------------|
 B|---------------------------|---------------------------|-------------------------------------------------|
F#|---------------------------|---------------------------|-------------------------------------------------|
 B|-2----1---2---2---2---1----|-2----1---2---2---2---1----|-1--1--1--1--1--1--1--1--1--1--1--1--1--1--1--1--|


 E|-------------------------------------------------|-------------------------------------------------|
 B|-------------------------------------------------|-------------------------------------------------|
F#|-------------------------------------------------|-------------------------------------------------|
 B|-1--1--1--1--1--1--1--1--1--1--1--1--1--1--1--1--|-1--1--1--1--1--1--1--1--1--1--1--1--1--1--1--1--|


 E|-------------------------------------------------|-------------------------------------------------|
 B|-------------------------------------------------|-------------------------------------------------|
F#|-------------------------------------------------|-------------------------------------------------|
 B|-1--1--1--1--1--1--1--1--1--1--1--1--1--1--1--1--|-1--1--1--1--1--1--1--1--1--1--1--1--1--1--1--1--|


 E|-------------------------------------------------|-------------------------------------------------|
 B|-------------------------------------------------|-------------------------------------------------|
F#|-------------------------------------------------|-------------------------------------------------|
 B|-1--1--1--1--1--1--1--1--1--1--1--1--1--1--1--1--|-1--1--1--1--1--1--1--1--1--1--1--1--1--1--1--1--|


 E|-------------------------------------------------|---------------------------|---------------------------|
 B|-------------------------------------------------|---------------------------|---------------------------|
F#|-------------------------------------------------|---------------------------|---------------------------|
 B|-1--1--1--1--1--1--1--1--1--1--1--1--1--1--1--1--|-2-----1---1---2---2--2----|-2-----1---1---2---2--2----|


 E|---------------------------|---------------------------|---------------------------|
 B|---------------------------|---------------------------|---------------------------|
F#|---------------------------|---------------------------|---------------------------|
 B|-2-----1---1---2---2--2----|-2-----1---1---2---2--2----|-2-----1---1---2---2--2----|


 E|---------------------------|---------------------------|---------------------------|
 B|---------------------------|---------------------------|---------------------------|
F#|---------------------------|---------------------------|---------------------------|
 B|-2-----1---1---2---2--2----|-2-----1---1---2---2--2----|-2-----1---1---2---2--2----|


 E|---------------------------|---------------------------|---------------------------|
 B|---------------------------|---------------------------|---------------------------|
F#|---------------------------|---------------------------|---------------------------|
 B|-2-----1---1---2---2--2----|-2-----1---1---2---2--2----|-2-----1---1---2---2--2----|


 E|---------------------------|---------------------|---------------------|---------------------|
 B|---------------------------|---------------------|---------------------|---------------------|
F#|---------------------------|---------------------|---------------------|---------------------|
 B|-2-----1---1---2---2--2----|-1----1----1----1----|-1----1----1----1----|-1----1----1----1----|


 E|---------------------|---------------------|---------------------|---------------------|
 B|---------------------|---------------------|---------------------|---------------------|
F#|---------------------|---------------------|---------------------|---------------------|
 B|-1----0----0----0----|-1----1----1----1----|-1----1----1----1----|-1----1----1----1----|


 E|------------------------------|
 B|------------------------------|
F#|------------------------------|
 B|-1----0--0---0---0------------|