Menu:

 

Search:

 

slipknot - circle:

 



Title: Circle
Artist: 
Album: Vol.3: (Subliminal Verses)
Author: Slipknot


Track 1: Untitled

C#|--------|--------|----------------|----------------|----------------|----------------|
G#|--------|--------|----------------|----------------|----------------|----------------|
 E|--------|--------|----------------|----------------|----------------|----------------|
 B|--------|-0------|-0---0---0------|-0---0---0------|-0---0---0------|-0---0---0------|
F#|--------|--------|----------------|----------------|----------------|----------------|
C#|--------|--------|----------------|----------------|----------------|----------------|


C#|----------------|--------|--------|--------|--------|--------|--------|--------|
G#|----------------|--------|--------|--------|--------|--------|--------|--------|
 E|----------------|--------|--------|--------|--------|--------|--------|--------|
 B|-0---0---0------|-0------|-0------|-0------|--------|--------|--------|--------|
F#|----------------|--------|--------|--------|--------|--------|--------|--------|
C#|----------------|--------|--------|--------|--------|--------|--------|--------|


C#|--------|--------|--------|--------|--------|--------|--------|--------|--------|
G#|--------|--------|--------|--------|--------|--------|--------|--------|--------|
 E|--------|--------|--------|--------|--------|--------|--------|--------|--------|
 B|--------|--------|--------|--------|--------|--------|--------|--------|--------|
F#|--------|--------|--------|--------|--------|--------|--------|--------|--------|
C#|--------|--------|--------|--------|--------|--------|--------|--------|--------|


C#|--------|--------|--------|--------|--------|--------|--------|--------|--------|
G#|--------|--------|--------|--------|--------|--------|--------|--------|--------|
 E|--------|--------|--------|--------|--------|--------|--------|--------|--------|
 B|--------|--------|--------|--------|--------|--------|--------|--------|--------|
F#|--------|--------|--------|--------|--------|--------|--------|--------|--------|
C#|--------|--------|--------|--------|--------|--------|--------|--------|--------|


C#|--------|--------|--------|--------|--------|--------|--------|--------|--------|
G#|--------|--------|--------|--------|--------|--------|--------|--------|--------|
 E|--------|--------|--------|--------|--------|--------|--------|--------|--------|
 B|--------|--------|--------|--------|--------|--------|--------|--------|--------|
F#|--------|--------|--------|--------|--------|--------|--------|--------|--------|
C#|--------|--------|--------|--------|--------|--------|--------|--------|--------|


C#|--------|--------|--------|--------|--------|--------|--------|--------|--------|
G#|--------|--------|--------|--------|--------|--------|--------|--------|--------|
 E|--------|--------|--------|--------|--------|--------|--------|--------|--------|
 B|--------|--------|--------|--------|--------|--------|--------|--------|--------|
F#|--------|--------|--------|--------|--------|--------|--------|--------|--------|
C#|--------|--------|--------|--------|--------|--------|--------|--------|--------|


C#|--------|--------|--------|--------|--------|--------|-----------------|-----------------|
G#|--------|--------|--------|--------|--------|--------|-------8---8-----|-------8---10----|
 E|--------|--------|--------|--------|--------|--------|-----------------|-----------------|
 B|--------|--------|--------|--------|--------|--------|-------5---5-----|-------5---7-----|
F#|--------|--------|--------|--------|--------|--------|-----------------|-----------------|
C#|--------|--------|--------|--------|--------|--------|-----------------|-----------------|


C#|-----------------|-----------------|-----------------|-------------|-------------|
G#|-------10--11----|-------11--13----|-----------3-----|-------3-----|-------3-----|
 E|-----------------|-----------------|-----------------|-------------|-------------|
 B|-------7---8-----|-------8---10----|-------5---5-----|-------5-----|-------5-----|
F#|-----------------|-----------------|-------5---5-----|-------5-----|-------5-----|
C#|-----------------|-----------------|-------3---3-----|-------3-----|-------3-----|


C#|-------------|-------------|--------|--------|--------|--------|--------|--------|
G#|-------3-----|-------------|--------|--------|--------|--------|--------|--------|
 E|-------------|-------------|--------|--------|--------|--------|--------|--------|
 B|-------5-----|-------------|--------|--------|--------|--------|--------|--------|
F#|-------5-----|-------------|--------|--------|--------|--------|--------|--------|
C#|-------3-----|-------------|--------|--------|--------|--------|--------|--------|


C#|--------|--------|--------|--------|--------|--------|--------|--------|--------|
G#|--------|--------|--------|--------|--------|--------|--------|--------|--------|
 E|--------|--------|--------|--------|--------|--------|--------|--------|--------|
 B|--------|--------|--------|--------|--------|--------|--------|--------|--------|
F#|--------|--------|--------|--------|--------|--------|--------|--------|--------|
C#|--------|--------|--------|--------|--------|--------|--------|--------|--------|


C#|--------|--------|--------|--------|--------|--------|--------|--------|--------|
G#|--------|--------|--------|--------|--------|--------|--------|--------|--------|
 E|--------|--------|--------|--------|--------|--------|--------|--------|--------|
 B|--------|--------|--------|--------|--------|--------|--------|--------|--------|
F#|--------|--------|--------|--------|--------|--------|--------|--------|--------|
C#|--------|--------|--------|--------|--------|--------|--------|--------|--------|


C#|--------|--------|--------|--------|--------|--------|--------|--------|--------|
G#|--------|--------|--------|--------|--------|--------|--------|--------|--------|
 E|--------|--------|--------|--------|--------|--------|--------|--------|--------|
 B|--------|--------|--------|--------|--------|--------|--------|--------|--------|
F#|--------|--------|--------|--------|--------|--------|--------|--------|--------|
C#|--------|--------|--------|--------|--------|--------|--------|--------|--------|


C#|--------|--------|--------|--------|--------|--------|--------|--------|--------|
G#|--------|--------|--------|--------|--------|--------|--------|--------|--------|
 E|--------|--------|--------|--------|--------|--------|--------|--------|--------|
 B|--------|--------|--------|--------|--------|--------|--------|--------|--------|
F#|--------|--------|--------|--------|--------|--------|--------|--------|--------|
C#|--------|--------|--------|--------|--------|--------|--------|--------|--------|


C#|--------|--------|--------|--------|--------|--------|--------|--------|--------|
G#|--------|--------|--------|--------|--------|--------|--------|--------|--------|
 E|--------|--------|--------|--------|--------|--------|--------|--------|--------|
 B|--------|--------|--------|--------|--------|--------|--------|--------|--------|
F#|--------|--------|--------|--------|--------|--------|--------|--------|--------|
C#|--------|--------|--------|--------|--------|--------|--------|--------|--------|


C#|--------|--------|--------|--------|--------|--------|--------|--------|--------|
G#|--------|--------|--------|--------|--------|--------|--------|--------|--------|
 E|--------|--------|--------|--------|--------|--------|--------|--------|--------|
 B|--------|--------|--------|--------|--------|--------|--------|--------|--------|
F#|--------|--------|--------|--------|--------|--------|--------|--------|--------|
C#|--------|--------|--------|--------|--------|--------|--------|--------|--------|


C#|--------|--------|--------|--------|--------|--------|--------|
G#|--------|--------|--------|--------|--------|--------|--------|
 E|--------|--------|--------|--------|--------|--------|--------|
 B|--------|--------|--------|--------|--------|--------|--------|
F#|--------|--------|--------|--------|--------|--------|--------|
C#|--------|--------|--------|--------|--------|--------|--------|





Track 2: Untitled

C#|--------|--------|--------|--------|--------|--------|---------3---3---3-----------3---3---3---|
G#|--------|--------|--------|--------|--------|--------|-----3---3---3---3-------3---3---3---3---|
 E|--------|--------|--------|--------|--------|--------|-0---0---0---0---0---0---0---0---0---0---|
 B|--------|--------|--------|--------|--------|--------|-0-------0---0---0---0-------0---0---0---|
F#|--------|--------|--------|--------|--------|--------|-----------------------------------------|
C#|--------|--------|--------|--------|--------|--------|-----------------------------------------|


C#|---------3---3---3-----------3---3---3---|---------3---3---3-----------3---3---3---|
G#|-----3---3---3---3-------3---3---3---3---|-----3---3---3---3-------3---3---3---3---|
 E|-0---0---0---0---0---0---0---0---0---0---|-0---0---0---0---0---0---0---0---0---0---|
 B|-0-------0---0---0---0-------0---0---0---|-0-------0---0---0---0-------0---0---0---|
F#|-----------------------------------------|-----------------------------------------|
C#|-----------------------------------------|-----------------------------------------|


C#|---------3---3---3-----------3---3---3---|---------3---3---3-----------3---3---3---|
G#|-----3---3---3---3-------3---3---3---3---|-----3---3---3---3-------3---3---3---3---|
 E|-0---0---0---0---0---0---0---0---0---0---|-0---0---0---0---0---0---0---0---0---0---|
 B|-0-------0---0---0---0-------0---0---0---|-0-------0---0---0---0-------0---0---0---|
F#|-----------------------------------------|-3-------------------3-------------------|
C#|-----------------------------------------|-3-------------------3-------------------|


C#|---------3---3---3-----------3---3---3---|---------3---3---3-----------3---3---3---|
G#|-----3---3---3---3-------3---3---3---3---|-----3---3---3---3-------3---3---3---3---|
 E|-0---0---0---0---0---0---0---0---0---0---|-0---0---0---0---0---0---0---0---0---0---|
 B|-0-------0---0---0---0-------0---0---0---|-0-------0---0---0---0-------0---0---0---|
F#|-3-------------------3-------------------|-3-------------------3-------------------|
C#|-3-------------------3-------------------|-3-------------------3-------------------|


C#|---------3---3---3-----------3---3---3---|---------3---3---3-----------3---3---3---|
G#|-----3---3---3---3-------3---3---3---3---|-----3---3---3---3-------3---3---3---3---|
 E|-0---0---0---0---0---0---0---0---0---0---|-0---0---0---0---0---0---0---0---0---0---|
 B|-0-------0---0---0---0-------0---0---0---|-0-------0---0---0---0-------0---0---0---|
F#|-3-------------------3-------------------|-3-------------------3-------------------|
C#|-3-------------------3-------------------|-3-------------------3-------------------|


C#|---------3---3---3-----------3---3---3---|---------3---3---3-----------3---3---3---|
G#|-----3---3---3---3-------3---3---3---3---|-----3---3---3---3-------3---3---3---3---|
 E|-0---0---0---0---0---0---0---0---0---0---|-0---0---0---0---0---0---0---0---0---0---|
 B|-0-------0---0---0---0-------0---0---0---|-0-------0---0---0---0-------0---0---0---|
F#|-3-------------------3-------------------|-3-------------------3-------------------|
C#|-3-------------------3-------------------|-3-------------------3-------------------|


C#|---------3---3---3-----------3---3---3---|---------3---3-----------3---3---|---------3---3-----------3---3---|
G#|-----3---3---3---3-------3---3---3---3---|-----3---3---3-------3---3---3---|-----3---3---3-------3---3---3---|
 E|-0---0---0---0---0---0---0---0---0---0---|-0---0---0---0---0---0---0---0---|-0---0---0---0---0---0---0---0---|
 B|-0-------0---0---0---0-------0---0---0---|-0-------0---0---0-------0---0---|-0-------0---0---0-------0---0---|
F#|-3-------------------3-------------------|-3---------------3---------------|-3---------------3---------------|
C#|-3-------------------3-------------------|-3---------------3---------------|-3---------------3---------------|


C#|---------3---3-----------3---3---|---------3---3-----------3---3---|---------3---3-----------3---3---|
G#|-----3---3---3-------3---3---3---|-----3---3---3-------3---3---3---|-----3---3---3-------3---3---3---|
 E|-0---0---0---0---0---0---0---0---|-0---0---0---0---0---0---0---0---|-0---0---0---0---0---0---0---0---|
 B|-0-------0---0---0-------0---0---|-0-------0---0---0-------0---0---|-0-------0---0---0-------0---0---|
F#|-3---------------3---------------|-3---------------3---------------|-3---------------3---------------|
C#|-3---------------3---------------|-3---------------3---------------|-3---------------3---------------|


C#|---------3---3-----------3---3---|---------3---3-----------3---3---|---------3---3-----------3---3---|
G#|-----3---3---3-------3---3---3---|-----3---3---3-------3---3---3---|-----3---3---3-------3---3---3---|
 E|-0---0---0---0---0---0---0---0---|-0---0---0---0---0---0---0---0---|-0---0---0---0---0---0---0---0---|
 B|-0-------0---0---0-------0---0---|-0-------0---0---0-------0---0---|-0-------0---0---0-------0---0---|
F#|-3---------------3---------------|-3---------------3---------------|-3---------------3---------------|
C#|-3---------------3---------------|-3---------------3---------------|-3---------------3---------------|


C#|---------3---3-----------3---3---|---------3---3-----------3---3---|---------3---3-----------3---3---|
G#|-----3---3---3-------3---3---3---|-----3---3---3-------3---3---3---|-----3---3---3-------3---3---3---|
 E|-0---0---0---0---0---0---0---0---|-0---0---0---0---0---0---0---0---|-0---0---0---0---0---0---0---0---|
 B|-0-------0---0---0-------0---0---|-0-------0---0---0-------0---0---|-0-------0---0---0-------0---0---|
F#|-3---------------3---------------|-3---------------3---------------|-3---------------3---------------|
C#|-3---------------3---------------|-3---------------3---------------|-3---------------3---------------|


C#|---------3---3-----------3---3---|---------3---3-----------3---3---|---------3---3-----------3---3---|
G#|-----3---3---3-------3---3---3---|-----3---3---3-------3---3---3---|-----3---3---3-------3---3---3---|
 E|-0---0---0---0---0---0---0---0---|-0---0---0---0---0---0---0---0---|-0---0---0---0---0---0---0---0---|
 B|-0-------0---0---0-------0---0---|-0-------0---0---0-------0---0---|-0-------0---0---0-------0---0---|
F#|-3---------------3---------------|-3---------------3---------------|-3---------------3---------------|
C#|-3---------------3---------------|-3---------------3---------------|-3---------------3---------------|


C#|---------3---3-----------3---3---|---------3---3-----------3---3---|---------3---3-----------3---3---|
G#|-----3---3---3-------3---3---3---|-----3---3---3-------3---3---3---|-----3---3---3-------3---3---3---|
 E|-0---0---0---0---0---0---0---0---|-0---0---0---0---0---0---0---0---|-0---0---0---0---0---0---0---0---|
 B|-0-------0---0---0-------0---0---|-0-------0---0---0-------0---0---|-0-------0---0---0-------0---0---|
F#|-3---------------3---------------|-3---------------3---------------|-3---------------3---------------|
C#|-3---------------3---------------|-3---------------3---------------|-3---------------3---------------|


C#|---------3---3-----------3---3---|---------3---3-----------3---3---|---------3---3-----------3---3---|
G#|-----3---3---3-------3---3---3---|-----3---3---3-------3---3---3---|-----3---3---3-------3---3---3---|
 E|-0---0---0---0---0---0---0---0---|-0---0---0---0---0---0---0---0---|-0---0---0---0---0---0---0---0---|
 B|-0-------0---0---0-------0---0---|-0-------0---0---0-------0---0---|-0-------0---0---0-------0---0---|
F#|-3---------------3---------------|-3---------------3---------------|-3---------------3---------------|
C#|-3---------------3---------------|-3---------------3---------------|-3---------------3---------------|


C#|---------3---3-----------3---3---|---------3---3-----------3---3---|---------3---3-----------3---3---|
G#|-----3---3---3-------3---3---3---|-----3---3---3-------3---3---3---|-----3---3---3-------3---3---3---|
 E|-0---0---0---0---0---0---0---0---|-0---0---0---0---0---0---0---0---|-0---0---0---0---0---0---0---0---|
 B|-0-------0---0---0-------0---0---|-0-------0---0---0-------0---0---|-0-------0---0---0-------0---0---|
F#|-3---------------3---------------|-3---------------3---------------|-3---------------3---------------|
C#|-3---------------3---------------|-3---------------3---------------|-3---------------3---------------|


C#|---------3---3-----------3---3---|---------3---3-----------3---3---|---------3---3-----------3---3---|
G#|-----3---3---3-------3---3---3---|-----3---3---3-------3---3---3---|-----3---3---3-------3---3---3---|
 E|-0---0---0---0---0---0---0---0---|-0---0---0---0---0---0---0---0---|-0---0---0---0---0---0---0---0---|
 B|-0-------0---0---3-------3---3---|-3-------3---3---2-------2---2---|-2-------2---2---0-------0---0---|
F#|---------------------------------|-----------------3-------3---3---|-3-------3---3---1-------1---1---|
C#|---------------------------------|---------------------------------|---------------------------------|


C#|---------3---3-----------3---3---|-------3---3-3------------3---3---|---------3---3-----------3---3---|
G#|-----3---3---3-------3---3---3---|-------3---3-3--------3---3---3---|-----3---3---3-------3---3---3---|
 E|-0---0---0---0---0---0---0---0---|-0---0-0---0-0----0---0---0---0---|-0---0---0---0---0---0---0---0---|
 B|-0-------0---0---0-------0---0---|-0---0-0---0-0----3-------3---3---|-3-------3---3---2-------2---2---|
F#|-1-------1---1-------------------|----------------------------------|-----------------3-------3---3---|
C#|---------------------------------|----------------------------------|---------------------------------|


C#|---------3---3-----------3---3---|---------3---3-----------3---3---|-------3---3-3------------3---3---|
G#|-----3---3---3-------3---3---3---|-----3---3---3-------3---3---3---|-------3---3-3--------3---3---3---|
 E|-0---0---0---0---0---0---0---0---|-0---0---0---0---0---0---0---0---|-0---0-0---0-0----0---0---0---0---|
 B|-2-------2---2---0-------0---0---|-0-------0---0---0-------0---0---|-0---0-0---0-0----3-------3---3---|
F#|-3-------3---3---1-------1---1---|-1-------1---1-------------------|----------------------------------|
C#|---------------------------------|---------------------------------|----------------------------------|


C#|---------3---3-----------3---3---|---------3---3-----------3---3---|---------3---3-----------3---3---|
G#|-----3---3---3-------3---3---3---|-----3---3---3-------3---3---3---|-----3---3---3-------3---3---3---|
 E|-0---0---0---0---0---0---0---0---|-0---0---0---0---0---0---0---0---|-0---0---0---0---0---0---0---0---|
 B|-3-------3---3---2-------2---2---|-2-------2---2---0-------0---0---|-0-------0---0---0-------0---0---|
F#|-----------------3-------3---3---|-3-------3---3---1-------1---1---|-1-------1---1-------------------|
C#|---------------------------------|---------------------------------|---------------------------------|


C#|-------3---3-3------------3---3---|---------3---3-----------3---3---|---------3---3-----------3---3---|
G#|-------3---3-3--------3---3---3---|-----3---3---3-------3---3---3---|-----3---3---3-------3---3---3---|
 E|-0---0-0---0-0----0---0---0---0---|-0---0---0---0---0---0---0---0---|-0---0---0---0---0---0---0---0---|
 B|-0---0-0---0-0----3-------3---3---|-3-------3---3---2-------2---2---|-2-------2---2---0-------0---0---|
F#|----------------------------------|-----------------3-------3---3---|-3-------3---3---1-------1---1---|
C#|----------------------------------|---------------------------------|---------------------------------|


C#|---------3---3-----------3---3---|-------3---3-3------------3---3---|-------3---3-3------------3---3---|
G#|-----3---3---3-------3---3---3---|-------3---3-3--------3---3---3---|-------3---3-3--------3---3---3---|
 E|-0---0---0---0---0---0---0---0---|-0---0-0---0-0----0---0---0---0---|-0---0-0---0-0----0---0---0---0---|
 B|-0-------0---0---0-------0---0---|-0---0-0---0-0----0-------0---0---|-0---0-0---0-0----0-------0---0---|
F#|-1-------1---1---3---------------|-3----------------3---------------|-3----------------3---------------|
C#|-----------------3---------------|-3----------------3---------------|-3----------------3---------------|


C#|-------3---3-3------------3---3---|-------3---3-3------------3---3---|---------3---3-----------3---3---|
G#|-------3---3-3--------3---3---3---|-------3---3-3--------3---3---3---|-----3---3---3-------3---3---3---|
 E|-0---0-0---0-0----0---0---0---0---|-0---0-0---0-0----0---0---0---0---|-0---0---0---0---0---0---0---0---|
 B|-0---0-0---0-0----0-------0---0---|-0---0-0---0-0----0-------0---0---|-0-------0---0---0-------0---0---|
F#|-3----------------3---------------|-3----------------3---------------|-3---------------3---------------|
C#|-3----------------3---------------|-3----------------3---------------|-3---------------3---------------|


C#|---------3---3-----------3---3---|---------3---3-----------3---3---|---------3---3-----------3---3---|
G#|-----3---3---3-------3---3---3---|-----3---3---3-------3---3---3---|-----3---3---3-------3---3---3---|
 E|-0---0---0---0---0---0---0---0---|-0---0---0---0---0---0---0---0---|-0---0---0---0---0---0---0---0---|
 B|-0-------0---0---0-------0---0---|-0-------0---0---0-------0---0---|-0-------0---0---0-------0---0---|
F#|-3---------------3---------------|-3---------------3---------------|-3---------------3---------------|
C#|-3---------------3---------------|-3---------------3---------------|-3---------------3---------------|


C#|---------3---3-----------3---3---|---------3---3-----------3---3---|---------3---3-----------3---3---|
G#|-----3---3---3-------3---3---3---|-----3---3---3-------3---3---3---|-----3---3---3-------3---3---3---|
 E|-0---0---0---0---0---0---0---0---|-0---0---0---0---0---0---0---0---|-0---0---0---0---0---0---0---0---|
 B|-0-------0---0---0-------0---0---|-0-------0---0---0-------0---0---|-0-------0---0---0-------0---0---|
F#|-3---------------3---------------|-3---------------3---------------|-3---------------3---------------|
C#|-3---------------3---------------|-3---------------3---------------|-3---------------3---------------|


C#|---------3---3-----------3---3---|---------3---3-----------3---3---|---------3---3-----------3---3---|
G#|-----3---3---3-------3---3---3---|-----3---3---3-------3---3---3---|-----3---3---3-------3---3---3---|
 E|-0---0---0---0---0---0---0---0---|-0---0---0---0---0---0---0---0---|-0---0---0---0---0---0---0---0---|
 B|-0-------0---0---0-------0---0---|-0-------0---0---0-------0---0---|-0-------0---0---0-------0---0---|
F#|-3---------------3---------------|-3---------------3---------------|-3---------------3---------------|
C#|-3---------------3---------------|-3---------------3---------------|-3---------------3---------------|


C#|---------3---3-----------3---3---|---------3---3-----------3---3---|---------3---3-----------3---3---|
G#|-----3---3---3-------3---3---3---|-----3---3---3-------3---3---3---|-----3---3---3-------3---3---3---|
 E|-0---0---0---0---0---0---0---0---|-0---0---0---0---0---0---0---0---|-0---0---0---0---0---0---0---0---|
 B|-0-------0---0---0-------0---0---|-0-------0---0---0-------0---0---|-0-------0---0---0-------0---0---|
F#|-3---------------3---------------|-3---------------3---------------|-3---------------3---------------|
C#|-3---------------3---------------|-3---------------3---------------|-3---------------3---------------|


C#|---------3---3-----------3---3---|---------3---3-----------3---3---|---------3---3-----------3---3---|
G#|-----3---3---3-------3---3---3---|-----3---3---3-------3---3---3---|-----3---3---3-------3---3---3---|
 E|-0---0---0---0---0---0---0---0---|-0---0---0---0---0---0---0---0---|-0---0---0---0---0---0---0---0---|
 B|-0-------0---0---0-------0---0---|-0-------0---0---0-------0---0---|-0-------0---0---0-------0---0---|
F#|-3---------------3---------------|-3---------------3---------------|-3---------------3---------------|
C#|-3---------------3---------------|-3---------------3---------------|-3---------------3---------------|


C#|---------3---3-----------3---3---|---------3---3-----------3---3---|---------3---3-----------3---3---|
G#|-----3---3---3-------3---3---3---|-----3---3---3-------3---3---3---|-----3---3---3-------3---3---3---|
 E|-0---0---0---0---0---0---0---0---|-0---0---0---0---0---0---0---0---|-0---0---0---0---0---0---0---0---|
 B|-0-------0---0---0-------0---0---|-0-------0---0---0-------0---0---|-0-------0---0---0-------0---0---|
F#|-3---------------3---------------|-3---------------3---------------|-3---------------3---------------|
C#|-3---------------3---------------|-3---------------3---------------|-3---------------3---------------|


C#|---------3---3-----------3---3---|---------3---3-----------3---3---|---------3---3-----------3---3---|
G#|-----3---3---3-------3---3---3---|-----3---3---3-------3---3---3---|-----3---3---3-------3---3---3---|
 E|-0---0---0---0---0---0---0---0---|-0---0---0---0---0---0---0---0---|-0---0---0---0---0---0---0---0---|
 B|-0-------0---0---3-------3---3---|-3-------3---3---2-------2---2---|-2-------2---2---0-------0---0---|
F#|---------------------------------|-----------------3-------3---3---|-3-------3---3---1-------1---1---|
C#|---------------------------------|---------------------------------|---------------------------------|


C#|---------3---3-----------3---3---|-------3---3-3------------3---3---|---------3---3-----------3---3---|
G#|-----3---3---3-------3---3---3---|-------3---3-3--------3---3---3---|-----3---3---3-------3---3---3---|
 E|-0---0---0---0---0---0---0---0---|-0---0-0---0-0----0---0---0---0---|-0---0---0---0---0---0---0---0---|
 B|-0-------0---0---0-------0---0---|-0---0-0---0-0----3-------3---3---|-3-------3---3---2-------2---2---|
F#|-1-------1---1-------------------|----------------------------------|-----------------3-------3---3---|
C#|---------------------------------|----------------------------------|---------------------------------|


C#|---------3---3-----------3---3---|---------3---3-----------3---3---|-------3---3-3------------3---3---|
G#|-----3---3---3-------3---3---3---|-----3---3---3-------3---3---3---|-------3---3-3--------3---3---3---|
 E|-0---0---0---0---0---0---0---0---|-0---0---0---0---0---0---0---0---|-0---0-0---0-0----0---0---0---0---|
 B|-2-------2---2---0-------0---0---|-0-------0---0---0-------0---0---|-0---0-0---0-0----3-------3---3---|
F#|-3-------3---3---1-------1---1---|-1-------1---1-------------------|----------------------------------|
C#|---------------------------------|---------------------------------|----------------------------------|


C#|---------3---3-----------3---3---|---------3---3-----------3---3---|---------3---3-----------3---3---|
G#|-----3---3---3-------3---3---3---|-----3---3---3-------3---3---3---|-----3---3---3-------3---3---3---|
 E|-0---0---0---0---0---0---0---0---|-0---0---0---0---0---0---0---0---|-0---0---0---0---0---0---0---0---|
 B|-3-------3---3---2-------2---2---|-2-------2---2---0-------0---0---|-0-------0---0---0-------0---0---|
F#|-----------------3-------3---3---|-3-------3---3---1-------1---1---|-1-------1---1-------------------|
C#|---------------------------------|---------------------------------|---------------------------------|


C#|-------3---3-3------------3---3---|---------3---3-----------3---3---|---------3---3-----------3---3---|
G#|-------3---3-3--------3---3---3---|-----3---3---3-------3---3---3---|-----3---3---3-------3---3---3---|
 E|-0---0-0---0-0----0---0---0---0---|-0---0---0---0---0---0---0---0---|-0---0---0---0---0---0---0---0---|
 B|-0---0-0---0-0----3-------3---3---|-3-------3---3---2-------2---2---|-2-------2---2---0-------0---0---|
F#|----------------------------------|-----------------3-------3---3---|-3-------3---3---1-------1---1---|
C#|----------------------------------|---------------------------------|---------------------------------|


C#|---------3---3-----------3---3---|-------3---3-3------------3---3---|-------3---3-3------------3---3---|
G#|-----3---3---3-------3---3---3---|-------3---3-3--------3---3---3---|-------3---3-3--------3---3---3---|
 E|-0---0---0---0---0---0---0---0---|-0---0-0---0-0----0---0---0---0---|-0---0-0---0-0----0---0---0---0---|
 B|-0-------0---0---0-------0---0---|-0---0-0---0-0----0-------0---0---|-0---0-0---0-0----0-------0---0---|
F#|-1-------1---1---3---------------|-3----------------3---------------|-3----------------3---------------|
C#|-----------------3---------------|-3----------------3---------------|-3----------------3---------------|


C#|-------3---3-3------------3---3---|-------3---3-3------------3---3---3---|---------3---3---3-----------3---3---3---|
G#|-------3---3-3--------3---3---3---|-------3---3-3--------3---3---3---3---|-----3---3---3---3-------3---3---3---3---|
 E|-0---0-0---0-0----0---0---0---0---|-0---0-0---0-0----0---0---0---0---0---|-0---0---0---0---0---0---0---0---0---0---|
 B|-0---0-0---0-0----0-------0---0---|-0---0-0---0-0----0-------0---0---0---|-0-------0---0---0---0-------0---0---0---|
F#|-3----------------3---------------|-3----------------3-------------------|-3-------------------3-------------------|
C#|-3----------------3---------------|-3----------------3-------------------|-3-------------------3-------------------|


C#|---------3---3---3-----------3---3---3---|---------3---3---3-----------3---3---3---|
G#|-----3---3---3---3-------3---3---3---3---|-----3---3---3---3-------3---3---3---3---|
 E|-0---0---0---0---0---0---0---0---0---0---|-0---0---0---0---0---0---0---0---0---0---|
 B|-0-------0---0---0---0-------0---0---0---|-0-------0---0---0---0-------0---0---0---|
F#|-3-------------------3-------------------|-3-------------------3-------------------|
C#|-3-------------------3-------------------|-3-------------------3-------------------|


C#|---------3---3---3-----------3---3---3---|---------3---3---3-----------3---3---3---|
G#|-----3---3---3---3-------3---3---3---3---|-----3---3---3---3-------3---3---3---3---|
 E|-0---0---0---0---0---0---0---0---0---0---|-0---0---0---0---0---0---0---0---0---0---|
 B|-0-------0---0---0---0-------0---0---0---|-0-------0---0---0---0-------0---0---0---|
F#|-3-------------------3-------------------|-3-------------------3-------------------|
C#|-3-------------------3-------------------|-3-------------------3-------------------|


C#|---------3---3---3-----------3---3---3---|---------3---3---3-----------3---3---3---|
G#|-----3---3---3---3-------3---3---3---3---|-----3---3---3---3-------3---3---3---3---|
 E|-0---0---0---0---0---0---0---0---0---0---|-0---0---0---0---0---0---0---0---0---0---|
 B|-0-------0---0---0---0-------0---0---0---|-0-------0---0---0---0-------0---0---0---|
F#|-3-------------------3-------------------|-3-------------------3-------------------|
C#|-3-------------------3-------------------|-3-------------------3-------------------|


C#|---------3---3---3-----------3---3---3---|---------3---3---3-----------3---3---3---|
G#|-----3---3---3---3-------3---3---3---3---|-----3---3---3---3-------3---3---3---3---|
 E|-0---0---0---0---0---0---0---0---0---0---|-0---0---0---0---0---0---0---0---0---0---|
 B|-0-------0---0---0---0-------0---0---0---|-0-------0---0---0---0-------0---0---0---|
F#|-3-------------------3-------------------|-3-------------------3-------------------|
C#|-3-------------------3-------------------|-3-------------------3-------------------|


C#|---------3---3---3-----------3---3---3---|---------3---3---3-----------3---3---3---|
G#|-----3---3---3---3-------3---3---3---3---|-----3---3---3---3-------3---3---3---3---|
 E|-0---0---0---0---0---0---0---0---0---0---|-0---0---0---0---0---0---0---0---0---0---|
 B|-0-------0---0---0---0-------0---0---0---|-0-------0---0---0---0-------0---0---0---|
F#|-3-------------------3-------------------|-3-------------------3-------------------|
C#|-3-------------------3-------------------|-3-------------------3-------------------|


C#|---------3---3---3-----------3---3---3---|---------3---3---3---------|-------------|
G#|-----3---3---3---3-------3---3---3---3---|-----3---3---3---3---------|-------------|
 E|-0---0---0---0---0---0---0---0---0---0---|-0---0---0---0---0---------|-------------|
 B|-0-------0---0---0---0-------0---0---0---|-0-------0---0---0---------|-------------|
F#|-3-------------------3-------------------|-3-------------------------|-------------|
C#|-3-------------------3-------------------|-3-------------------------|-------------|


C#|-------------|-----------------10---|--------------------------13---|--------------------------15---|
G#|-------------|------------11--------|-11--------11------------------|-------------------------------|
 E|-------------|-------8--------------|------8--------------15--------|-15--------15--------15--------|
 B|-------------|----------------------|----------------13-------------|------13--------12-------------|
F#|-------------|----------------------|-------------------------------|-------------------------------|
C#|-------------|----------------------|-------------------------------|-------------------------------|


C#|--------------------------15---|----------------------|--------|--------|--------|
G#|-------------------------------|----------------------|--------|--------|--------|
 E|-15--------15--------15--------|-15--------15---------|--------|--------|--------|
 B|------12--------12-------------|------12--------------|--------|--------|--------|
F#|-------------------------------|----------------------|--------|--------|--------|
C#|-------------------------------|----------------------|--------|--------|--------|


C#|--------|--------|--------|--------|--------|--------|--------|--------|--------|
G#|--------|--------|--------|--------|--------|--------|--------|--------|--------|
 E|--------|--------|--------|--------|--------|--------|--------|--------|--------|
 B|--------|--------|--------|--------|--------|--------|--------|--------|--------|
F#|--------|--------|--------|--------|--------|--------|--------|--------|--------|
C#|--------|--------|--------|--------|--------|--------|--------|--------|--------|





Track 3: Untitled

C#|--------|--------|--------|--------|--------|--------|--------|--------|--------|
G#|--------|--------|--------|--------|--------|--------|--------|--------|--------|
 E|--------|--------|--------|--------|--------|--------|--------|--------|--------|
 B|--------|--------|--------|--------|--------|--------|--------|--------|--------|
F#|--------|--------|--------|--------|--------|--------|--------|--------|--------|
C#|--------|--------|--------|--------|--------|--------|--------|--------|--------|


C#|--------|--------|--------|--------|--------|--------|--------|--------|--------|
G#|--------|--------|--------|--------|--------|--------|--------|--------|--------|
 E|--------|--------|--------|--------|--------|--------|--------|--------|--------|
 B|--------|--------|--------|--------|--------|--------|--------|--------|--------|
F#|--------|--------|--------|--------|--------|--------|--------|--------|--------|
C#|--------|--------|--------|--------|--------|--------|--------|--------|--------|


C#|---------3---3---3-----------3---3---3---|---------3---3---3-----------3---3---3---|
G#|-----3---3---3---3-------3---3---3---3---|-----3---3---3---3-------3---3---3---3---|
 E|-0---0---0---0---0---0---0---0---0---0---|-0---0---0---0---0---0---0---0---0---0---|
 B|-0-------0---0---0---0-------0---0---0---|-0-------0---0---0---0-------0---0---0---|
F#|-----------------------------------------|-----------------------------------------|
C#|-----------------------------------------|-----------------------------------------|


C#|---------3---3---3-----------3---3---3---|---------3---3---3-----------3---3---3---|
G#|-----3---3---3---3-------3---3---3---3---|-----3---3---3---3-------3---3---3---3---|
 E|-0---0---0---0---0---0---0---0---0---0---|-0---0---0---0---0---0---0---0---0---0---|
 B|-0-------0---0---0---0-------0---0---0---|-0-------0---0---0---0-------0---0---0---|
F#|-----------------------------------------|-----------------------------------------|
C#|-----------------------------------------|-----------------------------------------|


C#|---------3---3---3-----------3---3---3---|---------3---3---3-----------3---3---3---|
G#|-----3---3---3---3-------3---3---3---3---|-----3---3---3---3-------3---3---3---3---|
 E|-0---0---0---0---0---0---0---0---0---0---|-0---0---0---0---0---0---0---0---0---0---|
 B|-0-------0---0---0---0-------0---0---0---|-0-------0---0---0---0-------0---0---0---|
F#|-----------------------------------------|-----------------------------------------|
C#|-----------------------------------------|-----------------------------------------|


C#|---------3---3---3-----------3---3---3---|---------3---3---3-----------3---3---3---|
G#|-----3---3---3---3-------3---3---3---3---|-----3---3---3---3-------3---3---3---3---|
 E|-0---0---0---0---0---0---0---0---0---0---|-0---0---0---0---0---0---0---0---0---0---|
 B|-0-------0---0---0---0-------0---0---0---|-0-------0---0---0---0-------0---0---0---|
F#|-----------------------------------------|-----------------------------------------|
C#|-----------------------------------------|-----------------------------------------|


C#|---------3---3---3-----------3---3---3---|---------3---3---3-----------3---3---3---|
G#|-----3---3---3---3-------3---3---3---3---|-----3---3---3---3-------3---3---3---3---|
 E|-0---0---0---0---0---0---0---0---0---0---|-0---0---0---0---0---0---0---0---0---0---|
 B|-0-------0---0---0---0-------0---0---0---|-0-------0---0---0---0-------0---0---0---|
F#|-----------------------------------------|-----------------------------------------|
C#|-----------------------------------------|-----------------------------------------|


C#|---------3---3---3-----------3---3---3---|---------3---3---3-----------3---3---3---|
G#|-----3---3---3---3-------3---3---3---3---|-----3---3---3---3-------3---3---3---3---|
 E|-0---0---0---0---0---0---0---0---0---0---|-0---0---0---0---0---0---0---0---0---0---|
 B|-0-------0---0---0---0-------0---0---0---|-0-------0---0---0---0-------0---0---0---|
F#|-----------------------------------------|-----------------------------------------|
C#|-----------------------------------------|-----------------------------------------|


C#|---------3---3---3-----------3---3---3---|---------3---3---3-----------3---3---3---|
G#|-----3---3---3---3-------3---3---3---3---|-----3---3---3---3-------3---3---3---3---|
 E|-0---0---0---0---0---0---0---0---0---0---|-0---0---0---0---0---0---0---0---0---0---|
 B|-0-------0---0---0---0-------0---0---0---|-0-------0---0---0---0-------0---0---0---|
F#|-----------------------------------------|-----------------------------------------|
C#|-----------------------------------------|-----------------------------------------|


C#|---------3---3---3-----------3---3---3---|---------3---3---3-----------3---3---3---|
G#|-----3---3---3---3-------3---3---3---3---|-----3---3---3---3-------3---3---3---3---|
 E|-0---0---0---0---0---0---0---0---0---0---|-0---0---0---0---0---0---0---0---0---0---|
 B|-0-------0---0---0---0-------0---0---0---|-0-------0---0---0---0-------0---0---0---|
F#|-----------------------------------------|-----------------------------------------|
C#|-----------------------------------------|-----------------------------------------|


C#|---------3---3---3-----------3---3---3---|---------3---3---3-----------3---3---3---|
G#|-----3---3---3---3-------3---3---3---3---|-----3---3---3---3-------3---3---3---3---|
 E|-0---0---0---0---0---0---0---0---0---0---|-0---0---0---0---0---0---0---0---0---0---|
 B|-0-------0---0---0---0-------0---0---0---|-0-------0---0---0---0-------0---0---0---|
F#|-----------------------------------------|-----------------------------------------|
C#|-----------------------------------------|-----------------------------------------|


C#|---------3---3---3-----------3---3---3---|---------3---3---3-----------3---3---3---|
G#|-----3---3---3---3-------3---3---3---3---|-----3---3---3---3-------3---3---3---3---|
 E|-0---0---0---0---0---0---0---0---0---0---|-0---0---0---0---0---0---0---0---0---0---|
 B|-0-------0---0---0---0-------0---0---0---|-0-------0---0---0---0-------0---0---0---|
F#|-----------------------------------------|-----------------------------------------|
C#|-----------------------------------------|-----------------------------------------|


C#|---------3---3---3-----------3---3---3---|---------3---3---3-----------3---3---3---|
G#|-----3---3---3---3-------3---3---3---3---|-----3---3---3---3-------3---3---3---3---|
 E|-0---0---0---0---0---0---0---0---0---0---|-0---0---0---0---0---0---0---0---0---0---|
 B|-0-------0---0---0---0-------0---0---0---|-0-------0---0---0---0-------0---0---0---|
F#|-----------------------------------------|-----------------------------------------|
C#|-----------------------------------------|-----------------------------------------|


C#|---------3---3---3-----------3---3---3---|---------3---3---3---1---1---1---1---1---|
G#|-----3---3---3---3-------3---3---3---3---|-----3---3---3---3---1---1---1---1---1---|
 E|-0---0---0---0---0---0---0---0---0---0---|-0---0---0---0---0---3---3---3---3---3---|
 B|-0-------0---0---0---0-------0---0---0---|-0-------0---0---0---3---3---3---3---3---|
F#|-----------------------------------------|---------------------3---3---3---3---3---|
C#|-----------------------------------------|---------------------1---1---1---1---1---|


C#|-1---1---1---1---1---3---3---3---3---3---|-3---3---3---3---3---1---1---1---1---1---|
G#|-1---1---1---1---1---3---3---3---3---3---|-3---3---3---3---3---4---4---4---4---4---|
 E|-3---3---3---3---3---0---0---0---0---0---|-0---0---0---0---0---3---3---3---3---3---|
 B|-3---3---3---3---3---2---2---2---2---2---|-2---2---2---2---2---3---3---3---3---3---|
F#|-3---3---3---3---3---3---3---3---3---3---|-3---3---3---3---3---1---1---1---1---1---|
C#|-1---1---1---1---1-----------------------|-----------------------------------------|


C#|-1---1---1---1---1---1---1---1---1---1---|-1---1-1---1-1----1---1---1---1---1---|
G#|-4---4---4---4---4---3---3---3---3---3---|-3---3-3---3-3----1---1---1---1---1---|
 E|-3---3---3---3---3---2---2---2---2---2---|-2---2-2---2-2----3---3---3---3---3---|
 B|-3---3---3---3---3---0---0---0---0---0---|-0---0-0---0-0----3---3---3---3---3---|
F#|-1---1---1---1---1-----------------------|------------------3---3---3---3---3---|
C#|-----------------------------------------|------------------1---1---1---1---1---|


C#|-1---1---1---1---1---3---3---3---3---3---|-3---3---3---3---3---1---1---1---1---1---|
G#|-1---1---1---1---1---3---3---3---3---3---|-3---3---3---3---3---4---4---4---4---4---|
 E|-3---3---3---3---3---0---0---0---0---0---|-0---0---0---0---0---3---3---3---3---3---|
 B|-3---3---3---3---3---2---2---2---2---2---|-2---2---2---2---2---3---3---3---3---3---|
F#|-3---3---3---3---3---3---3---3---3---3---|-3---3---3---3---3---1---1---1---1---1---|
C#|-1---1---1---1---1-----------------------|-----------------------------------------|


C#|-1---1---1---1---1---1---1---1---1---1---|-1---1-1---1-1----1---1---1---1---1---|
G#|-4---4---4---4---4---3---3---3---3---3---|-3---3-3---3-3----1---1---1---1---1---|
 E|-3---3---3---3---3---2---2---2---2---2---|-2---2-2---2-2----3---3---3---3---3---|
 B|-3---3---3---3---3---0---0---0---0---0---|-0---0-0---0-0----3---3---3---3---3---|
F#|-1---1---1---1---1-----------------------|------------------3---3---3---3---3---|
C#|-----------------------------------------|------------------1---1---1---1---1---|


C#|-1---1---1---1---1---3---3---3---3---3---|-3---3---3---3---3---1---1---1---1---1---|
G#|-1---1---1---1---1---3---3---3---3---3---|-3---3---3---3---3---4---4---4---4---4---|
 E|-3---3---3---3---3---0---0---0---0---0---|-0---0---0---0---0---3---3---3---3---3---|
 B|-3---3---3---3---3---2---2---2---2---2---|-2---2---2---2---2---3---3---3---3---3---|
F#|-3---3---3---3---3---3---3---3---3---3---|-3---3---3---3---3---1---1---1---1---1---|
C#|-1---1---1---1---1-----------------------|-----------------------------------------|


C#|-1---1---1---1---1---1---1---1---1---1---|-1---1-1---1-1----1---1---1---1---1---|
G#|-4---4---4---4---4---3---3---3---3---3---|-3---3-3---3-3----1---1---1---1---1---|
 E|-3---3---3---3---3---2---2---2---2---2---|-2---2-2---2-2----3---3---3---3---3---|
 B|-3---3---3---3---3---0---0---0---0---0---|-0---0-0---0-0----3---3---3---3---3---|
F#|-1---1---1---1---1-----------------------|------------------3---3---3---3---3---|
C#|-----------------------------------------|------------------1---1---1---1---1---|


C#|-1---1---1---1---1---0---0---0---0---0---|-0---0---0---0---0---1---1---1---1---1---|
G#|-1---1---1---1---1---3---3---3---3---3---|-3---3---3---3---3---4---4---4---4---4---|
 E|-3---3---3---3---3---0---0---0---0---0---|-0---0---0---0---0---3---3---3---3---3---|
 B|-3---3---3---3---3---2---2---2---2---2---|-2---2---2---2---2---3---3---3---3---3---|
F#|-3---3---3---3---3---3---3---3---3---3---|-3---3---3---3---3---1---1---1---1---1---|
C#|-1---1---1---1---1-----------------------|-----------------------------------------|


C#|-1---1---1---1---1---------|--------|--------|--------|---------------3---3---3---|
G#|-4---4---4---4---4---------|--------|--------|--------|-----------3---3---3---3---|
 E|-3---3---3---3---3---------|--------|--------|--------|-------0---0---0---0---0---|
 B|-3---3---3---3---3---------|--------|--------|--------|-------0-------0---0---0---|
F#|-1---1---1---1---1---------|--------|--------|--------|---------------------------|
C#|---------------------------|--------|--------|--------|---------------------------|


C#|---------3---3---3-----------3---3---3---|---------3---3---3-----------3---3---3---|
G#|-----3---3---3---3-------3---3---3---3---|-----3---3---3---3-------3---3---3---3---|
 E|-0---0---0---0---0---0---0---0---0---0---|-0---0---0---0---0---0---0---0---0---0---|
 B|-0-------0---0---0---0-------0---0---0---|-0-------0---0---0---0-------0---0---0---|
F#|-----------------------------------------|-----------------------------------------|
C#|-----------------------------------------|-----------------------------------------|


C#|---------3---3---3-----------3---3---3---|---------3---3---3-----------3---3---3---|
G#|-----3---3---3---3-------3---3---3---3---|-----3---3---3---3-------3---3---3---3---|
 E|-0---0---0---0---0---0---0---0---0---0---|-0---0---0---0---0---0---0---0---0---0---|
 B|-0-------0---0---0---0-------0---0---0---|-0-------0---0---0---0-------0---0---0---|
F#|-----------------------------------------|-----------------------------------------|
C#|-----------------------------------------|-----------------------------------------|


C#|---------3---3---3-----------3---3---3---|---------3---3---3-----------3---3---3---|
G#|-----3---3---3---3-------3---3---3---3---|-----3---3---3---3-------3---3---3---3---|
 E|-0---0---0---0---0---0---0---0---0---0---|-0---0---0---0---0---0---0---0---0---0---|
 B|-0-------0---0---0---0-------0---0---0---|-0-------0---0---0---0-------0---0---0---|
F#|-----------------------------------------|-----------------------------------------|
C#|-----------------------------------------|-----------------------------------------|


C#|---------3---3---3-----------3---3---3---|---------3---3---3-----------3---3---3---|
G#|-----3---3---3---3-------3---3---3---3---|-----3---3---3---3-------3---3---3---3---|
 E|-0---0---0---0---0---0---0---0---0---0---|-0---0---0---0---0---0---0---0---0---0---|
 B|-0-------0---0---0---0-------0---0---0---|-0-------0---0---0---0-------0---0---0---|
F#|-----------------------------------------|-----------------------------------------|
C#|-----------------------------------------|-----------------------------------------|


C#|---------3---3---3-----------3---3---3---|---------3---3---3-----------3---3---3---|
G#|-----3---3---3---3-------3---3---3---3---|-----3---3---3---3-------3---3---3---3---|
 E|-0---0---0---0---0---0---0---0---0---0---|-0---0---0---0---0---0---0---0---0---0---|
 B|-0-------0---0---0---0-------0---0---0---|-0-------0---0---0---0-------0---0---0---|
F#|-----------------------------------------|-----------------------------------------|
C#|-----------------------------------------|-----------------------------------------|


C#|---------3---3---3-----------3---3---3---|---------3---3---3-----------3---3---3---|
G#|-----3---3---3---3-------3---3---3---3---|-----3---3---3---3-------3---3---3---3---|
 E|-0---0---0---0---0---0---0---0---0---0---|-0---0---0---0---0---0---0---0---0---0---|
 B|-0-------0---0---0---0-------0---0---0---|-0-------0---0---0---0-------0---0---0---|
F#|-----------------------------------------|-----------------------------------------|
C#|-----------------------------------------|-----------------------------------------|


C#|---------3---3---3-----------3---3---3---|---------3---3---3-----------3---3---3---|
G#|-----3---3---3---3-------3---3---3---3---|-----3---3---3---3-------3---3---3---3---|
 E|-0---0---0---0---0---0---0---0---0---0---|-0---0---0---0---0---0---0---0---0---0---|
 B|-0-------0---0---0---0-------0---0---0---|-0-------0---0---0---0-------0---0---0---|
F#|-----------------------------------------|-----------------------------------------|
C#|-----------------------------------------|-----------------------------------------|


C#|---------3---3---3-----------3---3---3---|---------3---3---3-----------3---3---3---|
G#|-----3---3---3---3-------3---3---3---3---|-----3---3---3---3-------3---3---3---3---|
 E|-0---0---0---0---0---0---0---0---0---0---|-0---0---0---0---0---0---0---0---0---0---|
 B|-0-------0---0---0---0-------0---0---0---|-0-------0---0---0---0-------0---0---0---|
F#|-----------------------------------------|-----------------------------------------|
C#|-----------------------------------------|-----------------------------------------|


C#|---------3---3---3-----------3---3---3---|---------3---3---3-----------3---3---3---|
G#|-----3---3---3---3-------3---3---3---3---|-----3---3---3---3-------3---3---3---3---|
 E|-0---0---0---0---0---0---0---0---0---0---|-0---0---0---0---0---0---0---0---0---0---|
 B|-0-------0---0---0---0-------0---0---0---|-0-------0---0---0---0-------0---0---0---|
F#|-----------------------------------------|-----------------------------------------|
C#|-----------------------------------------|-----------------------------------------|


C#|---------3---3---3-----------3---3---3---|---------3---3---3---1---1---1---1---1---|
G#|-----3---3---3---3-------3---3---3---3---|-----3---3---3---3---1---1---1---1---1---|
 E|-0---0---0---0---0---0---0---0---0---0---|-0---0---0---0---0---3---3---3---3---3---|
 B|-0-------0---0---0---0-------0---0---0---|-0-------0---0---0---3---3---3---3---3---|
F#|-----------------------------------------|---------------------3---3---3---3---3---|
C#|-----------------------------------------|---------------------1---1---1---1---1---|


C#|-1---1---1---1---1---3---3---3---3---3---|-3---3---3---3---3---1---1---1---1---1---|
G#|-1---1---1---1---1---3---3---3---3---3---|-3---3---3---3---3---4---4---4---4---4---|
 E|-3---3---3---3---3---0---0---0---0---0---|-0---0---0---0---0---3---3---3---3---3---|
 B|-3---3---3---3---3---2---2---2---2---2---|-2---2---2---2---2---3---3---3---3---3---|
F#|-3---3---3---3---3---3---3---3---3---3---|-3---3---3---3---3---1---1---1---1---1---|
C#|-1---1---1---1---1-----------------------|-----------------------------------------|


C#|-1---1---1---1---1---1---1---1---1---1---|-1---1-1---1-1----1---1---1---1---1---|
G#|-4---4---4---4---4---3---3---3---3---3---|-3---3-3---3-3----1---1---1---1---1---|
 E|-3---3---3---3---3---2---2---2---2---2---|-2---2-2---2-2----3---3---3---3---3---|
 B|-3---3---3---3---3---0---0---0---0---0---|-0---0-0---0-0----3---3---3---3---3---|
F#|-1---1---1---1---1-----------------------|------------------3---3---3---3---3---|
C#|-----------------------------------------|------------------1---1---1---1---1---|


C#|-1---1---1---1---1---3---3---3---3---3---|-3---3---3---3---3---1---1---1---1---1---|
G#|-1---1---1---1---1---3---3---3---3---3---|-3---3---3---3---3---4---4---4---4---4---|
 E|-3---3---3---3---3---0---0---0---0---0---|-0---0---0---0---0---3---3---3---3---3---|
 B|-3---3---3---3---3---2---2---2---2---2---|-2---2---2---2---2---3---3---3---3---3---|
F#|-3---3---3---3---3---3---3---3---3---3---|-3---3---3---3---3---1---1---1---1---1---|
C#|-1---1---1---1---1-----------------------|-----------------------------------------|


C#|-1---1---1---1---1---1---1---1---1---1---|-1---1-1---1-1----1---1---1---1---1---|
G#|-4---4---4---4---4---3---3---3---3---3---|-3---3-3---3-3----1---1---1---1---1---|
 E|-3---3---3---3---3---2---2---2---2---2---|-2---2-2---2-2----3---3---3---3---3---|
 B|-3---3---3---3---3---0---0---0---0---0---|-0---0-0---0-0----3---3---3---3---3---|
F#|-1---1---1---1---1-----------------------|------------------3---3---3---3---3---|
C#|-----------------------------------------|------------------1---1---1---1---1---|


C#|-1---1---1---1---1---3---3---3---3---3---|-3---3---3---3---3---1---1---1---1---1---|
G#|-1---1---1---1---1---3---3---3---3---3---|-3---3---3---3---3---4---4---4---4---4---|
 E|-3---3---3---3---3---0---0---0---0---0---|-0---0---0---0---0---3---3---3---3---3---|
 B|-3---3---3---3---3---2---2---2---2---2---|-2---2---2---2---2---3---3---3---3---3---|
F#|-3---3---3---3---3---3---3---3---3---3---|-3---3---3---3---3---1---1---1---1---1---|
C#|-1---1---1---1---1-----------------------|-----------------------------------------|


C#|-1---1---1---1---1---1---1---1---1---1---|-1---1-1---1-1----1---1---1---1---1---|
G#|-4---4---4---4---4---3---3---3---3---3---|-3---3-3---3-3----1---1---1---1---1---|
 E|-3---3---3---3---3---2---2---2---2---2---|-2---2-2---2-2----3---3---3---3---3---|
 B|-3---3---3---3---3---0---0---0---0---0---|-0---0-0---0-0----3---3---3---3---3---|
F#|-1---1---1---1---1-----------------------|------------------3---3---3---3---3---|
C#|-----------------------------------------|------------------1---1---1---1---1---|


C#|-1---1---1---1---1---0---0---0---0---0---|-0---0---0---0---0---1---1---1---1---1---|
G#|-1---1---1---1---1---3---3---3---3---3---|-3---3---3---3---3---4---4---4---4---4---|
 E|-3---3---3---3---3---0---0---0---0---0---|-0---0---0---0---0---3---3---3---3---3---|
 B|-3---3---3---3---3---2---2---2---2---2---|-2---2---2---2---2---3---3---3---3---3---|
F#|-3---3---3---3---3---3---3---3---3---3---|-3---3---3---3---3---1---1---1---1---1---|
C#|-1---1---1---1---1-----------------------|-----------------------------------------|


C#|-1---1---1---1---1-----------3---3---3---|---------3---3---3-----------3---3---3---|
G#|-4---4---4---4---4-------3---3---3---3---|-----3---3---3---3-------3---3---3---3---|
 E|-3---3---3---3---3---0---0---0---0---0---|-0---0---0---0---0---0---0---0---0---0---|
 B|-3---3---3---3---3---0-------0---0---0---|-0-------0---0---0---0-------0---0---0---|
F#|-1---1---1---1---1-----------------------|-----------------------------------------|
C#|-----------------------------------------|-----------------------------------------|


C#|---------3---3---3-----------3---3---3---|---------3---3---3-----------3---3---3---|
G#|-----3---3---3---3-------3---3---3---3---|-----3---3---3---3-------3---3---3---3---|
 E|-0---0---0---0---0---0---0---0---0---0---|-0---0---0---0---0---0---0---0---0---0---|
 B|-0-------0---0---0---0-------0---0---0---|-0-------0---0---0---0-------0---0---0---|
F#|-----------------------------------------|-----------------------------------------|
C#|-----------------------------------------|-----------------------------------------|


C#|---------3---3---3-------------10---|--------------------------13---|--------------------------15---|
G#|-----3---3---3---3--------11--------|-11--------11------------------|-------------------------------|
 E|-0---0---0---0---0---8--------------|------8--------------15--------|-15--------15--------15--------|
 B|-0-------0---0---0------------------|----------------13-------------|------13--------12-------------|
F#|------------------------------------|-------------------------------|-------------------------------|
C#|------------------------------------|-------------------------------|-------------------------------|


C#|--------------------------15---|--------------------------10---|--------------------------13---|
G#|-------------------------------|---------------------11--------|-11--------11------------------|
 E|-15--------15--------15--------|-15--------15---8--------------|------8--------------15--------|
 B|------12--------12-------------|------12-----------------------|----------------13-------------|
F#|-------------------------------|-------------------------------|-------------------------------|
C#|-------------------------------|-------------------------------|-------------------------------|


C#|--------------------------15---|--------------------------15---|--------------------------10---|
G#|-------------------------------|-------------------------------|---------------------11--------|
 E|-15--------15--------15--------|-15--------15--------15--------|-15--------15---8--------------|
 B|------13--------12-------------|------12--------12-------------|------12-----------------------|
F#|-------------------------------|-------------------------------|-------------------------------|
C#|-------------------------------|-------------------------------|-------------------------------|


C#|--------------------------13---|--------------------------15---|--------------------------15---|
G#|-11--------11------------------|-------------------------------|-------------------------------|
 E|------8--------------15--------|-15--------15--------15--------|-15--------15--------15--------|
 B|----------------13-------------|------13--------12-------------|------12--------12-------------|
F#|-------------------------------|-------------------------------|-------------------------------|
C#|-------------------------------|-------------------------------|-------------------------------|


C#|--------------------------10---|--------------------------13---|--------------------------15---|
G#|---------------------11--------|-11--------11------------------|-------------------------------|
 E|-15--------15---8--------------|------8--------------15--------|-15--------15--------15--------|
 B|------12-----------------------|----------------13-------------|------13--------12-------------|
F#|-------------------------------|-------------------------------|-------------------------------|
C#|-------------------------------|-------------------------------|-------------------------------|


C#|--------------------------15---|----------------------|--------|--------|--------|
G#|-------------------------------|----------------------|--------|--------|--------|
 E|-15--------15--------15--------|-15--------15---------|--------|--------|--------|
 B|------12--------12-------------|------12--------------|--------|--------|--------|
F#|-------------------------------|----------------------|--------|--------|--------|
C#|-------------------------------|----------------------|--------|--------|--------|


C#|--------|--------|--------|--------|--------|--------|--------|--------|--------|
G#|--------|--------|--------|--------|--------|--------|--------|--------|--------|
 E|--------|--------|--------|--------|--------|--------|--------|--------|--------|
 B|--------|--------|--------|--------|--------|--------|--------|--------|--------|
F#|--------|--------|--------|--------|--------|--------|--------|--------|--------|
C#|--------|--------|--------|--------|--------|--------|--------|--------|--------|


C#|--------|--------|--------|--------|
G#|--------|--------|--------|--------|
 E|--------|--------|--------|--------|
 B|--------|--------|--------|--------|
F#|--------|--------|--------|--------|
C#|--------|--------|--------|--------|





Track 4: Untitled

 E|--------|--------|--------|--------|--------|--------|--------|--------|--------|
 B|--------|--------|--------|--------|--------|--------|--------|--------|--------|
F#|--------|--------|--------|--------|--------|--------|--------|--------|--------|
C#|--------|--------|--------|--------|--------|--------|--------|--------|--------|


 E|--------|--------|--------|---------------------|-----------------|--------|--------|
 B|--------|--------|--------|---------------------|-----------------|--------|--------|
F#|--------|--------|--------|-10---8----6----5----|-3----5----10----|-10-----|-10-----|
C#|--------|--------|--------|---------------------|-----------------|--------|--------|


 E|---------------------|-----------------|--------|--------|---------------------|
 B|---------------------|-----------------|--------|--------|---------------------|
F#|-10---8----6----5----|-3----5----10----|-10-----|-10-----|-1----3----5----6----|
C#|---------------------|-----------------|--------|--------|---------------------|


 E|-----------------|--------|--------|---------------------|-----------------|--------|
 B|-----------------|--------|--------|---------------------|-----------------|--------|
F#|-8----6----10----|-10-----|-10-----|-8----6----5----3----|-1----3----10----|--------|
C#|-----------------|--------|--------|---------------------|-----------------|--------|


 E|-----------------|-----------------|--------|-----------------|-----------------|
 B|-----------------|-----------------|--------|-----------------|-----------------|
F#|-------1----3----|-0----1----------|--------|-------1----3----|-0----1----------|
C#|-----------------|-----------3-----|-3------|-----------------|-----------3-----|


 E|--------|-----------------|-----------------|--------|-----------------|-----------------|
 B|--------|-----------------|-----------------|--------|-----------------|-----------------|
F#|--------|-------13---15---|-12---13---10----|-10-----|-------1----3----|-0----1----------|
C#|-3------|-3---------------|-----------------|--------|-----------------|-----------3-----|


 E|--------|-----------------|-----------------|-------------|-------------|-------------|
 B|--------|-----------------|-----------------|-------3-----|-3-----2-----|-2-----1-----|
F#|--------|-------1----3----|-0----1----------|-------1-----|-1-----3-----|-3-----1-----|
C#|-3------|-----------------|-----------3-----|-------------|-------------|-------------|


 E|-------------|-------------|-------------|-------------|-------------|-------------|
 B|-1-----3-----|-3-----3-----|-3-----2-----|-2-----1-----|-1-----3-----|-3-----3-----|
F#|-1-----------|-------1-----|-1-----3-----|-3-----1-----|-1-----------|-------1-----|
C#|-------------|-------------|-------------|-------------|-------------|-------------|


 E|-------------|-------------|-------------|-------------|-------------|-------------|
 B|-3-----2-----|-2-----1-----|-1-----3-----|-3-----3-----|-3-----2-----|-2-----1-----|
F#|-1-----3-----|-3-----1-----|-1-----------|-------1-----|-1-----3-----|-3-----1-----|
C#|-------------|-------------|-------------|-------------|-------------|-------------|


 E|-------------|-------------|-------------|-------------|-------------|-------------|
 B|-1-----------|-------------|-------------|-------------|-------------|-------------|
F#|-1-----5-----|-5-----5-----|-------5-----|-------5-----|-------------|-------------|
C#|-------------|-------------|-------------|-------------|-------3-----|-------3-----|


 E|-------------|-------------|-----------------|-------------|-----------------|-----------------|
 B|-------------|-------------|-0----5----------|-------------|-----------------|-----------------|
F#|-------------|-------------|-----------------|-------------|-------1----3----|-0----1----------|
C#|-------3-----|-------3-----|-----------3-----|-------3-----|-----------------|-----------3-----|


 E|--------|-----------------|-----------------|--------|-----------------|-----------------|
 B|--------|-----------------|-----------------|--------|-----------------|-----------------|
F#|--------|-------1----3----|-0----1----------|--------|-------13---15---|-12---13---10----|
C#|-3------|-----------------|-----------3-----|-3------|-3---------------|-----------------|


 E|--------|-----------------|-----------------|--------|-----------------|-----------------|
 B|--------|-----------------|-----------------|--------|-----------------|-----------------|
F#|-10-----|-------1----3----|-0----1----------|--------|-------1----3----|-0----1----------|
C#|--------|-----------------|-----------3-----|-3------|-----------------|-----------3-----|


 E|-------------|-------------|-------------|-------------|-------------|-------------|
 B|-------3-----|-3-----2-----|-2-----1-----|-1-----3-----|-3-----3-----|-3-----2-----|
F#|-------1-----|-1-----3-----|-3-----1-----|-1-----------|-------1-----|-1-----3-----|
C#|-------------|-------------|-------------|-------------|-------------|-------------|


 E|-------------|-------------|-------------|-------------|-------------|-------------|
 B|-2-----1-----|-1-----3-----|-3-----3-----|-3-----2-----|-2-----1-----|-1-----3-----|
F#|-3-----1-----|-1-----------|-------1-----|-1-----3-----|-3-----1-----|-1-----------|
C#|-------------|-------------|-------------|-------------|-------------|-------------|


 E|-------------|-------------|-------------|-------------|-------------|-------------|
 B|-3-----3-----|-3-----2-----|-2-----1-----|-1-----5-----|-------5-----|-------5-----|
F#|-------1-----|-1-----3-----|-3-----1-----|-1-----------|-------------|-------------|
C#|-------------|-------------|-------------|-------------|-------------|-------------|


 E|---------------------|---------------8-----|-------3-----|-------------|-------------|
 B|-5-------------5-----|-5-------------------|-------------|-------5-----|-------5-----|
F#|-----5----6----------|-----5----6----6-----|-------1-----|-------------|-------------|
C#|---------------------|---------------------|-------------|-------3-----|-------3-----|


 E|-------8-----|-------3-----|-------------|-------------|-------8-----|-------3-----|
 B|-------------|-------------|-------5-----|-------5-----|-------------|-------------|
F#|-------6-----|-------1-----|-------------|-------------|-------6-----|-------1-----|
C#|-------------|-------------|-------3-----|-------3-----|-------------|-------------|


 E|-------------|-------------|-------8-----|-------3-----|-------------|-------------|
 B|-------5-----|-------5-----|-------------|-------------|-------5-----|-------5-----|
F#|-------------|-------------|-------6-----|-------1-----|-------------|-------------|
C#|-------3-----|-------3-----|-------------|-------------|-------3-----|-------3-----|


 E|-------8-----|-------3-----|-------------|-------------|--------|--------|--------|
 B|-------------|-------------|-------5-----|-------5-----|--------|--------|--------|
F#|-------6-----|-------1-----|-------------|-------------|--------|--------|--------|
C#|-------------|-------------|-------3-----|-------3-----|--------|--------|--------|


 E|--------|--------|--------|--------|--------|--------|--------|--------|--------|
 B|--------|--------|--------|--------|--------|--------|--------|--------|--------|
F#|--------|--------|--------|--------|--------|--------|--------|--------|--------|
C#|--------|--------|--------|--------|--------|--------|--------|--------|--------|


 E|--------|
 B|--------|
F#|--------|
C#|--------|





Track 5: Untitled

 E|--------|--------|--------|--------|--------|--------|--------|--------|--------|
 B|--------|--------|--------|--------|--------|--------|--------|--------|--------|
F#|--------|--------|--------|--------|--------|--------|--------|--------|--------|
C#|--------|--------|--------|--------|--------|--------|--------|--------|--------|


 E|--------|--------|--------|-27---27----27---|-27--27--27--27---27-------|-27---27----27---|
 B|--------|--------|--------|-----------------|---------------------------|-----------------|
F#|--------|--------|--------|-----------------|---------------------------|-----------------|
C#|--------|--------|--------|-----------------|---------------------------|-----------------|


 E|-27--27--27--27---27-------|-27---27----27---|-27--27--27--27---27-------|-27---27----27---|
 B|---------------------------|-----------------|---------------------------|-----------------|
F#|---------------------------|-----------------|---------------------------|-----------------|
C#|---------------------------|-----------------|---------------------------|-----------------|


 E|-27--27--27--27---27-------|-27---27----27---|-27--27--27--27---27-------|-27---27----27---|
 B|---------------------------|-----------------|---------------------------|-----------------|
F#|---------------------------|-----------------|---------------------------|-----------------|
C#|---------------------------|-----------------|---------------------------|-----------------|


 E|-27--27--27--27---27-------|-27---27----27---|-27--27--27--27---27-------|-27---27----27---|
 B|---------------------------|-----------------|---------------------------|-----------------|
F#|---------------------------|-----------------|---------------------------|-----------------|
C#|---------------------------|-----------------|---------------------------|-----------------|


 E|-27--27--27--27---27-------|--------|--------|--------|--------|--------|--------|
 B|---------------------------|--------|--------|--------|--------|--------|--------|
F#|---------------------------|--------|--------|--------|--------|--------|--------|
C#|---------------------------|--------|--------|--------|--------|--------|--------|


 E|--------|--------|--------|--------|-12--12---12--12---12--12---12--12---|-12--12---12--12---12--12---12--12---|
 B|--------|--------|--------|--------|-------------------------------------|-------------------------------------|
F#|--------|--------|--------|--------|-------------------------------------|-------------------------------------|
C#|--------|--------|--------|--------|-------------------------------------|-------------------------------------|


 E|-12--12---12--12---12--12---12--12---|-14---15---12--12---12--12---|-12--12---12--12---12--12---12--12---|
 B|-------------------------------------|-----------------------------|-------------------------------------|
F#|-------------------------------------|-----------------------------|-------------------------------------|
C#|-------------------------------------|-----------------------------|-------------------------------------|


 E|-12--12---12--12---12--12---12--12---|-12--12---12--12---12--12---12--12---|-12--12---12--12---12--12---12--12---|
 B|-------------------------------------|-------------------------------------|-------------------------------------|
F#|-------------------------------------|-------------------------------------|-------------------------------------|
C#|-------------------------------------|-------------------------------------|-------------------------------------|


 E|-12--12---12--12---12--12---12--12---|-12--12---12--12---12--12---12--12---|-12--12---12--12---12--12---12--12---|
 B|-------------------------------------|-------------------------------------|-------------------------------------|
F#|-------------------------------------|-------------------------------------|-------------------------------------|
C#|-------------------------------------|-------------------------------------|-------------------------------------|


 E|-12--12---12--12---12--12---12--12---|-12--12---12--12---12--12---12--12---|-12--12---12--12---12--12---12--12---|
 B|-------------------------------------|-------------------------------------|-------------------------------------|
F#|-------------------------------------|-------------------------------------|-------------------------------------|
C#|-------------------------------------|-------------------------------------|-------------------------------------|


 E|-12--12---12--12---12--12---12--12---|-12--12---12--12---12--12---12--12---|-12--12---12--12---12--12---12--12---|
 B|-------------------------------------|-------------------------------------|-------------------------------------|
F#|-------------------------------------|-------------------------------------|-------------------------------------|
C#|-------------------------------------|-------------------------------------|-------------------------------------|


 E|-12--12---12--12---12--12---12--12---|-12--12---12--12---------|--------|--------|
 B|-------------------------------------|-------------------------|--------|--------|
F#|-------------------------------------|-------------------------|--------|--------|
C#|-------------------------------------|-------------------------|--------|--------|


 E|--------|--------|--------|--------|--------|-------------|-------------|-27--27--27--27---27-------|
 B|--------|--------|--------|--------|--------|-------------|-------------|---------------------------|
F#|--------|--------|--------|--------|--------|-------5-----|-------------|---------------------------|
C#|--------|--------|--------|--------|--------|-------3-----|-------------|---------------------------|


 E|--------|--------|--------|--------|--------|--------|--------|--------|--------|
 B|--------|--------|--------|--------|--------|--------|--------|--------|--------|
F#|--------|--------|--------|--------|--------|--------|--------|--------|--------|
C#|--------|--------|--------|--------|--------|--------|--------|--------|--------|


 E|--------|-12--12---12--12---12--12---12--12---|-12--12---12--12---12--12---12--12---|
 B|--------|-------------------------------------|-------------------------------------|
F#|--------|-------------------------------------|-------------------------------------|
C#|--------|-------------------------------------|-------------------------------------|


 E|-12--12---12--12---12--12---12--12---|-14---15---12--12---12--12---|-12--12---12--12---12--12---12--12---|
 B|-------------------------------------|-----------------------------|-------------------------------------|
F#|-------------------------------------|-----------------------------|-------------------------------------|
C#|-------------------------------------|-----------------------------|-------------------------------------|


 E|-12--12---12--12---12--12---12--12---|-12--12---12--12---12--12---12--12---|-12--12---12--12---12--12---12--12---|
 B|-------------------------------------|-------------------------------------|-------------------------------------|
F#|-------------------------------------|-------------------------------------|-------------------------------------|
C#|-------------------------------------|-------------------------------------|-------------------------------------|


 E|-12--12---12--12---12--12---12--12---|-12--12---12--12---12--12---12--12---|-12--12---12--12---12--12---12--12---|
 B|-------------------------------------|-------------------------------------|-------------------------------------|
F#|-------------------------------------|-------------------------------------|-------------------------------------|
C#|-------------------------------------|-------------------------------------|-------------------------------------|


 E|-12--12---12--12---12--12---12--12---|-12--12---12--12---12--12---12--12---|-12--12---12--12---12--12---12--12---|
 B|-------------------------------------|-------------------------------------|-------------------------------------|
F#|-------------------------------------|-------------------------------------|-------------------------------------|
C#|-------------------------------------|-------------------------------------|-------------------------------------|


 E|-12--12---12--12---12--12---12--12---|-12--12---12--12---12--12---12--12---|-12--12---12--12---12--12---12--12---|
 B|-------------------------------------|-------------------------------------|-------------------------------------|
F#|-------------------------------------|-------------------------------------|-------------------------------------|
C#|-------------------------------------|-------------------------------------|-------------------------------------|


 E|-12--12---12--12---12--12---12--12---|-12--12---12--12---------|--------|--------|
 B|-------------------------------------|-------------------------|--------|--------|
F#|-------------------------------------|-------------------------|--------|--------|
C#|-------------------------------------|-------------------------|--------|--------|


 E|--------|--------|--------|--------|--------|----------------------|--------------------------|
 B|--------|--------|--------|--------|--------|-------5--------------|-5---------5--------------|
F#|--------|--------|--------|--------|--------|------------8--6---5--|----------------8--6---5--|
C#|--------|--------|--------|--------|--------|-------3--------------|-3---------3--------------|


 E|--------------------------|--------------------------|--------------------------|
 B|-5---------5--------------|-5---------5--------------|-5---------5--------------|
F#|----------------8--6---5--|----------------8--6---5--|----------------8--6---5--|
C#|-3---------3--------------|-3---------3--------------|-3---------3--------------|


 E|--------------------------|--------------------------|--------------------------|
 B|-5---------5--------------|-5---------5--------------|-5---------5--------------|
F#|----------------8--6---5--|----------------8--6---5--|----------------8--6---5--|
C#|-3---------3--------------|-3---------3--------------|-3---------3--------------|


 E|--------------------------|--------------------------|--------------------------|
 B|-5---------3--------------|-3---------3--------------|-3---------3--------------|
F#|----------------8--6---5--|----------------8--6---5--|----------------8--6---5--|
C#|-3---------3--------------|-3---------3--------------|-3---------3--------------|


 E|--------------------------|--------------------------|--------------------------|
 B|-3---------3--------------|-3---------3--------------|-3---------3--------------|
F#|----------------8--6---5--|----------------8--6---5--|----------------8--6---5--|
C#|-3---------3--------------|-3---------3--------------|-3---------3--------------|


 E|--------------------------|--------------------------|--------------------------|
 B|-3---------3--------------|-3---------3--------------|-3---------3--------------|
F#|----------------8--6---5--|----------------8--6---5--|----------------8--6---5--|
C#|-3---------3--------------|-3---------3--------------|-3---------3--------------|


 E|--------------------------|--------------------------|--------------------------|
 B|-3---------3--------------|-3---------3--------------|-3---------3--------------|
F#|----------------8--6---5--|----------------8--6---5--|----------------8--6---5--|
C#|-3---------3--------------|-3---------3--------------|-3---------3--------------|


 E|--------------------------|-----5--5--5--5--5--5-----------------|--------------7--8--10----------------|
 B|-3---------3--------------|-3---------------------3--------------|-3---7--8--10----------3--------------|
F#|----------------8--6---5--|----------------------------8--6---5--|----------------------------8--6---5--|
C#|-3---------3--------------|-3---------------------3--------------|-3---------------------3--------------|


 E|-----5--5--5--5--5--5-----------------|-----5--5--5--5--5--5-----------------|-----5--5--5--5--5--5-----------------|
 B|-3---------------------3--------------|-3---------------------3--------------|-3---------------------3--------------|
F#|----------------------------8--6---5--|----------------------------8--6---5--|----------------------------8--6---5--|
C#|-3---------------------3--------------|-3---------------------3--------------|-3---------------------3--------------|


 E|--------------7--8--10----------------|-----5--5--5--5--5--5-----------------|-----5--5--5--5--5--5--------|
 B|-3---7--8--10----------3--------------|-3---------------------3--------------|-3---------------------------|
F#|----------------------------8--6---5--|----------------------------8--6---5--|-----------------------------|
C#|-3---------------------3--------------|-3---------------------3--------------|-3---------------------------|





Track 6: Untitled

 E|--------|--------|--------|--------|--------|--------|--------|--------|--------|
 B|--------|--------|--------|--------|--------|--------|--------|--------|--------|
F#|--------|--------|--------|--------|--------|--------|--------|--------|--------|
C#|--------|--------|--------|--------|--------|--------|--------|--------|--------|


 E|--------|--------|--------|--------|--------|--------|--------|--------|--------|
 B|--------|--------|--------|--------|--------|--------|--------|--------|--------|
F#|--------|--------|--------|--------|--------|--------|--------|--------|--------|
C#|--------|--------|--------|--------|--------|--------|--------|--------|--------|


 E|--------|--------|--------|--------|--------|--------|--------|--------|--------|
 B|--------|--------|--------|--------|--------|--------|--------|--------|--------|
F#|--------|--------|--------|--------|--------|--------|--------|--------|--------|
C#|--------|--------|--------|--------|--------|--------|--------|--------|--------|


 E|-------15---17---|-14---15---------|--------|--------|--------|--------|--------|
 B|-----------------|-----------17----|--------|--------|--------|--------|--------|
F#|-----------------|-----------------|--------|--------|--------|--------|--------|
C#|-----------------|-----------------|--------|--------|--------|--------|--------|


 E|--------|--------|--------|--------|--------|--------|--------|--------|--------|
 B|--------|--------|--------|--------|--------|--------|--------|--------|--------|
F#|--------|--------|--------|--------|--------|--------|--------|--------|--------|
C#|--------|--------|--------|--------|--------|--------|--------|--------|--------|


 E|--------|--------|--------|--------|--------|--------|--------|--------|--------|
 B|--------|--------|--------|--------|--------|--------|--------|--------|--------|
F#|--------|--------|--------|--------|--------|--------|--------|--------|--------|
C#|--------|--------|--------|--------|--------|--------|--------|--------|--------|


 E|--------|--------|--------|--------|-------------|-------------|-------------|-------------|
 B|--------|--------|--------|--------|-------12----|-------12----|-------12----|-------12----|
F#|--------|--------|--------|--------|-------------|-------------|-------------|-------------|
C#|--------|--------|--------|--------|-------10----|-------10----|-------10----|-------10----|


 E|-------12----|-------12----|-------12----|-------12----|--------|--------|--------|
 B|-------------|-------------|-------------|-------------|--------|--------|--------|
F#|-------10----|-------10----|-------10----|-------10----|--------|--------|--------|
C#|-------------|-------------|-------------|-------------|--------|--------|--------|


 E|--------|--------|--------|--------|--------|--------|--------|--------|--------|
 B|--------|--------|--------|--------|--------|--------|--------|--------|--------|
F#|--------|--------|--------|--------|--------|--------|--------|--------|--------|
C#|--------|--------|--------|--------|--------|--------|--------|--------|--------|


 E|--------|--------|--------|--------|--------|--------|--------|--------|--------|
 B|--------|--------|--------|--------|--------|--------|--------|--------|--------|
F#|--------|--------|--------|--------|--------|--------|--------|--------|--------|
C#|--------|--------|--------|--------|--------|--------|--------|--------|--------|


 E|--------|--------|--------|--------|--------|--------|--------|--------|--------|
 B|--------|--------|--------|--------|--------|--------|--------|--------|--------|
F#|--------|--------|--------|--------|--------|--------|--------|--------|--------|
C#|--------|--------|--------|--------|--------|--------|--------|--------|--------|


 E|--------|-------12----|-------12----|-------12----|-------12----|--------|--------|
 B|--------|-------------|-------------|-------------|-------------|--------|--------|
F#|--------|-------10----|-------10----|-------10----|-------10----|--------|--------|
C#|--------|-------------|-------------|-------------|-------------|--------|--------|


 E|--------|--------|--------|--------|--------|--------|--------|--------|--------|
 B|--------|--------|--------|--------|--------|--------|--------|--------|--------|
F#|--------|--------|--------|--------|--------|--------|--------|--------|--------|
C#|--------|--------|--------|--------|--------|--------|--------|--------|--------|


 E|--------|--------|--------|--------|--------|--------|--------|--------|--------|
 B|--------|--------|--------|--------|--------|--------|--------|--------|--------|
F#|--------|--------|--------|--------|--------|--------|--------|--------|--------|
C#|--------|--------|--------|--------|--------|--------|--------|--------|--------|


 E|--------|--------|--------|--------|--------|--------|--------|--------|--------|
 B|--------|--------|--------|--------|--------|--------|--------|--------|--------|
F#|--------|--------|--------|--------|--------|--------|--------|--------|--------|
C#|--------|--------|--------|--------|--------|--------|--------|--------|--------|


 E|--------|--------|--------|--------|
 B|--------|--------|--------|--------|
F#|--------|--------|--------|--------|
C#|--------|--------|--------|--------|





Track 7: Untitled

 E|--------|--------|--------|--------|--------|--------|--------|--------|--------|
 B|--------|--------|--------|--------|--------|--------|--------|--------|--------|
F#|--------|--------|--------|--------|--------|--------|--------|--------|--------|
C#|--------|--------|--------|--------|--------|--------|--------|--------|--------|


 E|--------|--------|--------|--------|--------|--------|--------|--------|--------|
 B|--------|--------|--------|--------|--------|--------|--------|--------|--------|
F#|--------|--------|--------|--------|--------|--------|--------|--------|--------|
C#|--------|--------|--------|--------|--------|--------|--------|--------|--------|


 E|--------|--------|--------|--------|--------|--------|--------|--------|--------|
 B|--------|--------|--------|--------|--------|--------|--------|--------|--------|
F#|--------|--------|--------|--------|--------|--------|--------|--------|--------|
C#|--------|--------|--------|--------|--------|--------|--------|--------|--------|


 E|--------|--------|-24---24--19----19--|-19-----|--------|-24---24--19----19--|-19-----|
 B|--------|--------|--------------------|--------|--------|--------------------|--------|
F#|--------|--------|--------------------|--------|--------|--------------------|--------|
C#|--------|--------|--------------------|--------|--------|--------------------|--------|


 E|--------|-24---24--19----19--|--------|--------|--------|--------|--------|--------|
 B|--------|--------------------|--------|--------|--------|--------|--------|--------|
F#|--------|--------------------|--------|--------|--------|--------|--------|--------|
C#|--------|--------------------|--------|--------|--------|--------|--------|--------|


 E|--------|--------|--------|--------|--------|--------|--------|--------|--------|
 B|--------|--------|--------|--------|--------|--------|--------|--------|--------|
F#|--------|--------|--------|--------|--------|--------|--------|--------|--------|
C#|--------|--------|--------|--------|--------|--------|--------|--------|--------|


 E|--------|--------|--------|--------|--------|--------|--------|--------|--------|
 B|--------|--------|--------|--------|--------|--------|--------|--------|--------|
F#|--------|--------|--------|--------|--------|--------|--------|--------|--------|
C#|--------|--------|--------|--------|--------|--------|--------|--------|--------|


 E|--------|--------|--------|--------|--------|--------|--------|--------|-24---24--19----19--|
 B|--------|--------|--------|--------|--------|--------|--------|--------|--------------------|
F#|--------|--------|--------|--------|--------|--------|--------|--------|--------------------|
C#|--------|--------|--------|--------|--------|--------|--------|--------|--------------------|


 E|-19-----|--------|-24---24--19----19--|-19-----|--------|-24---24--19----19--|--------|
 B|--------|--------|--------------------|--------|--------|--------------------|--------|
F#|--------|--------|--------------------|--------|--------|--------------------|--------|
C#|--------|--------|--------------------|--------|--------|--------------------|--------|


 E|--------|--------|--------|--------|--------|--------|--------|--------|--------|
 B|--------|--------|--------|--------|--------|--------|--------|--------|--------|
F#|--------|--------|--------|--------|--------|--------|--------|--------|--------|
C#|--------|--------|--------|--------|--------|--------|--------|--------|--------|


 E|--------|--------|--------|--------|--------|--------|--------|--------|--------|
 B|--------|--------|--------|--------|--------|--------|--------|--------|--------|
F#|--------|--------|--------|--------|--------|--------|--------|--------|--------|
C#|--------|--------|--------|--------|--------|--------|--------|--------|--------|


 E|--------|--------|--------|--------|--------|-----------------19---|--------------------------20---|
 B|--------|--------|--------|--------|--------|------------20--------|-20--------20------------------|
F#|--------|--------|--------|--------|--------|-------18-------------|------18-------------20--------|
C#|--------|--------|--------|--------|--------|----------------------|----------------18-------------|


 E|--------------------------27---|--------------------------27---|--------------------------19---|
 B|---------------------24--------|-24--------24--------24--------|-24--------24--------20--------|
F#|-20--------20---22-------------|------22--------22-------------|------22--------18-------------|
C#|------18-----------------------|-------------------------------|-------------------------------|


 E|--------------------------20---|--------------------------27---|--------------------------27---|
 B|-20--------20------------------|---------------------24--------|-24--------24--------24--------|
F#|------18-------------20--------|-20--------20---22-------------|------22--------22-------------|
C#|----------------18-------------|------18-----------------------|-------------------------------|


 E|--------------------------19---|--------------------------20---|--------------------------27---|
 B|-24--------24--------20--------|-20--------20------------------|---------------------24--------|
F#|------22--------18-------------|------18-------------20--------|-20--------20---22-------------|
C#|-------------------------------|----------------18-------------|------18-----------------------|


 E|--------------------------27---|--------------------------19---|--------------------------20---|
 B|-24--------24--------24--------|-24--------24--------20--------|-20--------20------------------|
F#|------22--------22-------------|------22--------18-------------|------18-------------20--------|
C#|-------------------------------|-------------------------------|----------------18-------------|


 E|--------------------------27---|--------------------------27---|--------------------------19---|
 B|---------------------24--------|-24--------24--------24--------|-24--------24--------20--------|
F#|-20--------20---22-------------|------22--------22-------------|------22--------18-------------|
C#|------18-----------------------|-------------------------------|-------------------------------|


 E|--------------------------20---|--------------------------27---|--------------------------27---|
 B|-20--------20------------------|---------------------24--------|-24--------24--------24--------|
F#|------18-------------20--------|-20--------20---22-------------|------22--------22-------------|
C#|----------------18-------------|------18-----------------------|-------------------------------|


 E|----------------------|--------|--------|--------|--------|--------|--------|--------|
 B|-24--------24---------|--------|--------|--------|--------|--------|--------|--------|
F#|------22--------------|--------|--------|--------|--------|--------|--------|--------|
C#|----------------------|--------|--------|--------|--------|--------|--------|--------|


 E|--------|--------|--------|--------|--------|
 B|--------|--------|--------|--------|--------|
F#|--------|--------|--------|--------|--------|
C#|--------|--------|--------|--------|--------|





Track 8: Untitled

 E|--------|--------|--------|--------|--------|--------|--------|--------|--------|
 B|--------|--------|--------|--------|--------|--------|--------|--------|--------|
F#|--------|--------|--------|--------|--------|--------|--------|--------|--------|
C#|--------|--------|--------|--------|--------|--------|--------|--------|--------|


 E|--------|--------|--------|--------|--------|--------|--------|--------|--------|
 B|--------|--------|--------|--------|--------|--------|--------|--------|--------|
F#|--------|--------|--------|--------|--------|--------|--------|--------|--------|
C#|--------|--------|--------|--------|--------|--------|--------|--------|--------|


 E|--------|--------|--------|--------|--------|--------|--------|--------|--------|
 B|--------|--------|--------|--------|--------|--------|--------|--------|--------|
F#|--------|--------|--------|--------|--------|--------|--------|--------|--------|
C#|--------|--------|--------|--------|--------|--------|--------|--------|--------|


 E|--------|--------|--------|-------15---17---|-14---15---------|--------|-------15---17---|
 B|--------|--------|-17-----|-----------------|-----------17----|-17-----|-17--------------|
F#|--------|--------|--------|-----------------|-----------------|--------|-----------------|
C#|--------|--------|--------|-----------------|-----------------|--------|-----------------|


 E|-14---15---------|--------|-------15---17---|-14---15---------|--------|--------|
 B|-----------17----|-17-----|-17--------------|-----------17----|--------|--------|
F#|-----------------|--------|-----------------|-----------------|--------|--------|
C#|-----------------|--------|-----------------|-----------------|--------|--------|


 E|--------|--------|--------|--------|--------|--------|--------|--------|--------|
 B|--------|--------|--------|--------|--------|--------|--------|--------|--------|
F#|--------|--------|--------|--------|--------|--------|--------|--------|--------|
C#|--------|--------|--------|--------|--------|--------|--------|--------|--------|


 E|--------|--------|--------|--------|--------|--------|--------|--------|--------|
 B|--------|--------|--------|--------|--------|--------|--------|--------|--------|
F#|--------|--------|--------|--------|--------|--------|--------|--------|--------|
C#|--------|--------|--------|--------|--------|--------|--------|--------|--------|


 E|--------|--------|--------|--------|--------|--------|--------|--------|--------|
 B|--------|--------|--------|--------|--------|--------|--------|--------|--------|
F#|--------|--------|--------|--------|--------|--------|--------|--------|--------|
C#|--------|--------|--------|--------|--------|--------|--------|--------|--------|


 E|--------|--------|--------|--------|--------|--------|--------|--------|--------|
 B|--------|--------|--------|--------|--------|--------|--------|--------|--------|
F#|--------|--------|--------|--------|--------|--------|--------|--------|--------|
C#|--------|--------|--------|--------|--------|--------|--------|--------|--------|


 E|--------|--------|--------|--------|--------|--------|--------|--------|--------|
 B|--------|--------|--------|--------|--------|--------|--------|--------|--------|
F#|--------|--------|--------|--------|--------|--------|--------|--------|--------|
C#|--------|--------|--------|--------|--------|--------|--------|--------|--------|


 E|--------|--------|--------|--------|--------|--------|--------|--------|--------|
 B|--------|--------|--------|--------|--------|--------|--------|--------|--------|
F#|--------|--------|--------|--------|--------|--------|--------|--------|--------|
C#|--------|--------|--------|--------|--------|--------|--------|--------|--------|


 E|--------|--------|--------|--------|--------|--------|--------|--------|--------|
 B|--------|--------|--------|--------|--------|--------|--------|--------|--------|
F#|--------|--------|--------|--------|--------|--------|--------|--------|--------|
C#|--------|--------|--------|--------|--------|--------|--------|--------|--------|


 E|--------|--------|--------|--------|--------|--------|--------|--------|--------|
 B|--------|--------|--------|--------|--------|--------|--------|--------|--------|
F#|--------|--------|--------|--------|--------|--------|--------|--------|--------|
C#|--------|--------|--------|--------|--------|--------|--------|--------|--------|


 E|--------|--------|--------|--------|--------|--------|--------|--------|--------|
 B|--------|--------|--------|--------|--------|--------|--------|--------|--------|
F#|--------|--------|--------|--------|--------|--------|--------|--------|--------|
C#|--------|--------|--------|--------|--------|--------|--------|--------|--------|


 E|--------|--------|--------|--------|--------|--------|--------|--------|--------|
 B|--------|--------|--------|--------|--------|--------|--------|--------|--------|
F#|--------|--------|--------|--------|--------|--------|--------|--------|--------|
C#|--------|--------|--------|--------|--------|--------|--------|--------|--------|


 E|--------|--------|
 B|--------|--------|
F#|--------|--------|
C#|--------|--------|





Track 9: Untitled

 E|--------|--------|--------|--------|--------|--------|--------|--------|--------|
 B|--------|--------|--------|--------|--------|--------|--------|--------|--------|
F#|--------|--------|--------|--------|--------|--------|--------|--------|--------|
C#|--------|--------|--------|--------|--------|--------|--------|--------|--------|


 E|--------|--------|--------|--------|--------|--------|--------|--------|--------|
 B|--------|--------|--------|--------|--------|--------|--------|--------|--------|
F#|--------|--------|--------|--------|--------|--------|--------|--------|--------|
C#|--------|--------|--------|--------|--------|--------|--------|--------|--------|


 E|--------|--------|--------|--------|--------|--------|--------|--------|--------|
 B|--------|--------|--------|--------|--------|--------|--------|--------|--------|
F#|--------|--------|--------|--------|--------|--------|--------|--------|--------|
C#|--------|--------|--------|--------|--------|--------|--------|--------|--------|


 E|--------|--------|--------|--------|--------|--------|--------|--------|--------|
 B|--------|--------|--------|--------|--------|--------|--------|--------|--------|
F#|--------|--------|--------|--------|--------|--------|--------|--------|--------|
C#|--------|--------|--------|--------|--------|--------|--------|--------|--------|


 E|--------|--------|--------|-------15---17---|-14---15---------|-------------|-------------|
 B|--------|--------|-17-----|-17--------------|-----------17----|-17----15----|-------10----|
F#|--------|--------|--------|-----------------|-----------------|-------------|-------------|
C#|--------|--------|--------|-----------------|-----------------|-------13----|-------8-----|


 E|-------------|-------------|-------------|-------------|-------------|-------------|
 B|-------8-----|-------15----|-------15----|-------10----|-------8-----|-------15----|
F#|-------------|-------------|-------------|-------------|-------------|-------------|
C#|-------6-----|-------13----|-------13----|-------8-----|-------6-----|-------13----|


 E|-------------|-------------|-------------|-------------|-------------|-------------|
 B|-------15----|-------10----|-------8-----|-------15----|-------15----|-------10----|
F#|-------------|-------------|-------------|-------------|-------------|-------------|
C#|-------13----|-------8-----|-------6-----|-------13----|-------13----|-------8-----|


 E|-------------|--------|--------|--------|--------|--------|--------|--------|--------|
 B|-------8-----|--------|--------|--------|--------|--------|--------|--------|--------|
F#|-------------|--------|--------|--------|--------|--------|--------|--------|--------|
C#|-------6-----|--------|--------|--------|--------|--------|--------|--------|--------|


 E|--------|--------|--------|--------|--------|--------|--------|--------|--------|
 B|--------|--------|--------|--------|--------|--------|--------|--------|--------|
F#|--------|--------|--------|--------|--------|--------|--------|--------|--------|
C#|--------|--------|--------|--------|--------|--------|--------|--------|--------|


 E|--------|--------|--------|--------|--------|--------|--------|--------|--------|
 B|--------|--------|--------|--------|--------|--------|--------|--------|--------|
F#|--------|--------|--------|--------|--------|--------|--------|--------|--------|
C#|--------|--------|--------|--------|--------|--------|--------|--------|--------|


 E|--------|--------|--------|--------|--------|--------|--------|--------|--------|
 B|--------|--------|--------|--------|--------|--------|--------|--------|--------|
F#|--------|--------|--------|--------|--------|--------|--------|--------|--------|
C#|--------|--------|--------|--------|--------|--------|--------|--------|--------|


 E|--------|--------|--------|--------|--------|--------|--------|--------|--------|
 B|--------|--------|--------|--------|--------|--------|--------|--------|--------|
F#|--------|--------|--------|--------|--------|--------|--------|--------|--------|
C#|--------|--------|--------|--------|--------|--------|--------|--------|--------|


 E|--------|--------|--------|--------|--------|--------|--------|--------|--------|
 B|--------|--------|--------|--------|--------|--------|--------|--------|--------|
F#|--------|--------|--------|--------|--------|--------|--------|--------|--------|
C#|--------|--------|--------|--------|--------|--------|--------|--------|--------|


 E|--------|--------|--------|--------|--------|--------|--------|--------|--------|
 B|--------|--------|--------|--------|--------|--------|--------|--------|--------|
F#|--------|--------|--------|--------|--------|--------|--------|--------|--------|
C#|--------|--------|--------|--------|--------|--------|--------|--------|--------|


 E|--------|--------|--------|--------|--------|--------|--------|--------|--------|
 B|--------|--------|--------|--------|--------|--------|--------|--------|--------|
F#|--------|--------|--------|--------|--------|--------|--------|--------|--------|
C#|--------|--------|--------|--------|--------|--------|--------|--------|--------|


 E|--------|--------|--------|--------|--------|
 B|--------|--------|--------|--------|--------|
F#|--------|--------|--------|--------|--------|
C#|--------|--------|--------|--------|--------|





Track 10: Untitled

 E|--------|--------|--------|--------|--------|--------|--------|--------|--------|
 B|--------|--------|--------|--------|--------|--------|--------|--------|--------|
F#|--------|--------|--------|--------|--------|--------|--------|--------|--------|
C#|--------|--------|--------|--------|--------|--------|--------|--------|--------|


 E|--------|--------|--------|--------|--------|--------|--------|--------|--------|
 B|--------|--------|--------|--------|--------|--------|--------|--------|--------|
F#|--------|--------|--------|--------|--------|--------|--------|--------|--------|
C#|--------|--------|--------|--------|--------|--------|--------|--------|--------|


 E|--------|--------|--------|--------|--------|--------|--------|--------|--------|
 B|--------|--------|--------|--------|--------|--------|--------|--------|--------|
F#|--------|--------|--------|--------|--------|--------|--------|--------|--------|
C#|--------|--------|--------|--------|--------|--------|--------|--------|--------|


 E|--------|--------|--------|--------|--------|--------|--------|--------|--------|
 B|--------|--------|--------|--------|--------|--------|--------|--------|--------|
F#|--------|--------|--------|--------|--------|--------|--------|--------|--------|
C#|--------|--------|--------|--------|--------|--------|--------|--------|--------|


 E|--------|--------|--------|--------|--------|--------|--------|--------|--------|
 B|--------|--------|--------|--------|--------|--------|--------|--------|--------|
F#|--------|--------|--------|--------|--------|--------|--------|--------|--------|
C#|--------|--------|--------|--------|--------|--------|--------|--------|--------|


 E|--------|--------|--------|--------|--------|--------|--------|--------|--------|
 B|--------|--------|--------|--------|--------|--------|--------|--------|--------|
F#|--------|--------|--------|--------|--------|--------|--------|--------|--------|
C#|--------|--------|--------|--------|--------|--------|--------|--------|--------|


 E|--------|--------|--------|--------|--------|--------|--------|--------|--------|
 B|--------|--------|--------|--------|--------|--------|--------|--------|--------|
F#|--------|--------|--------|--------|--------|--------|--------|--------|--------|
C#|--------|--------|--------|--------|--------|--------|--------|--------|--------|


 E|--------|--------|--------|-------15---17---|-14---15---------|--------|--------|
 B|--------|--------|--------|-----------------|-----------17----|--------|--------|
F#|--------|--------|--------|-----------------|-----------------|--------|--------|
C#|--------|--------|--------|-----------------|-----------------|--------|--------|


 E|--------|--------|--------|--------|--------|--------|--------|--------|--------|
 B|--------|--------|--------|--------|--------|--------|--------|--------|--------|
F#|--------|--------|--------|--------|--------|--------|--------|--------|--------|
C#|--------|--------|--------|--------|--------|--------|--------|--------|--------|


 E|--------|--------|--------|--------|--------|--------|--------|--------|--------|
 B|--------|--------|--------|--------|--------|--------|--------|--------|--------|
F#|--------|--------|--------|--------|--------|--------|--------|--------|--------|
C#|--------|--------|--------|--------|--------|--------|--------|--------|--------|


 E|--------|--------|--------|--------|--------|--------|--------|--------|--------|
 B|--------|--------|--------|--------|--------|--------|--------|--------|--------|
F#|--------|--------|--------|--------|--------|--------|--------|--------|--------|
C#|--------|--------|--------|--------|--------|--------|--------|--------|--------|


 E|--------|--------|--------|--------|--------|--------|--------|--------|--------|
 B|--------|--------|--------|--------|--------|--------|--------|--------|--------|
F#|--------|--------|--------|--------|--------|--------|--------|--------|--------|
C#|--------|--------|--------|--------|--------|--------|--------|--------|--------|


 E|--------|--------|--------|--------|--------|--------|--------|--------|--------|
 B|--------|--------|--------|--------|--------|--------|--------|--------|--------|
F#|--------|--------|--------|--------|--------|--------|--------|--------|--------|
C#|--------|--------|--------|--------|--------|--------|--------|--------|--------|


 E|--------|--------|--------|--------|--------|--------|--------|--------|--------|
 B|--------|--------|--------|--------|--------|--------|--------|--------|--------|
F#|--------|--------|--------|--------|--------|--------|--------|--------|--------|
C#|--------|--------|--------|--------|--------|--------|--------|--------|--------|


 E|--------|--------|--------|--------|--------|--------|--------|--------|
 B|--------|--------|--------|--------|--------|--------|--------|--------|
F#|--------|--------|--------|--------|--------|--------|--------|--------|
C#|--------|--------|--------|--------|--------|--------|--------|--------|





Track 11: Untitled

 E|--------|--------|--------|--------|--------|--------|--------|--------|--------|
 B|--------|--------|--------|--------|--------|--------|--------|--------|--------|
F#|--------|--------|--------|--------|--------|--------|--------|--------|--------|
C#|--------|--------|--------|--------|--------|--------|--------|--------|--------|


 E|--------|--------|--------|--------|--------|--------|--------|--------|--------|
 B|--------|--------|--------|--------|--------|--------|--------|--------|--------|
F#|--------|--------|--------|--------|--------|--------|--------|--------|--------|
C#|--------|--------|--------|--------|--------|--------|--------|--------|--------|


 E|--------|--------|--------|--------|--------|--------|--------|--------|--------|
 B|--------|--------|--------|--------|--------|--------|--------|--------|--------|
F#|--------|--------|--------|--------|--------|--------|--------|--------|--------|
C#|--------|--------|--------|--------|--------|--------|--------|--------|--------|


 E|--------|--------|--------|--------|--------|--------|--------|--------|--------|
 B|--------|--------|--------|--------|--------|--------|--------|--------|--------|
F#|--------|--------|--------|--------|--------|--------|--------|--------|--------|
C#|--------|--------|--------|--------|--------|--------|--------|--------|--------|


 E|--------|--------|--------|--------|--------|--------|--------|--------|--------|
 B|--------|--------|--------|--------|--------|--------|--------|--------|--------|
F#|--------|--------|--------|--------|--------|--------|--------|--------|--------|
C#|--------|--------|--------|--------|--------|--------|--------|--------|--------|


 E|--------|--------|--------|--------|--------|--------|--------|--------|--------|
 B|--------|--------|--------|--------|--------|--------|--------|--------|--------|
F#|--------|--------|--------|--------|--------|--------|--------|--------|--------|
C#|--------|--------|--------|--------|--------|--------|--------|--------|--------|


 E|--------|--------|--------|--------|--------|--------|--------|--------|--------|
 B|--------|--------|--------|--------|--------|--------|--------|--------|--------|
F#|--------|--------|--------|--------|--------|--------|--------|--------|--------|
C#|--------|--------|--------|--------|--------|--------|--------|--------|--------|


 E|--------|--------|--------|--------|--------|--------|-------15---17---|-14---15---------|
 B|--------|--------|--------|--------|--------|-17-----|-----------------|-----------17----|
F#|--------|--------|--------|--------|--------|--------|-----------------|-----------------|
C#|--------|--------|--------|--------|--------|--------|-----------------|-----------------|


 E|--------|-------15---17---|-14---15---------|--------|-------15---17---|-14---15---------|
 B|-17-----|-17--------------|-----------17----|-17-----|-17--------------|-----------17----|
F#|--------|-----------------|-----------------|--------|-----------------|-----------------|
C#|--------|-----------------|-----------------|--------|-----------------|-----------------|


 E|--------|--------|--------|--------|--------|--------|--------|--------|--------|
 B|--------|--------|--------|--------|--------|--------|--------|--------|--------|
F#|--------|--------|--------|--------|--------|--------|--------|--------|--------|
C#|--------|--------|--------|--------|--------|--------|--------|--------|--------|


 E|--------|--------|--------|--------|--------|--------|--------|--------|--------|
 B|--------|--------|--------|--------|--------|--------|--------|--------|--------|
F#|--------|--------|--------|--------|--------|--------|--------|--------|--------|
C#|--------|--------|--------|--------|--------|--------|--------|--------|--------|


 E|--------|--------|--------|--------|--------|--------|--------|--------|--------|
 B|--------|--------|--------|--------|--------|--------|--------|--------|--------|
F#|--------|--------|--------|--------|--------|--------|--------|--------|--------|
C#|--------|--------|--------|--------|--------|--------|--------|--------|--------|


 E|--------|--------|--------|--------|--------|--------|--------|--------|--------|
 B|--------|--------|--------|--------|--------|--------|--------|--------|--------|
F#|--------|--------|--------|--------|--------|--------|--------|--------|--------|
C#|--------|--------|--------|--------|--------|--------|--------|--------|--------|


 E|--------|--------|--------|--------|--------|--------|--------|--------|--------|
 B|--------|--------|--------|--------|--------|--------|--------|--------|--------|
F#|--------|--------|--------|--------|--------|--------|--------|--------|--------|
C#|--------|--------|--------|--------|--------|--------|--------|--------|--------|


 E|--------|--------|--------|--------|--------|--------|--------|--------|--------|
 B|--------|--------|--------|--------|--------|--------|--------|--------|--------|
F#|--------|--------|--------|--------|--------|--------|--------|--------|--------|
C#|--------|--------|--------|--------|--------|--------|--------|--------|--------|


 E|--------|
 B|--------|
F#|--------|
C#|--------|





Track 12: Untitled

 E|--------|--------|--------|--------|--------|--------|--------|--------|--------|
 B|--------|--------|--------|--------|--------|--------|--------|--------|--------|
F#|--------|--------|--------|--------|--------|--------|--------|--------|--------|
C#|--------|--------|--------|--------|--------|--------|--------|--------|--------|


 E|--------|--------|--------|--------|--------|--------|--------|--------|--------|
 B|--------|--------|--------|--------|--------|--------|--------|--------|--------|
F#|--------|--------|--------|--------|--------|--------|--------|--------|--------|
C#|--------|--------|--------|--------|--------|--------|--------|--------|--------|


 E|--------|--------|--------|--------|--------|--------|--------|--------|--------|
 B|--------|--------|--------|--------|--------|--------|--------|--------|--------|
F#|--------|--------|--------|--------|--------|--------|--------|--------|--------|
C#|--------|--------|--------|--------|--------|--------|--------|--------|--------|


 E|--------|--------|--------|--------|--------|--------|--------|--------|--------|
 B|--------|--------|--------|--------|--------|--------|--------|--------|--------|
F#|--------|--------|--------|--------|--------|--------|--------|--------|--------|
C#|--------|--------|--------|--------|--------|--------|--------|--------|--------|


 E|--------|--------|--------|--------|--------|--------|--------|--------|--------|
 B|--------|--------|--------|--------|--------|--------|--------|--------|--------|
F#|--------|--------|--------|--------|--------|--------|--------|--------|--------|
C#|--------|--------|--------|--------|--------|--------|--------|--------|--------|


 E|--------|--------|--------|--------|--------|--------|--------|--------|--------|
 B|--------|--------|--------|--------|--------|--------|--------|--------|--------|
F#|--------|--------|--------|--------|--------|--------|--------|--------|--------|
C#|--------|--------|--------|--------|--------|--------|--------|--------|--------|


 E|--------|--------|--------|--------|--------|--------|--------|--------|--------|
 B|--------|--------|--------|--------|--------|--------|--------|--------|--------|
F#|--------|--------|--------|--------|--------|--------|--------|--------|--------|
C#|--------|--------|--------|--------|--------|--------|--------|--------|--------|


 E|--------|--------|--------|--------|--------|--------|--------|--------|--------|
 B|--------|--------|--------|--------|--------|--------|--------|--------|--------|
F#|--------|--------|--------|--------|--------|--------|--------|--------|--------|
C#|--------|--------|--------|--------|--------|--------|--------|--------|--------|


 E|--------|--------|--------|--------|--------|--------|-------15---17---|-14---15---------|
 B|--------|--------|--------|--------|--------|-17-----|-17--------------|-----------17----|
F#|--------|--------|--------|--------|--------|--------|-----------------|-----------------|
C#|--------|--------|--------|--------|--------|--------|-----------------|-----------------|


 E|-------------|-------------|-------------|-------------|-------------|-------------|
 B|-17----15----|-------10----|-------8-----|-------15----|-------15----|-------10----|
F#|-------------|-------------|-------------|-------------|-------------|-------------|
C#|-------13----|-------8-----|-------6-----|-------13----|-------13----|-------8-----|


 E|-------------|-------------|-------------|-------------|-------------|-------------|
 B|-------8-----|-------15----|-------15----|-------10----|-------8-----|-------15----|
F#|-------------|-------------|-------------|-------------|-------------|-------------|
C#|-------6-----|-------13----|-------13----|-------8-----|-------6-----|-------13----|


 E|-------------|-------------|-------------|--------|--------|--------|--------|--------|
 B|-------15----|-------10----|-------8-----|--------|--------|--------|--------|--------|
F#|-------------|-------------|-------------|--------|--------|--------|--------|--------|
C#|-------13----|-------8-----|-------6-----|--------|--------|--------|--------|--------|


 E|--------|--------|--------|--------|--------|--------|--------|--------|--------|
 B|--------|--------|--------|--------|--------|--------|--------|--------|--------|
F#|--------|--------|--------|--------|--------|--------|--------|--------|--------|
C#|--------|--------|--------|--------|--------|--------|--------|--------|--------|


 E|--------|--------|--------|--------|--------|--------|--------|--------|--------|
 B|--------|--------|--------|--------|--------|--------|--------|--------|--------|
F#|--------|--------|--------|--------|--------|--------|--------|--------|--------|
C#|--------|--------|--------|--------|--------|--------|--------|--------|--------|


 E|--------|--------|--------|--------|--------|--------|--------|--------|--------|
 B|--------|--------|--------|--------|--------|--------|--------|--------|--------|
F#|--------|--------|--------|--------|--------|--------|--------|--------|--------|
C#|--------|--------|--------|--------|--------|--------|--------|--------|--------|


 E|--------|--------|--------|--------|--------|
 B|--------|--------|--------|--------|--------|
F#|--------|--------|--------|--------|--------|
C#|--------|--------|--------|--------|--------|