Menu:

 

Search:

 

slipknot - before i forget:

 



Title: Before I Forget
Artist: 
Album: The Subliminal Verses
Author: Slipknot


Track 1: Guitar 1

C#|-----------------------------------------------|-----------------------------------------------|
G#|-----------------------------------------------|-----------------------------------------------|
 E|-----------------------------------------------|-----------------------------------------------|
 B|-----------------------------------------------|-----------------------------------------------|
F#|-0--2-----0--2-----3--2-----0--2-----3--2--0---|-0--2-----0--2-----3--2-----0--2-----3--2--0---|
 B|-0--2--0--0--2--0--3--2--0--0--2--0--3--2--0---|-0--2--0--0--2--0--3--2--0--0--2--0--3--2--0---|


C#|-----------------------------------------------|-----------------------------------------------|
G#|-----------------------------------------------|-----------------------------------------------|
 E|-----------------------------------------------|-----------------------------------------------|
 B|-----------------------------------------------|-----------------------------------------------|
F#|-0--2-----0--2-----3--2-----0--2-----3--2--0---|-0--2-----0--2-----3--2-----0--2-----3--2--0---|
 B|-0--2--0--0--2--0--3--2--0--0--2--0--3--2--0---|-0--2--0--0--2--0--3--2--0--0--2--0--3--2--0---|


C#|-----------------------------------------------|-----------------------------------------------|
G#|-----------------------------------------------|-----------------------------------------------|
 E|-----------------------------------------------|-----------------------------------------------|
 B|-0--2-----0--2-----3--2-----0--2-----3--2--0---|-0--2-----0--2-----3--2-----0--2-----3--2--0---|
F#|-0--2--0--0--2--0--3--2--0--0--2--0--3--2--0---|-0--2--0--0--2--0--3--2--0--0--2--0--3--2--0---|
 B|-0--2--0--0--2--0--3--2--0--0--2--0--3--2--0---|-0--2--0--0--2--0--3--2--0--0--2--0--3--2--0---|


C#|-----------------------------------------------|-----------------------------------------|
G#|-----------------------------------------------|-----------------------------------------|
 E|-----------------------------------------------|-----------------------------------------|
 B|-0--2-----0--2-----3--2-----0--2-----3--2--0---|-0--2-----0--2-----3--2--5---5---0--0----|
F#|-0--2--0--0--2--0--3--2--0--0--2--0--3--2--0---|-0--2--0--0--2--0--3--2--5---5---0--0----|
 B|-0--2--0--0--2--0--3--2--0--0--2--0--3--2--0---|-0--2--0--0--2--0--3--2--5---5---0--0----|


C#|-----------------------|-----------------------------------------------|-----------------------------------------------|
G#|-----------------------|-----------------------------------------------|-----------------------------------------------|
 E|-----------------------|-----------------------------------------------|-----------------------------------------------|
 B|-5---5---0--0----------|-0--2-----0--2-----3--2-----0--2-----3--2--0---|-0--2-----0--2-----3--2-----0--2-----3--2--0---|
F#|-5---5---0--0----------|-0--2--0--0--2--0--3--2--0--0--2--0--3--2--0---|-0--2--0--0--2--0--3--2--0--0--2--0--3--2--0---|
 B|-5---5---0--0----------|-0--2--0--0--2--0--3--2--0--0--2--0--3--2--0---|-0--2--0--0--2--0--3--2--0--0--2--0--3--2--0---|


C#|-----------------------------------------------|-----------------------------------------|
G#|-----------------------------------------------|-----------------------------------------|
 E|-----------------------------------------------|-----------------------------------------|
 B|-0--2-----0--2-----3--2-----0--2-----3--2--0---|-0--2-----0--2-----3--2--5---5---0--0----|
F#|-0--2--0--0--2--0--3--2--0--0--2--0--3--2--0---|-0--2--0--0--2--0--3--2--5---5---0--0----|
 B|-0--2--0--0--2--0--3--2--0--0--2--0--3--2--0---|-0--2--0--0--2--0--3--2--5---5---0--0----|


C#|-----------------------------------------------|-----------------------------------------------|
G#|-----------------------------------------------|-----------------------------------------------|
 E|-----------------------------------------------|-----------------------------------------------|
 B|-0--2-----0--2-----3--2-----0--2-----3--2--0---|-0--2-----0--2-----3--2-----0--2-----3--2--0---|
F#|-0--2--0--0--2--0--3--2--0--0--2--0--3--2--0---|-0--2--0--0--2--0--3--2--0--0--2--0--3--2--0---|
 B|-0--2--0--0--2--0--3--2--0--0--2--0--3--2--0---|-0--2--0--0--2--0--3--2--0--0--2--0--3--2--0---|


C#|-----------------------------------------------|-----------------------------------------|
G#|-----------------------------------------------|-----------------------------------------|
 E|-----------------------------------------------|-----------------------------------------|
 B|-0--2-----0--2-----3--2-----0--2-----3--2--0---|-0--2-----0--2-----3--2--5---5---0--0----|
F#|-0--2--0--0--2--0--3--2--0--0--2--0--3--2--0---|-0--2--0--0--2--0--3--2--5---5---0--0----|
 B|-0--2--0--0--2--0--3--2--0--0--2--0--3--2--0---|-0--2--0--0--2--0--3--2--5---5---0--0----|


C#|-------------------------------------|-----------------------------------------|
G#|-------------------------------------|-----------------------------------------|
 E|-------------------------------------|-----------------------------------------|
 B|-5---5---0--0------------------------|-----------------------------------------|
F#|-5---5---0--0----2--2--2--2--3-------|----2--2--2--3-------2--2--2--2--3-------|
 B|-5---5---0--0----2--2--2--2--3-------|----2--2--2--3-------2--2--2--2--3-------|


C#|-----------------------------------------|-----------------------------------------|
G#|-----------------------------------------|-----------------------------------------|
 E|-----------------------------------------|-----------------------------------------|
 B|-----------------------------------------|-----------------------------------------|
F#|----2--2--2--3-------2--2--2--2--3-------|----2--2--2--3-------2--2--2--2--3-------|
 B|----2--2--2--3-------2--2--2--2--3-------|----2--2--2--3-------2--2--2--2--3-------|


C#|-------------------------------------|-----------------------------------------|
G#|-------------------------------------|-----------------------------------------|
 E|-------------------------------------|-----------------------------------------|
 B|-5---5---0--0------------------------|-----------------------------------------|
F#|-5---5---0--0----2--2--2--2--3-------|----2--2--2--3-------2--2--2--2--3-------|
 B|-5---5---0--0----2--2--2--2--3-------|----2--2--2--3-------2--2--2--2--3-------|


C#|-----------------------------------------|-----------------------------------------|
G#|-----------------------------------------|-----------------------------------------|
 E|-----------------------------------------|-----------------------------------------|
 B|-----------------------------------------|-----------------------------------------|
F#|----2--2--2--3-------2--2--2--2--3-------|----2--2--2--3-------2--2--2--2--3-------|
 B|----2--2--2--3-------2--2--2--2--3-------|----2--2--2--3-------2--2--2--2--3-------|


C#|-------------------------------------|-----------------------------------------|
G#|-------------------------------------|-----------------------------------------|
 E|-------------------------------------|-----------------------------------------|
 B|-5---5---0--0------------------------|-----------------------------------------|
F#|-5---5---0--0----2--2--2--2--3-------|----2--2--2--3-------2--2--2--2--3-------|
 B|-5---5---0--0----2--2--2--2--3-------|----2--2--2--3-------2--2--2--2--3-------|


C#|-----------------------------------------|-----------------------------------------|
G#|-----------------------------------------|-----------------------------------------|
 E|-----------------------------------------|-----------------------------------------|
 B|-----------------------------------------|-----------------------------------------|
F#|----2--2--2--3-------2--2--2--2--3-------|----2--2--2--3-------2--2--2--2--3-------|
 B|----2--2--2--3-------2--2--2--2--3-------|----2--2--2--3-------2--2--2--2--3-------|


C#|-------------------------------------|-----------------------------------------|
G#|-------------------------------------|-----------------------------------------|
 E|-------------------------------------|-----------------------------------------|
 B|-5---5---0--0------------------------|-----------------------------------------|
F#|-5---5---0--0----2--2--2--2--3-------|----2--2--2--3-------2--2--2--2--3-------|
 B|-5---5---0--0----2--2--2--2--3-------|----2--2--2--3-------2--2--2--2--3-------|


C#|-----------------------------------------|-----------------------------------------|
G#|-----------------------------------------|-----------------------------------------|
 E|-----------------------------------------|-----------------------------------------|
 B|-----------------------------------------|-----------------------------------------|
F#|----2--2--2--3-------2--2--2--2--3-------|----2--2--2--3-------2--2--2--2--3-------|
 B|----2--2--2--3-------2--2--2--2--3-------|----2--2--2--3-------2--2--2--2--3-------|


C#|-------------------------------|-------------------------------|-------------------------------|
G#|-------------------------------|-------------------------------|-------------------------------|
 E|-------------------------------|-------------------------------|-------------------------------|
 B|-5---5---0--0----2----2----3---|-----2-----------2----2----3---|-----2-----------2----2----3---|
F#|-5---5---0--0----2----2----3---|-----2-----------2----2----3---|-----2-----------2----2----3---|
 B|-5---5---0--0----2----2----3---|-----2-----------2----2----3---|-----2-----------2----2----3---|


C#|-------------------------------|---------------------------|---------------------------------|
G#|-------------------------------|---------------------------|---------------------------------|
 E|-------------------------------|---------------------------|---------------------------------|
 B|-----2-----------2----2----3---|-----2----------------2----|-----0---2---5---5---0---2---5---|
F#|-----2-----------2----2----3---|-----2----------------2----|-----0---2---5---5---0---2---5---|
 B|-----2-----------2----2----3---|-----2----------------2----|-----0---2---5---5---0---2---5---|


C#|---------------------------|---------------------------------|---------------------------|
G#|---------------------------|---------------------------------|---------------------------|
 E|---------------------------|---------------------------------|---------------------------|
 B|-----0---8---7--------2----|-----0---2---5---5---0---2---5---|-----0---8---7--------2----|
F#|-----0---8---7--------2----|-----0---2---5---5---0---2---5---|-----0---8---7--------2----|
 B|-----0---8---7--------2----|-----0---2---5---5---0---2---5---|-----0---8---7--------2----|


C#|---------------------------------|------------------------|------------------------------|
G#|---------------------------------|------------------------|------------------------------|
 E|---------------------------------|------------------------|------------------------------|
 B|-----0---2---5---5---0---2---5---|-----0---8----7----7----|-7---8---7---10--10--5----5---|
F#|-----0---2---5---5---0---2---5---|-----0---8----7----7----|-7---8---7---10--10--5----5---|
 B|-----0---2---5---5---0---2---5---|-----0---8----7----7----|-7---8---7---10--10--5----5---|


C#|------------------------|---------------------------------|---------------------------|
G#|------------------------|---------------------------------|---------------------------|
 E|------------------------|---------------------------------|---------------------------|
 B|-5---7---8---------2----|-----0---2---5---5---0---2---5---|-----0---8---7--------2----|
F#|-5---7---8---------2----|-----0---2---5---5---0---2---5---|-----0---8---7--------2----|
 B|-5---7---8---------2----|-----0---2---5---5---0---2---5---|-----0---8---7--------2----|


C#|---------------------------------|---------------------------|---------------------------------|
G#|---------------------------------|---------------------------|---------------------------------|
 E|---------------------------------|---------------------------|---------------------------------|
 B|-----0---2---5---5---0---2---5---|-----0---8---7--------2----|-----0---2---5---5---0---2---5---|
F#|-----0---2---5---5---0---2---5---|-----0---8---7--------2----|-----0---2---5---5---0---2---5---|
 B|-----0---2---5---5---0---2---5---|-----0---8---7--------2----|-----0---2---5---5---0---2---5---|


C#|------------------------|------------------------------|--------------------------------------|
G#|------------------------|------------------------------|--------------------------------------|
 E|------------------------|------------------------------|--------------------------------------|
 B|-----0---8----7----7----|-7---8---7---10--10--5----5---|-5---7---8----0--2-----0--2-----3--2--|
F#|-----0---8----7----7----|-7---8---7---10--10--5----5---|-5---7---8----0--2--0--0--2--0--3--2--|
 B|-----0---8----7----7----|-7---8---7---10--10--5----5---|-5---7---8----0--2--0--0--2--0--3--2--|


C#|-----------------------------------------------|-----------------------------------------------|
G#|-----------------------------------------------|-----------------------------------------------|
 E|-----------------------------------------------|-----------------------------------------------|
 B|----0--2-----3--2--0---0--2-----0--2-----3--2--|----0--2-----3--2--0---0--2-----0--2-----3--2--|
F#|-0--0--2--0--3--2--0---0--2--0--0--2--0--3--2--|-0--0--2--0--3--2--0---0--2--0--0--2--0--3--2--|
 B|-0--0--2--0--3--2--0---0--2--0--0--2--0--3--2--|-0--0--2--0--3--2--0---0--2--0--0--2--0--3--2--|


C#|-----------------------------------------------|---------------------------------|
G#|-----------------------------------------------|---------------------------------|
 E|-----------------------------------------------|---------------------------------|
 B|----0--2-----3--2--0---0--2-----0--2-----3--2--|-5---5---0--0----5---5---0--0----|
F#|-0--0--2--0--3--2--0---0--2--0--0--2--0--3--2--|-5---5---0--0----5---5---0--0----|
 B|-0--0--2--0--3--2--0---0--2--0--0--2--0--3--2--|-5---5---0--0----5---5---0--0----|


C#|---------------------------------------|---------------------------------------|
G#|---------------------------------------|---------------------------------------|
 E|---------------------------------------|---------------------------------------|
 B|---------------------------------------|---------------------------------------|
F#|-2--2--2--2--3--------2--2--2--3-------|-2--2--2--2--3--------2--2--2--3-------|
 B|-2--2--2--2--3--------2--2--2--3-------|-2--2--2--2--3--------2--2--2--3-------|


C#|---------------------------------------|-------------------------------------|---------------------------------------|
G#|---------------------------------------|-------------------------------------|---------------------------------------|
 E|---------------------------------------|-------------------------------------|---------------------------------------|
 B|---------------------------------------|---------------------5---5---0--0----|---------------------------------------|
F#|-2--2--2--2--3--------2--2--2--3-------|-2--2--2--2--3-------5---5---0--0----|-2--2--2--2--3--------2--2--2--3-------|
 B|-2--2--2--2--3--------2--2--2--3-------|-2--2--2--2--3-------5---5---0--0----|-2--2--2--2--3--------2--2--2--3-------|


C#|---------------------------------------|---------------------------------------|
G#|---------------------------------------|---------------------------------------|
 E|---------------------------------------|---------------------------------------|
 B|---------------------------------------|---------------------------------------|
F#|-2--2--2--2--3--------2--2--2--3-------|-2--2--2--2--3--------2--2--2--3-------|
 B|-2--2--2--2--3--------2--2--2--3-------|-2--2--2--2--3--------2--2--2--3-------|


C#|-------------------------------------|---------------------------------------|---------------------------------------|
G#|-------------------------------------|---------------------------------------|---------------------------------------|
 E|-------------------------------------|---------------------------------------|---------------------------------------|
 B|---------------------5---5---0--0----|---------------------------------------|---------------------------------------|
F#|-2--2--2--2--3-------5---5---0--0----|-2--2--2--2--3--------2--2--2--3-------|-2--2--2--2--3--------2--2--2--3-------|
 B|-2--2--2--2--3-------5---5---0--0----|-2--2--2--2--3--------2--2--2--3-------|-2--2--2--2--3--------2--2--2--3-------|


C#|---------------------------------------|-------------------------------------|---------------------------------------|
G#|---------------------------------------|-------------------------------------|---------------------------------------|
 E|---------------------------------------|-------------------------------------|---------------------------------------|
 B|---------------------------------------|---------------------5---5---0--0----|---------------------------------------|
F#|-2--2--2--2--3--------2--2--2--3-------|-2--2--2--2--3-------5---5---0--0----|-2--2--2--2--3--------2--2--2--3-------|
 B|-2--2--2--2--3--------2--2--2--3-------|-2--2--2--2--3-------5---5---0--0----|-2--2--2--2--3--------2--2--2--3-------|


C#|---------------------------------------|---------------------------------------|
G#|---------------------------------------|---------------------------------------|
 E|---------------------------------------|---------------------------------------|
 B|---------------------------------------|---------------------------------------|
F#|-2--2--2--2--3--------2--2--2--3-------|-2--2--2--2--3--------2--2--2--3-------|
 B|-2--2--2--2--3--------2--2--2--3-------|-2--2--2--2--3--------2--2--2--3-------|


C#|-------------------------------------|----------------------------|----------------------------|
G#|-------------------------------------|----------------------------|----------------------------|
 E|-------------------------------------|----------------------------|----------------------------|
 B|---------------------5---5---0--0----|-2----2----3----2-----------|-2----2----3----2-----------|
F#|-2--2--2--2--3-------5---5---0--0----|-2----2----3----2-----------|-2----2----3----2-----------|
 B|-2--2--2--2--3-------5---5---0--0----|-2----2----3----2-----------|-2----2----3----2-----------|


C#|----------------------------|----------------------------|------------------------|
G#|----------------------------|----------------------------|------------------------|
 E|----------------------------|----------------------------|------------------------|
 B|-2----2----3----2-----------|-2----2----3----2-----------|------2-----0---2---5---|
F#|-2----2----3----2-----------|-2----2----3----2-----------|------2-----0---2---5---|
 B|-2----2----3----2-----------|-2----2----3----2-----------|------2-----0---2---5---|


C#|------------------------------|------------------------|------------------------------|
G#|------------------------------|------------------------|------------------------------|
 E|------------------------------|------------------------|------------------------------|
 B|-5---0---2---5----0---8---7---|------2-----0---2---5---|-5---0---2---5----0---8---7---|
F#|-5---0---2---5----0---8---7---|------2-----0---2---5---|-5---0---2---5----0---8---7---|
 B|-5---0---2---5----0---8---7---|------2-----0---2---5---|-5---0---2---5----0---8---7---|


C#|------------------------|---------------------------|---------------------------|
G#|------------------------|---------------------------|---------------------------|
 E|------------------------|---------------------------|---------------------------|
 B|------2-----0---2---5---|-5---0---2---5----0---8----|-7----7----7---8---7---10--|
F#|------2-----0---2---5---|-5---0---2---5----0---8----|-7----7----7---8---7---10--|
 B|------2-----0---2---5---|-5---0---2---5----0---8----|-7----7----7---8---7---10--|


C#|---------------------------|------------------------|------------------------------|
G#|---------------------------|------------------------|------------------------------|
 E|---------------------------|------------------------|------------------------------|
 B|-10--5----5---5---7---8----|------2-----0---2---5---|-5---0---2---5----0---8---7---|
F#|-10--5----5---5---7---8----|------2-----0---2---5---|-5---0---2---5----0---8---7---|
 B|-10--5----5---5---7---8----|------2-----0---2---5---|-5---0---2---5----0---8---7---|


C#|------------------------|------------------------------|------------------------|
G#|------------------------|------------------------------|------------------------|
 E|------------------------|------------------------------|------------------------|
 B|------2-----0---2---5---|-5---0---2---5----0---8---7---|------2-----0---2---5---|
F#|------2-----0---2---5---|-5---0---2---5----0---8---7---|------2-----0---2---5---|
 B|------2-----0---2---5---|-5---0---2---5----0---8---7---|------2-----0---2---5---|


C#|---------------------------|---------------------------|---------------------------|
G#|---------------------------|---------------------------|---------------------------|
 E|---------------------------|---------------------------|---------------------------|
 B|-5---0---2---5----0---8----|-7----7----7---8---7---10--|-10--5----5---5---7---8----|
F#|-5---0---2---5----0---8----|-7----7----7---8---7---10--|-10--5----5---5---7---8----|
 B|-5---0---2---5----0---8----|-7----7----7---8---7---10--|-10--5----5---5---7---8----|


C#|--------|--------|--------|--------|--------|--------|--------|--------|--------|
G#|--------|--------|--------|--------|--------|--------|--------|--------|--------|
 E|--------|--------|--------|--------|--------|--------|--------|--------|--------|
 B|--------|--------|--------|--------|--------|--------|--------|--------|--------|
F#|--------|--------|--------|--------|--------|--------|--------|--------|--------|
 B|--------|--------|--------|--------|--------|--------|--------|--------|--------|


C#|--------|--------|--------|--------|--------|--------|--------|------------------------------|
G#|--------|--------|--------|--------|--------|--------|--------|------------------------------|
 E|--------|--------|--------|--------|--------|--------|--------|------------------------------|
 B|--------|--------|--------|--------|--------|--------|--------|-3------------------------5---|
F#|--------|--------|--------|--------|--------|--------|--------|-3----3---3---3---3---3---5---|
 B|--------|--------|--------|--------|--------|--------|--------|-3----3---3---3---3---3---5---|


C#|---------------------------------|---------------------------------|------------------------------|
G#|---------------------------------|---------------------------------|------------------------------|
 E|---------------------------------|-----------------------------4---|-4-----------7----------------|
 B|-5---------------------------2---|-2---------------------------4---|-4---4---4---7----7---7---3---|
F#|-5---0---0---0---0---0---0---2---|-2---2---2---2---2---2---2---2---|-2---2---2---5----5---5---3---|
 B|-5---0---0---0---0---0---0---2---|-2---2---2---2---2---2---2-------|--------------------------3---|


C#|---------------------------------|---------------------------------|---------------------------------|
G#|---------------------------------|---------------------------------|---------------------------------|
 E|---------------------------------|---------------------------------|-----------------------------4---|
 B|-3---------------------------5---|-5---------------------------2---|-2---------------------------4---|
F#|-3---3---3---3---3---3---3---5---|-5---0---0---0---0---0---0---2---|-2---2---2---2---2---2---2---2---|
 B|-3---3---3---3---3---3---3---5---|-5---0---0---0---0---0---0---2---|-2---2---2---2---2---2---2-------|


C#|------------------------------|---------------------------------|---------------------------------|
G#|------------------------------|---------------------------------|---------------------------------|
 E|-4-----------7----------------|---------------------------------|---------------------------------|
 B|-4---4---4---7----7---7---3---|-3---------------------------5---|-5---------------------------2---|
F#|-2---2---2---5----5---5---3---|-3---3---3---3---3---3---3---5---|-5---0---0---0---0---0---0---2---|
 B|--------------------------3---|-3---3---3---3---3---3---3---5---|-5---0---0---0---0---0---0---2---|


C#|---------------------------------|------------------------------|---------------------------|
G#|---------------------------------|------------------------------|---------------------------|
 E|-----------------------------4---|-4-----------7----------------|-4-----------7-------------|
 B|-2---------------------------4---|-4---4---4---7----7---7---3---|-4---4---4---7----7---7----|
F#|-2---2---2---2---2---2---2---2---|-2---2---2---5----5---5---3---|-2---2---2---5----5---5----|
 B|-2---2---2---2---2---2---2-------|--------------------------3---|---------------------------|


C#|--------|--------|--------|--------|--------|--------|---------------------------|
G#|--------|--------|--------|--------|--------|--------|---------------------------|
 E|--------|--------|--------|--------|--------|--------|-9----9----9---10--9---12--|
 B|--------|--------|--------|--------|--------|--------|---------------------------|
F#|--------|--------|--------|--------|--------|--------|-7----7----7---8---7---10--|
 B|--------|--------|--------|--------|--------|--------|---------------------------|


C#|---------------------------|--------|--------|--------|--------|--------|--------|
G#|---------------------------|--------|--------|--------|--------|--------|--------|
 E|-12--7----7---7---9---10---|--------|--------|--------|--------|--------|--------|
 B|---------------------------|--------|--------|--------|--------|--------|--------|
F#|-10--5----5---5---7---8----|--------|--------|--------|--------|--------|--------|
 B|---------------------------|--------|--------|--------|--------|--------|--------|


C#|---------------------------|---------------------------|--------|--------|--------|
G#|---------------------------|---------------------------|--------|--------|--------|
 E|-9----9----9---10--9---12--|-12--7----7---7---9---10---|--------|--------|--------|
 B|---------------------------|---------------------------|--------|--------|--------|
F#|-7----7----7---8---7---10--|-10--5----5---5---7---8----|--------|--------|--------|
 B|---------------------------|---------------------------|--------|--------|--------|


C#|--------|--------|--------|---------------------------|---------------------------|
G#|--------|--------|--------|---------------------------|---------------------------|
 E|--------|--------|--------|-9----9----9---10--9---12--|-12--7----7---7---9---10---|
 B|--------|--------|--------|---------------------------|---------------------------|
F#|--------|--------|--------|-7----7----7---8---7---10--|-10--5----5---5---7---8----|
 B|--------|--------|--------|---------------------------|---------------------------|


C#|--------|--------|--------|--------|--------|--------|---------------------------|
G#|--------|--------|--------|--------|--------|--------|---------------------------|
 E|--------|--------|--------|--------|--------|--------|-9----9----9---10--9---12--|
 B|--------|--------|--------|--------|--------|--------|---------------------------|
F#|--------|--------|--------|--------|--------|--------|-7----7----7---8---7---10--|
 B|--------|--------|--------|--------|--------|--------|---------------------------|


C#|---------------------------|--------|--------|--------|--------|--------|--------|
G#|---------------------------|--------|--------|--------|--------|--------|--------|
 E|-12--7----7---7---9---10---|--------|--------|--------|--------|--------|--------|
 B|---------------------------|--------|--------|--------|--------|--------|--------|
F#|-10--5----5---5---7---8----|--------|--------|--------|--------|--------|--------|
 B|---------------------------|--------|--------|--------|--------|--------|--------|


C#|--------|--------|--------|--------|--------|--------|--------|--------|--------|
G#|--------|--------|--------|--------|--------|--------|--------|--------|--------|
 E|--------|--------|--------|--------|--------|--------|--------|--------|--------|
 B|--------|--------|--------|--------|--------|--------|--------|--------|--------|
F#|--------|--------|--------|--------|--------|--------|--------|--------|--------|
 B|--------|--------|--------|--------|--------|--------|--------|--------|--------|


C#|--------|--------|
G#|--------|--------|
 E|--------|--------|
 B|--------|--------|
F#|--------|--------|
 B|--------|--------|





Track 2: Guitar 2

C#|--------|--------|--------|--------|--------|--------|--------|--------|--------|
G#|--------|--------|--------|--------|--------|--------|--------|--------|--------|
 E|--------|--------|--------|--------|--------|--------|--------|--------|--------|
 B|--------|--------|--------|--------|--------|--------|--------|--------|--------|
F#|--------|--------|--------|--------|--------|--------|--------|--------|--------|
 B|--------|--------|--------|--------|--------|--------|--------|--------|--------|


C#|--------|--------|--------|--------|--------|--------|--------|--------|--------|
G#|--------|--------|--------|--------|--------|--------|--------|--------|--------|
 E|--------|--------|--------|--------|--------|--------|--------|--------|--------|
 B|--------|--------|--------|--------|--------|--------|--------|--------|--------|
F#|--------|--------|--------|--------|--------|--------|--------|--------|--------|
 B|--------|--------|--------|--------|--------|--------|--------|--------|--------|


C#|--------|--------|--------|--------|--------|--------|--------|--------|--------|
G#|--------|--------|--------|--------|--------|--------|--------|--------|--------|
 E|--------|--------|--------|--------|--------|--------|--------|--------|--------|
 B|--------|--------|--------|--------|--------|--------|--------|--------|--------|
F#|--------|--------|--------|--------|--------|--------|--------|--------|--------|
 B|--------|--------|--------|--------|--------|--------|--------|--------|--------|


C#|--------|--------|--------|--------|--------|--------|-------------|------15--16--------|
G#|--------|--------|--------|--------|--------|--------|-------------|--------------------|
 E|--------|--------|--------|--------|--------|--------|-------------|--------------------|
 B|--------|--------|--------|--------|--------|--------|-------------|--------------------|
F#|--------|--------|--------|--------|--------|--------|-------------|--------------------|
 B|--------|--------|--------|--------|--------|--------|-------------|--------------------|


C#|------9---10--------|------15--16--------|------9---10--------|--------|--------|
G#|--------------------|--------------------|--------------------|--------|--------|
 E|--------------------|--------------------|--------------------|--------|--------|
 B|--------------------|--------------------|--------------------|--------|--------|
F#|--------------------|--------------------|--------------------|--------|--------|
 B|--------------------|--------------------|--------------------|--------|--------|


C#|--------|--------|--------|--------|--------|--------|--------|--------|--------|
G#|--------|--------|--------|--------|--------|--------|--------|--------|--------|
 E|--------|--------|--------|--------|--------|--------|--------|--------|--------|
 B|--------|--------|--------|--------|--------|--------|--------|--------|--------|
F#|--------|--------|--------|--------|--------|--------|--------|--------|--------|
 B|--------|--------|--------|--------|--------|--------|--------|--------|--------|


C#|--------|--------|-----------------|------------------------------|--------------------|
G#|--------|--------|-----------------|------------------------------|--------------------|
 E|--------|--------|-------9----9----|-9---10--9---12--12--7----7---|-7---9---10---------|
 B|--------|--------|-----------------|------------------------------|--------------------|
F#|--------|--------|-------7----7----|-7---8---7---10--10--5----5---|-5---7---8----------|
 B|--------|--------|-----------------|------------------------------|--------------------|


C#|--------|--------|--------|--------|--------|--------|--------|--------|--------|
G#|--------|--------|--------|--------|--------|--------|--------|--------|--------|
 E|--------|--------|--------|--------|--------|--------|--------|--------|--------|
 B|--------|--------|--------|--------|--------|--------|--------|--------|--------|
F#|--------|--------|--------|--------|--------|--------|--------|--------|--------|
 B|--------|--------|--------|--------|--------|--------|--------|--------|--------|


C#|--------|--------|--------|--------|--------|--------|--------|--------|--------|
G#|--------|--------|--------|--------|--------|--------|--------|--------|--------|
 E|--------|--------|--------|--------|--------|--------|--------|--------|--------|
 B|--------|--------|--------|--------|--------|--------|--------|--------|--------|
F#|--------|--------|--------|--------|--------|--------|--------|--------|--------|
 B|--------|--------|--------|--------|--------|--------|--------|--------|--------|


C#|--------|--------|------------15--16--|------------9---10--|------------15--16--|
G#|--------|--------|--------------------|--------------------|--------------------|
 E|--------|--------|--------------------|--------------------|--------------------|
 B|--------|--------|--------------------|--------------------|--------------------|
F#|--------|--------|--------------------|--------------------|--------------------|
 B|--------|--------|--------------------|--------------------|--------------------|


C#|------------9---10--|--------|--------|--------|--------|--------|--------|--------|
G#|--------------------|--------|--------|--------|--------|--------|--------|--------|
 E|--------------------|--------|--------|--------|--------|--------|--------|--------|
 B|--------------------|--------|--------|--------|--------|--------|--------|--------|
F#|--------------------|--------|--------|--------|--------|--------|--------|--------|
 B|--------------------|--------|--------|--------|--------|--------|--------|--------|


C#|--------|--------|--------|--------|--------|--------|--------|---------------------------|
G#|--------|--------|--------|--------|--------|--------|--------|---------------------------|
 E|--------|--------|--------|--------|--------|--------|--------|-9----9----9---10--9---12--|
 B|--------|--------|--------|--------|--------|--------|--------|---------------------------|
F#|--------|--------|--------|--------|--------|--------|--------|-7----7----7---8---7---10--|
 B|--------|--------|--------|--------|--------|--------|--------|---------------------------|


C#|---------------------------|------------------------------|---------------------------------|
G#|---------------------------|------------------------------|---------------------------------|
 E|-12--7----7---7---9---10---|------------------------------|---------------------------------|
 B|---------------------------|-5----5---5---5---5---5---4---|-4---5---5---5---5---5---5---4---|
F#|-10--5----5---5---7---8----|------------------------------|---------------------------------|
 B|---------------------------|------------------------------|---------------------------------|


C#|---------------------------------|------------------------------|---------------------------------|
G#|---------------------------------|------------------------------|---------------------------------|
 E|---------------------------------|------------------------------|---------------------------------|
 B|-4---5---5---5---5---5---5---4---|-4---5---5---4----5---5---4---|-4---5---5---5---5---5---5---4---|
F#|---------------------------------|------------------------------|---------------------------------|
 B|---------------------------------|------------------------------|---------------------------------|


C#|---------------------------------|---------------------------------|------------------------------|
G#|---------------------------------|---------------------------------|------------------------------|
 E|---------------------------------|---------------------------------|--------------------------7---|
 B|-4---5---5---5---5---5---5---4---|-4---5---5---5---5---5---5---4---|-4---5---5---4----5---5-------|
F#|---------------------------------|---------------------------------|------------------------------|
 B|---------------------------------|---------------------------------|------------------------------|


C#|------------------------|------------------------|---------------------------|------------------------------|
G#|------------------------|------------------------|---------------------------|------------------------------|
 E|-7---5----4---------5---|-5---4----2----0--------|---------------------------|------------------------------|
 B|---------------7--------|--------------------9---|-9---7----5----5---5---4---|-4---5---5---4----5---5---4---|
F#|------------------------|------------------------|---------------------------|------------------------------|
 B|------------------------|------------------------|---------------------------|------------------------------|


C#|---------------------------------|---------------------------------|---------------------------------|
G#|---------------------------------|---------------------------------|---------------------------------|
 E|---------------------------------|---------------------------------|---------------------------------|
 B|-4---5---5---5---5---5---5---4---|-4---5---5---5---5---5---5---4---|-4---5---5---5---5---5---5---4---|
F#|---------------------------------|---------------------------------|---------------------------------|
 B|---------------------------------|---------------------------------|---------------------------------|


C#|---------------------------|---------------------------------|---------------------------------|
G#|---------------------------|---------------------------------|---------------------------------|
 E|---------------------------|---------------------------------|---------------------------------|
 B|-4---5---5---4----5---5----|---------------------------------|---------------------------------|
F#|---------------------------|-0---2---0---2---3---2---0---2---|-0---2---0---2---3---2---0---2---|
 B|---------------------------|---------------------------------|---------------------------------|


C#|---------------------------------|---------------------------------|---------------------------------|
G#|---------------------------------|---------------------------------|---------------------------------|
 E|---------------------------------|---------------------------------|---------------------------------|
 B|---------------------------------|---------------------------------|---------------------------------|
F#|-0---2---0---2---3---2---0---2---|-0---2---0---2---3---2---0---2---|-0---2---0---2---3---2---0---2---|
 B|---------------------------------|---------------------------------|---------------------------------|


C#|---------------------------------|---------------------------------|---------------------------------|
G#|---------------------------------|---------------------------------|---------------------------------|
 E|---------------------------------|---------------------------------|---------------------------------|
 B|---------------------------------|---------------------------------|---------------------------------|
F#|-0---2---0---2---3---2---0---2---|-0---2---0---2---3---2---0---2---|-0---2---0---2---3---2---0---2---|
 B|---------------------------------|---------------------------------|---------------------------------|


C#|---------------------------------|---------------------------------|---------------------------------|
G#|---------------------------------|---------------------------------|---------------------------------|
 E|---------------------------------|---------------------------------|---------------------------------|
 B|---------------------------------|---------------------------------|---------------------------------|
F#|-0---2---0---2---3---2---0---2---|-0---2---0---2---3---2---0---2---|-0---2---0---2---3---2---0---2---|
 B|---------------------------------|---------------------------------|---------------------------------|


C#|---------------------------------|---------------------------------|------------------------|
G#|---------------------------------|---------------------------------|------------------------|
 E|---------------------------------|---------------------------------|------------------------|
 B|---------------------------------|---------------------------------|------2-----0---2---5---|
F#|-0---2---0---2---3---2---0---2---|-0---2---0---2---3---2---0---2---|------2-----0---2---5---|
 B|---------------------------------|---------------------------------|------2-----0---2---5---|


C#|------------------------------|------------------------|------------------------------|
G#|------------------------------|------------------------|------------------------------|
 E|------------------------------|------------------------|------------------------------|
 B|-5---0---2---5----0---8---7---|------2-----0---2---5---|-5---0---2---5----0---8---7---|
F#|-5---0---2---5----0---8---7---|------2-----0---2---5---|-5---0---2---5----0---8---7---|
 B|-5---0---2---5----0---8---7---|------2-----0---2---5---|-5---0---2---5----0---8---7---|


C#|------------------------|------------------------------|---------------------------|
G#|------------------------|------------------------------|---------------------------|
 E|------------------------|------------------------------|---------------------------|
 B|------2-----0---2---5---|-5---0---2---5----0---8---7---|-7----7----7---8---7---10--|
F#|------2-----0---2---5---|-5---0---2---5----0---8---7---|-7----7----7---8---7---10--|
 B|------2-----0---2---5---|-5---0---2---5----0---8---7---|-7----7----7---8---7---10--|


C#|---------------------------|------------------------|------------------------------|
G#|---------------------------|------------------------|------------------------------|
 E|---------------------------|------------------------|------------------------------|
 B|-10--5----5---5---7---8----|------2-----0---2---5---|-5---0---2---5----0---8---7---|
F#|-10--5----5---5---7---8----|------2-----0---2---5---|-5---0---2---5----0---8---7---|
 B|-10--5----5---5---7---8----|------2-----0---2---5---|-5---0---2---5----0---8---7---|


C#|------------------------|------------------------------|------------------------|
G#|------------------------|------------------------------|------------------------|
 E|------------------------|------------------------------|------------------------|
 B|------2-----0---2---5---|-5---0---2---5----0---8---7---|------2-----0---2---5---|
F#|------2-----0---2---5---|-5---0---2---5----0---8---7---|------2-----0---2---5---|
 B|------2-----0---2---5---|-5---0---2---5----0---8---7---|------2-----0---2---5---|


C#|------------------------------|---------------------------|---------------------------|
G#|------------------------------|---------------------------|---------------------------|
 E|------------------------------|---------------------------|---------------------------|
 B|-5---0---2---5----0---8---7---|-7----7----7---8---7---10--|-10--5----5---5---7---8----|
F#|-5---0---2---5----0---8---7---|-7----7----7---8---7---10--|-10--5----5---5---7---8----|
 B|-5---0---2---5----0---8---7---|-7----7----7---8---7---10--|-10--5----5---5---7---8----|


C#|------------------------|------------------------------|------------------------|
G#|------------------------|------------------------------|------------------------|
 E|------------------------|------------------------------|------------------------|
 B|------2-----0---2---5---|-5---0---2---5----0---8---7---|------2-----0---2---5---|
F#|------2-----0---2---5---|-5---0---2---5----0---8---7---|------2-----0---2---5---|
 B|------2-----0---2---5---|-5---0---2---5----0---8---7---|------2-----0---2---5---|


C#|------------------------------|------------------------|------------------------------|
G#|------------------------------|------------------------|------------------------------|
 E|------------------------------|------------------------|------------------------------|
 B|-5---0---2---5----0---8---7---|------2-----0---2---5---|-5---0---2---5----0---8---7---|
F#|-5---0---2---5----0---8---7---|------2-----0---2---5---|-5---0---2---5----0---8---7---|
 B|-5---0---2---5----0---8---7---|------2-----0---2---5---|-5---0---2---5----0---8---7---|


C#|---------------------------|---------------------------|------------------------|
G#|---------------------------|---------------------------|------------------------|
 E|---------------------------|---------------------------|------------------------|
 B|-7----7----7---8---7---10--|-10--5----5---5---7---8----|------2-----0---2---5---|
F#|-7----7----7---8---7---10--|-10--5----5---5---7---8----|------2-----0---2---5---|
 B|-7----7----7---8---7---10--|-10--5----5---5---7---8----|------2-----0---2---5---|


C#|------------------------------|------------------------|------------------------------|
G#|------------------------------|------------------------|------------------------------|
 E|------------------------------|------------------------|------------------------------|
 B|-5---0---2---5----0---8---7---|------2-----0---2---5---|-5---0---2---5----0---8---7---|
F#|-5---0---2---5----0---8---7---|------2-----0---2---5---|-5---0---2---5----0---8---7---|
 B|-5---0---2---5----0---8---7---|------2-----0---2---5---|-5---0---2---5----0---8---7---|


C#|------------------------|------------------------------|---------------------------|
G#|------------------------|------------------------------|---------------------------|
 E|------------------------|------------------------------|---------------------------|
 B|------2-----0---2---5---|-5---0---2---5----0---8---7---|-7----7----7---8---7---10--|
F#|------2-----0---2---5---|-5---0---2---5----0---8---7---|-7----7----7---8---7---10--|
 B|------2-----0---2---5---|-5---0---2---5----0---8---7---|-7----7----7---8---7---10--|


C#|---------------------------|-----------------------------------------------|-----------------------------------------------|
G#|---------------------------|-----------------------------------------------|-----------------------------------------------|
 E|---------------------------|-----------------------------------------------|-----------------------------------------------|
 B|-10--5----5---5---7---8----|-0--2-----0--2-----3--2-----0--2-----3--2--0---|-0--2-----0--2-----3--2-----0--2-----3--2--0---|
F#|-10--5----5---5---7---8----|-0--2--0--0--2--0--3--2--0--0--2--0--3--2--0---|-0--2--0--0--2--0--3--2--0--0--2--0--3--2--0---|
 B|-10--5----5---5---7---8----|-0--2--0--0--2--0--3--2--0--0--2--0--3--2--0---|-0--2--0--0--2--0--3--2--0--0--2--0--3--2--0---|


C#|-----------------------------------------------|-----------------------------------------------|
G#|-----------------------------------------------|-----------------------------------------------|
 E|-----------------------------------------------|-----------------------------------------------|
 B|-0--2-----0--2-----3--2-----0--2-----3--2--0---|-0--2-----0--2-----3--2-----0--2-----3--2--0---|
F#|-0--2--0--0--2--0--3--2--0--0--2--0--3--2--0---|-0--2--0--0--2--0--3--2--0--0--2--0--3--2--0---|
 B|-0--2--0--0--2--0--3--2--0--0--2--0--3--2--0---|-0--2--0--0--2--0--3--2--0--0--2--0--3--2--0---|


C#|-----------------------------------------------|-----------------------------------------------|
G#|-----------------------------------------------|-----------------------------------------------|
 E|-----------------------------------------------|-----------------------------------------------|
 B|-0--2-----0--2-----3--2-----0--2-----3--2--0---|-0--2-----0--2-----3--2-----0--2-----3--2--0---|
F#|-0--2--0--0--2--0--3--2--0--0--2--0--3--2--0---|-0--2--0--0--2--0--3--2--0--0--2--0--3--2--0---|
 B|-0--2--0--0--2--0--3--2--0--0--2--0--3--2--0---|-0--2--0--0--2--0--3--2--0--0--2--0--3--2--0---|


C#|-----------------------------------------------|-----------------------------------------|
G#|-----------------------------------------------|-----------------------------------------|
 E|-----------------------------------------------|-----------------------------------------|
 B|-0--2-----0--2-----3--2-----0--2-----3--2--0---|-0--2-----0--2-----3--2--5---5---0--0----|
F#|-0--2--0--0--2--0--3--2--0--0--2--0--3--2--0---|-0--2--0--0--2--0--3--2--5---5---0--0----|
 B|-0--2--0--0--2--0--3--2--0--0--2--0--3--2--0---|-0--2--0--0--2--0--3--2--5---5---0--0----|


C#|------------------------------|---------------------------|---------------------------|
G#|-----------------15---15--15--|-15---15--15--15--15---15--|-15---15--15--15--15---15--|
 E|------------------------------|---------------------------|---------------------------|
 B|-5---5---0--0-----------------|---------------------------|---------------------------|
F#|-5---5---0--0-----------------|---------------------------|---------------------------|
 B|-5---5---0--0-----------------|---------------------------|---------------------------|


C#|---------------------------|---------------------------|---------------------------|
G#|-15---15--15--15--15---15--|-15---15--15--15--15---15--|-15---15--15--15--15---15--|
 E|---------------------------|---------------------------|---------------------------|
 B|---------------------------|---------------------------|---------------------------|
F#|---------------------------|---------------------------|---------------------------|
 B|---------------------------|---------------------------|---------------------------|


C#|---------------------------|---------------------------|---------------------------|
G#|-15---15--15--15--15---15--|-15---15--15--15--15---15--|-15---15--15--15--15---15--|
 E|---------------------------|---------------------------|---------------------------|
 B|---------------------------|---------------------------|---------------------------|
F#|---------------------------|---------------------------|---------------------------|
 B|---------------------------|---------------------------|---------------------------|





Track 3: Guitar 3

C#|--------|--------|--------|--------|--------|--------|--------|--------|--------|
G#|--------|--------|--------|--------|--------|--------|--------|--------|--------|
 E|--------|--------|--------|--------|--------|--------|--------|--------|--------|
 B|--------|--------|--------|--------|--------|--------|--------|--------|--------|
F#|--------|--------|--------|--------|--------|--------|--------|--------|--------|
 B|--------|--------|--------|--------|--------|--------|--------|--------|--------|


C#|--------|--------|--------|--------|--------|--------|--------|--------|--------|
G#|--------|--------|--------|--------|--------|--------|--------|--------|--------|
 E|--------|--------|--------|--------|--------|--------|--------|--------|--------|
 B|--------|--------|--------|--------|--------|--------|--------|--------|--------|
F#|--------|--------|--------|--------|--------|--------|--------|--------|--------|
 B|--------|--------|--------|--------|--------|--------|--------|--------|--------|


C#|--------|--------|--------|--------|--------|--------|--------|--------|--------|
G#|--------|--------|--------|--------|--------|--------|--------|--------|--------|
 E|--------|--------|--------|--------|--------|--------|--------|--------|--------|
 B|--------|--------|--------|--------|--------|--------|--------|--------|--------|
F#|--------|--------|--------|--------|--------|--------|--------|--------|--------|
 B|--------|--------|--------|--------|--------|--------|--------|--------|--------|


C#|--------|--------|--------|--------|--------|--------|-------------|-------3-----|
G#|--------|--------|--------|--------|--------|--------|-------5-----|-------------|
 E|--------|--------|--------|--------|--------|--------|-------------|-------------|
 B|--------|--------|--------|--------|--------|--------|-------------|-------------|
F#|--------|--------|--------|--------|--------|--------|-------------|-------------|
 B|--------|--------|--------|--------|--------|--------|-------------|-------------|


C#|-------2-----|-------1-----|--------|--------|--------|--------|--------|--------|
G#|-------------|-------------|--------|--------|--------|--------|--------|--------|
 E|-------------|-------------|--------|--------|--------|--------|--------|--------|
 B|-------------|-------------|--------|--------|--------|--------|--------|--------|
F#|-------------|-------------|--------|--------|--------|--------|--------|--------|
 B|-------------|-------------|--------|--------|--------|--------|--------|--------|


C#|--------|--------|--------|--------|--------|--------|--------|--------|--------|
G#|--------|--------|--------|--------|--------|--------|--------|--------|--------|
 E|--------|--------|--------|--------|--------|--------|--------|--------|--------|
 B|--------|--------|--------|--------|--------|--------|--------|--------|--------|
F#|--------|--------|--------|--------|--------|--------|--------|--------|--------|
 B|--------|--------|--------|--------|--------|--------|--------|--------|--------|


C#|--------|--------|--------|--------|--------|--------|--------|--------|--------|
G#|--------|--------|--------|--------|--------|--------|--------|--------|--------|
 E|--------|--------|--------|--------|--------|--------|--------|--------|--------|
 B|--------|--------|--------|--------|--------|--------|--------|--------|--------|
F#|--------|--------|--------|--------|--------|--------|--------|--------|--------|
 B|--------|--------|--------|--------|--------|--------|--------|--------|--------|


C#|--------|--------|--------|--------|--------|--------|--------|--------|--------|
G#|--------|--------|--------|--------|--------|--------|--------|--------|--------|
 E|--------|--------|--------|--------|--------|--------|--------|--------|--------|
 B|--------|--------|--------|--------|--------|--------|--------|--------|--------|
F#|--------|--------|--------|--------|--------|--------|--------|--------|--------|
 B|--------|--------|--------|--------|--------|--------|--------|--------|--------|


C#|--------|--------|--------|--------|--------|-3------|-2------|-1------|--------|
G#|--------|--------|--------|--------|-5------|--------|--------|--------|--------|
 E|--------|--------|--------|--------|--------|--------|--------|--------|--------|
 B|--------|--------|--------|--------|--------|--------|--------|--------|--------|
F#|--------|--------|--------|--------|--------|--------|--------|--------|--------|
 B|--------|--------|--------|--------|--------|--------|--------|--------|--------|


C#|--------|--------|--------|--------|--------|--------|--------|--------|--------|
G#|--------|--------|--------|--------|--------|--------|--------|--------|--------|
 E|--------|--------|--------|--------|--------|--------|--------|--------|--------|
 B|--------|--------|--------|--------|--------|--------|--------|--------|--------|
F#|--------|--------|--------|--------|--------|--------|--------|--------|--------|
 B|--------|--------|--------|--------|--------|--------|--------|--------|--------|


C#|--------|--------|--------|--------|--------|--------|--------|--------|--------|
G#|--------|--------|--------|--------|--------|--------|--------|--------|--------|
 E|--------|--------|--------|--------|--------|--------|--------|--------|--------|
 B|--------|--------|--------|--------|--------|--------|--------|--------|--------|
F#|--------|--------|--------|--------|--------|--------|--------|--------|--------|
 B|--------|--------|--------|--------|--------|--------|--------|--------|--------|


C#|--------|--------|--------|--------|--------|--------|--------|--------|--------|
G#|--------|--------|--------|--------|--------|--------|--------|--------|--------|
 E|--------|--------|--------|--------|--------|--------|--------|--------|--------|
 B|--------|--------|--------|--------|--------|--------|--------|--------|--------|
F#|--------|--------|--------|--------|--------|--------|--------|--------|--------|
 B|--------|--------|--------|--------|--------|--------|--------|--------|--------|


C#|--------|--------|--------|--------|--------|--------|--------|--------|--------|
G#|--------|--------|--------|--------|--------|--------|--------|--------|--------|
 E|--------|--------|--------|--------|--------|--------|--------|--------|--------|
 B|--------|--------|--------|--------|--------|--------|--------|--------|--------|
F#|--------|--------|--------|--------|--------|--------|--------|--------|--------|
 B|--------|--------|--------|--------|--------|--------|--------|--------|--------|


C#|--------|--------|--------|--------|--------|--------|--------|--------|--------|
G#|--------|--------|--------|--------|--------|--------|--------|--------|--------|
 E|--------|--------|--------|--------|--------|--------|--------|--------|--------|
 B|--------|--------|--------|--------|--------|--------|--------|--------|--------|
F#|--------|--------|--------|--------|--------|--------|--------|--------|--------|
 B|--------|--------|--------|--------|--------|--------|--------|--------|--------|


C#|--------|--------|--------|--------|--------|--------|--------|--------|--------|
G#|--------|--------|--------|--------|--------|--------|--------|--------|--------|
 E|--------|--------|--------|--------|--------|--------|--------|--------|--------|
 B|--------|--------|--------|--------|--------|--------|--------|--------|--------|
F#|--------|--------|--------|--------|--------|--------|--------|--------|--------|
 B|--------|--------|--------|--------|--------|--------|--------|--------|--------|


C#|--------|--------|--------|--------|--------|--------|--------|--------|--------|
G#|--------|--------|--------|--------|--------|--------|--------|--------|--------|
 E|--------|--------|--------|--------|--------|--------|--------|--------|--------|
 B|--------|--------|--------|--------|--------|--------|--------|--------|--------|
F#|--------|--------|--------|--------|--------|--------|--------|--------|--------|
 B|--------|--------|--------|--------|--------|--------|--------|--------|--------|


C#|--------|--------|--------|--------|--------|--------|--------|--------|--------|
G#|--------|--------|--------|--------|--------|--------|--------|--------|--------|
 E|--------|--------|--------|--------|--------|--------|--------|--------|--------|
 B|--------|--------|--------|--------|--------|--------|--------|--------|--------|
F#|--------|--------|--------|--------|--------|--------|--------|--------|--------|
 B|--------|--------|--------|--------|--------|--------|--------|--------|--------|


C#|--------|--------|--------|--------|--------|--------|--------|--------|--------|
G#|--------|--------|--------|--------|--------|--------|--------|--------|--------|
 E|--------|--------|--------|--------|--------|--------|--------|--------|--------|
 B|--------|--------|--------|--------|--------|--------|--------|--------|--------|
F#|--------|--------|--------|--------|--------|--------|--------|--------|--------|
 B|--------|--------|--------|--------|--------|--------|--------|--------|--------|


C#|--------|--------|--------|--------|--------|--------|--------|--------|--------|
G#|--------|--------|--------|--------|--------|--------|--------|--------|--------|
 E|--------|--------|--------|--------|--------|--------|--------|--------|--------|
 B|--------|--------|--------|--------|--------|--------|--------|--------|--------|
F#|--------|--------|--------|--------|--------|--------|--------|--------|--------|
 B|--------|--------|--------|--------|--------|--------|--------|--------|--------|


C#|--------|--------|--------|
G#|--------|--------|--------|
 E|--------|--------|--------|
 B|--------|--------|--------|
F#|--------|--------|--------|
 B|--------|--------|--------|





Track 4: Piano

C#|--------|--------|--------|--------|--------|--------|--------|--------|--------|
G#|--------|--------|--------|--------|--------|--------|--------|--------|--------|
 E|--------|--------|--------|--------|--------|--------|--------|--------|--------|
 B|--------|--------|--------|--------|--------|--------|--------|--------|--------|
F#|--------|--------|--------|--------|--------|--------|--------|--------|--------|
 B|--------|--------|--------|--------|--------|--------|--------|--------|--------|


C#|--------|--------|--------|--------|--------|--------|--------|--------|--------|
G#|--------|--------|--------|--------|--------|--------|--------|--------|--------|
 E|--------|--------|--------|--------|--------|--------|--------|--------|--------|
 B|--------|--------|--------|--------|--------|--------|--------|--------|--------|
F#|--------|--------|--------|--------|--------|--------|--------|--------|--------|
 B|--------|--------|--------|--------|--------|--------|--------|--------|--------|


C#|--------|--------|--------|--------|--------|--------|--------|--------|--------|
G#|--------|--------|--------|--------|--------|--------|--------|--------|--------|
 E|--------|--------|--------|--------|--------|--------|--------|--------|--------|
 B|--------|--------|--------|--------|--------|--------|--------|--------|--------|
F#|--------|--------|--------|--------|--------|--------|--------|--------|--------|
 B|--------|--------|--------|--------|--------|--------|--------|--------|--------|


C#|--------|--------|--------|--------|--------|--------|--------|--------|--------|
G#|--------|--------|--------|--------|--------|--------|--------|--------|--------|
 E|--------|--------|--------|--------|--------|--------|--------|--------|--------|
 B|--------|--------|--------|--------|--------|--------|--------|--------|--------|
F#|--------|--------|--------|--------|--------|--------|--------|--------|--------|
 B|--------|--------|--------|--------|--------|--------|--------|--------|--------|


C#|--------|--------|--------|--------|--------|--------|--------|--------|--------|
G#|--------|--------|--------|--------|--------|--------|--------|--------|--------|
 E|--------|--------|--------|--------|--------|--------|--------|--------|--------|
 B|--------|--------|--------|--------|--------|--------|--------|--------|--------|
F#|--------|--------|--------|--------|--------|--------|--------|--------|--------|
 B|--------|--------|--------|--------|--------|--------|--------|--------|--------|


C#|--------|--------|--------|--------|--------|--------|--------|--------|--------|
G#|--------|--------|--------|--------|--------|--------|--------|--------|--------|
 E|--------|--------|--------|--------|--------|--------|--------|--------|--------|
 B|--------|--------|--------|--------|--------|--------|--------|--------|--------|
F#|--------|--------|--------|--------|--------|--------|--------|--------|--------|
 B|--------|--------|--------|--------|--------|--------|--------|--------|--------|


C#|--------|--------|--------|--------|--------|--------|--------|--------|--------|
G#|--------|--------|--------|--------|--------|--------|--------|--------|--------|
 E|--------|--------|--------|--------|--------|--------|--------|--------|--------|
 B|--------|--------|--------|--------|--------|--------|--------|--------|--------|
F#|--------|--------|--------|--------|--------|--------|--------|--------|--------|
 B|--------|--------|--------|--------|--------|--------|--------|--------|--------|


C#|--------|--------|--------|--------|--------|--------|--------|--------|--------|
G#|--------|--------|--------|--------|--------|--------|--------|--------|--------|
 E|--------|--------|--------|--------|--------|--------|--------|--------|--------|
 B|--------|--------|--------|--------|--------|--------|--------|--------|--------|
F#|--------|--------|--------|--------|--------|--------|--------|--------|--------|
 B|--------|--------|--------|--------|--------|--------|--------|--------|--------|


C#|--------|--------|--------|--------|--------|--------|--------|--------|--------|
G#|--------|--------|--------|--------|--------|--------|--------|--------|--------|
 E|--------|--------|--------|--------|--------|--------|--------|--------|--------|
 B|--------|--------|--------|--------|--------|--------|--------|--------|--------|
F#|--------|--------|--------|--------|--------|--------|--------|--------|--------|
 B|--------|--------|--------|--------|--------|--------|--------|--------|--------|


C#|--------|--------|--------|--------|--------|--------|--------|--------|--------|
G#|--------|--------|--------|--------|--------|--------|--------|--------|--------|
 E|--------|--------|--------|--------|--------|--------|--------|--------|--------|
 B|--------|--------|--------|--------|--------|--------|--------|--------|--------|
F#|--------|--------|--------|--------|--------|--------|--------|--------|--------|
 B|--------|--------|--------|--------|--------|--------|--------|--------|--------|


C#|--------|--------|--------|--------|------------|------------|--------|-------------|
G#|--------|--------|--------|--------|------------|------------|--------|-------------|
 E|--------|--------|--------|--------|------------|------------|--------|-------------|
 B|--------|--------|--------|--------|------------|------------|--------|-------------|
F#|--------|--------|--------|--------|------------|------------|--------|-2-----5-----|
 B|--------|--------|--------|--------|-3------5---|-5---0------|-2------|-------------|


C#|-----------------|-----------------|--------|-------------|-----------------|-----------------|
G#|-----------------|-----------------|--------|-------------|-----------------|-----------------|
 E|-----------------|-----------------|--------|-------------|-----------------|-----------------|
 B|-----------------|-----------------|--------|-------------|-----------------|-----------------|
F#|-----------------|-----------------|--------|-2-----5-----|-----------------|-----------------|
 B|-3-----3-----5---|-5---0-----0-----|-2------|-------------|-3-----3-----5---|-5---0-----0-----|


C#|--------|-------------|-----------------|-----------------|--------|-------------|
G#|--------|-------------|-----------------|-----------------|--------|-------------|
 E|--------|-------------|-----------------|-----------------|--------|-------------|
 B|--------|-------------|-----------------|-----------------|--------|-------------|
F#|--------|-2-----5-----|-----------------|-----------------|--------|-2-----5-----|
 B|-2------|-------------|-3-----3-----5---|-5---0-----0-----|-2------|-------------|


C#|--------|--------|--------|--------|--------|--------|--------|--------|--------|
G#|--------|--------|--------|--------|--------|--------|--------|--------|--------|
 E|--------|--------|--------|--------|--------|--------|--------|--------|--------|
 B|--------|--------|--------|--------|--------|--------|--------|--------|--------|
F#|--------|--------|--------|--------|--------|--------|--------|--------|--------|
 B|--------|--------|--------|--------|--------|--------|--------|--------|--------|


C#|--------|--------|--------|--------|--------|--------|--------|--------|--------|
G#|--------|--------|--------|--------|--------|--------|--------|--------|--------|
 E|--------|--------|--------|--------|--------|--------|--------|--------|--------|
 B|--------|--------|--------|--------|--------|--------|--------|--------|--------|
F#|--------|--------|--------|--------|--------|--------|--------|--------|--------|
 B|--------|--------|--------|--------|--------|--------|--------|--------|--------|


C#|--------|--------|--------|--------|--------|--------|--------|--------|--------|
G#|--------|--------|--------|--------|--------|--------|--------|--------|--------|
 E|--------|--------|--------|--------|--------|--------|--------|--------|--------|
 B|--------|--------|--------|--------|--------|--------|--------|--------|--------|
F#|--------|--------|--------|--------|--------|--------|--------|--------|--------|
 B|--------|--------|--------|--------|--------|--------|--------|--------|--------|


C#|--------|--------|--------|--------|--------|--------|--------|--------|--------|
G#|--------|--------|--------|--------|--------|--------|--------|--------|--------|
 E|--------|--------|--------|--------|--------|--------|--------|--------|--------|
 B|--------|--------|--------|--------|--------|--------|--------|--------|--------|
F#|--------|--------|--------|--------|--------|--------|--------|--------|--------|
 B|--------|--------|--------|--------|--------|--------|--------|--------|--------|


C#|--------|--------|--------|--------|--------|--------|--------|--------|--------|
G#|--------|--------|--------|--------|--------|--------|--------|--------|--------|
 E|--------|--------|--------|--------|--------|--------|--------|--------|--------|
 B|--------|--------|--------|--------|--------|--------|--------|--------|--------|
F#|--------|--------|--------|--------|--------|--------|--------|--------|--------|
 B|--------|--------|--------|--------|--------|--------|--------|--------|--------|


C#|--------|--------|--------|--------|--------|--------|--------|--------|--------|
G#|--------|--------|--------|--------|--------|--------|--------|--------|--------|
 E|--------|--------|--------|--------|--------|--------|--------|--------|--------|
 B|--------|--------|--------|--------|--------|--------|--------|--------|--------|
F#|--------|--------|--------|--------|--------|--------|--------|--------|--------|
 B|--------|--------|--------|--------|--------|--------|--------|--------|--------|


C#|--------|--------|--------|--------|--------|--------|--------|--------|
G#|--------|--------|--------|--------|--------|--------|--------|--------|
 E|--------|--------|--------|--------|--------|--------|--------|--------|
 B|--------|--------|--------|--------|--------|--------|--------|--------|
F#|--------|--------|--------|--------|--------|--------|--------|--------|
 B|--------|--------|--------|--------|--------|--------|--------|--------|





Track 5: Violin

C#|--------|--------|--------|--------|--------|--------|--------|--------|--------|
G#|--------|--------|--------|--------|--------|--------|--------|--------|--------|
 E|--------|--------|--------|--------|--------|--------|--------|--------|--------|
 B|--------|--------|--------|--------|--------|--------|--------|--------|--------|
F#|--------|--------|--------|--------|--------|--------|--------|--------|--------|
 B|--------|--------|--------|--------|--------|--------|--------|--------|--------|


C#|--------|--------|--------|--------|--------|--------|--------|--------|--------|
G#|--------|--------|--------|--------|--------|--------|--------|--------|--------|
 E|--------|--------|--------|--------|--------|--------|--------|--------|--------|
 B|--------|--------|--------|--------|--------|--------|--------|--------|--------|
F#|--------|--------|--------|--------|--------|--------|--------|--------|--------|
 B|--------|--------|--------|--------|--------|--------|--------|--------|--------|


C#|--------|--------|--------|--------|--------|--------|--------|--------|--------|
G#|--------|--------|--------|--------|--------|--------|--------|--------|--------|
 E|--------|--------|--------|--------|--------|--------|--------|--------|--------|
 B|--------|--------|--------|--------|--------|--------|--------|--------|--------|
F#|--------|--------|--------|--------|--------|--------|--------|--------|--------|
 B|--------|--------|--------|--------|--------|--------|--------|--------|--------|


C#|--------|--------|--------|--------|--------|--------|--------|--------|--------|
G#|--------|--------|--------|--------|--------|--------|--------|--------|--------|
 E|--------|--------|--------|--------|--------|--------|--------|--------|--------|
 B|--------|--------|--------|--------|--------|--------|--------|--------|--------|
F#|--------|--------|--------|--------|--------|--------|--------|--------|--------|
 B|--------|--------|--------|--------|--------|--------|--------|--------|--------|


C#|--------|--------|--------|--------|--------|--------|--------|--------|--------|
G#|--------|--------|--------|--------|--------|--------|--------|--------|--------|
 E|--------|--------|--------|--------|--------|--------|--------|--------|--------|
 B|--------|--------|--------|--------|--------|--------|--------|--------|--------|
F#|--------|--------|--------|--------|--------|--------|--------|--------|--------|
 B|--------|--------|--------|--------|--------|--------|--------|--------|--------|


C#|--------|--------|--------|--------|--------|--------|--------|--------|--------|
G#|--------|--------|--------|--------|--------|--------|--------|--------|--------|
 E|--------|--------|--------|--------|--------|--------|--------|--------|--------|
 B|--------|--------|--------|--------|--------|--------|--------|--------|--------|
F#|--------|--------|--------|--------|--------|--------|--------|--------|--------|
 B|--------|--------|--------|--------|--------|--------|--------|--------|--------|


C#|--------|--------|--------|--------|--------|--------|--------|--------|--------|
G#|--------|--------|--------|--------|--------|--------|--------|--------|--------|
 E|--------|--------|--------|--------|--------|--------|--------|--------|--------|
 B|--------|--------|--------|--------|--------|--------|--------|--------|--------|
F#|--------|--------|--------|--------|--------|--------|--------|--------|--------|
 B|--------|--------|--------|--------|--------|--------|--------|--------|--------|


C#|--------|--------|--------|--------|--------|--------|--------|--------|--------|
G#|--------|--------|--------|--------|--------|--------|--------|--------|--------|
 E|--------|--------|--------|--------|--------|--------|--------|--------|--------|
 B|--------|--------|--------|--------|--------|--------|--------|--------|--------|
F#|--------|--------|--------|--------|--------|--------|--------|--------|--------|
 B|--------|--------|--------|--------|--------|--------|--------|--------|--------|


C#|--------|--------|--------|--------|--------|--------|--------|--------|--------|
G#|--------|--------|--------|--------|--------|--------|--------|--------|--------|
 E|--------|--------|--------|--------|--------|--------|--------|--------|--------|
 B|--------|--------|--------|--------|--------|--------|--------|--------|--------|
F#|--------|--------|--------|--------|--------|--------|--------|--------|--------|
 B|--------|--------|--------|--------|--------|--------|--------|--------|--------|


C#|--------|--------|--------|--------|--------|--------|--------|--------|--------|
G#|--------|--------|--------|--------|--------|--------|--------|--------|--------|
 E|--------|--------|--------|--------|--------|--------|--------|--------|--------|
 B|--------|--------|--------|--------|--------|--------|--------|--------|--------|
F#|--------|--------|--------|--------|--------|--------|--------|--------|--------|
 B|--------|--------|--------|--------|--------|--------|--------|--------|--------|


C#|--------|--------|--------|--------|--------|--------|--------|--------|--------|
G#|--------|--------|--------|--------|--------|--------|--------|--------|--------|
 E|--------|--------|--------|--------|--------|--------|--------|--------|--------|
 B|--------|--------|--------|--------|--------|--------|--------|--------|--------|
F#|--------|--------|--------|--------|--------|--------|--------|--------|--------|
 B|--------|--------|--------|--------|--------|--------|--------|--------|--------|


C#|--------|--------|--------|--------|--------|--------|--------|--------|--------|
G#|--------|--------|--------|--------|--------|--------|--------|--------|--------|
 E|--------|--------|--------|--------|--------|--------|--------|--------|--------|
 B|--------|--------|--------|--------|--------|--------|--------|--------|--------|
F#|--------|--------|--------|--------|--------|--------|--------|--------|--------|
 B|--------|--------|--------|--------|--------|--------|--------|--------|--------|


C#|--------|--------|--------|--------|--------|--------|--------|--------|--------|
G#|--------|--------|--------|--------|--------|--------|--------|--------|--------|
 E|--------|--------|--------|--------|--------|--------|--------|--------|--------|
 B|--------|--------|--------|--------|--------|--------|--------|--------|--------|
F#|--------|--------|--------|--------|--------|--------|--------|--------|--------|
 B|--------|--------|--------|--------|--------|--------|--------|--------|--------|


C#|--------|--------|--------|--------|--------|--------|--------|--------|--------|
G#|--------|--------|--------|--------|--------|--------|--------|--------|--------|
 E|--------|--------|--------|--------|--------|--------|--------|--------|--------|
 B|--------|--------|--------|--------|--------|--------|--------|--------|--------|
F#|--------|--------|--------|--------|--------|--------|--------|--------|--------|
 B|--------|--------|--------|--------|--------|--------|--------|--------|--------|


C#|--------|--------|--------|--------|--------|--------|--------|--------|--------|
G#|--------|--------|--------|--------|--------|--------|--------|--------|--------|
 E|--------|--------|--------|--------|--------|--------|--------|--------|--------|
 B|--------|--------|--------|--------|--------|--------|--------|--------|--------|
F#|--------|--------|--------|--------|--------|--------|--------|--------|--------|
 B|--------|--------|--------|--------|--------|--------|--------|--------|--------|


C#|--------|--------|--------|--------|--------|--------|--------|--------|--------|
G#|--------|--------|--------|--------|--------|--------|--------|--------|--------|
 E|--------|--------|--------|--------|--------|--------|--------|--------|--------|
 B|--------|--------|--------|--------|--------|--------|--------|--------|--------|
F#|--------|--------|--------|--------|--------|--------|--------|--------|--------|
 B|--------|--------|--------|--------|--------|--------|--------|--------|--------|


C#|--------|--------|--------|--------|--------|--------|--------|--------|--------|
G#|--------|--------|--------|--------|--------|--------|--------|--------|--------|
 E|--------|--------|--------|--------|--------|--------|--------|--------|--------|
 B|--------|--------|--------|--------|--------|--------|--------|--------|--------|
F#|--------|--------|--------|--------|--------|--------|--------|--------|--------|
 B|--------|--------|--------|--------|--------|--------|--------|--------|--------|


C#|--------|--------|--------|--------|--------|--------|--------|--------|--------|
G#|--------|--------|--------|--------|--------|--------|--------|--------|--------|
 E|--------|--------|--------|--------|--------|--------|--------|--------|--------|
 B|--------|--------|--------|--------|--------|--------|--------|--------|--------|
F#|--------|--------|--------|--------|--------|--------|--------|--------|--------|
 B|--------|--------|--------|--------|--------|--------|--------|--------|--------|


C#|--------|--------|-----------------|-------------|-----------------|-------------|
G#|--------|--------|-----------------|-------------|-----------------|-------------|
 E|--------|--------|-2----2----4-----|-------------|-2----2----4-----|-------------|
 B|--------|--------|-----------------|-0-----0-----|-----------------|-0-----0-----|
F#|--------|--------|-----------------|-------------|-----------------|-------------|
 B|--------|--------|-----------------|-------------|-----------------|-------------|


C#|-----------------|-------------|-----------------|-------------|
G#|-----------------|-------------|-----------------|-------------|
 E|-2----2----4-----|-------------|-2----2----4-----|-------------|
 B|-----------------|-0-----0-----|-----------------|-0-----0-----|
F#|-----------------|-------------|-----------------|-------------|
 B|-----------------|-------------|-----------------|-------------|





Track 6: Bass

 E|--------|--------|--------|--------|---------------------|---------------------|
 B|--------|--------|--------|--------|---------------------|---------------------|
F#|--------|--------|--------|--------|---------------------|---------------------|
 B|--------|--------|--------|--------|-2----2----2----2----|-2----2----2----2----|


 E|---------------------|---------------------------|-----------------------|-----------------------------------------------|
 B|---------------------|---------------------------|-----------------------|-----------------------------------------------|
F#|---------------------|---------------------------|-----------------------|-----------------------------------------------|
 B|-2----2----2----2----|-2----2----5---5---0--0----|-5---5---0--0----------|-0--2-----0--2-----3--2-----0--2-----3--2--0---|


 E|-----------------------------------------------|-----------------------------------------------|
 B|-----------------------------------------------|-----------------------------------------------|
F#|-----------------------------------------------|-----------------------------------------------|
 B|-0--2-----0--2-----3--2-----0--2-----3--2--0---|-0--2-----0--2-----3--2-----0--2-----3--2--0---|


 E|-----------------------------------------|-----------------------------------------------|
 B|-----------------------------------------|-----------------------------------------------|
F#|-----------------------------------------|-----------------------------------------------|
 B|-0--2-----0--2-----3--2--5---5---0--0----|-0--2-----0--2-----3--2-----0--2-----3--2--0---|


 E|-----------------------------------------------|-----------------------------------------------|
 B|-----------------------------------------------|-----------------------------------------------|
F#|-----------------------------------------------|-----------------------------------------------|
 B|-0--2-----0--2-----3--2-----0--2-----3--2--0---|-0--2-----0--2-----3--2-----0--2-----3--2--0---|


 E|-----------------------------------------|-------------------------------------|
 B|-----------------------------------------|-------------------------------------|
F#|-----------------------------------------|-------------------------------------|
 B|-0--2-----0--2-----3--2--5---5---0--0----|-5---5---0--0----2--2--2--2--3-------|


 E|-----------------------------------------|-----------------------------------------|
 B|-----------------------------------------|-----------------------------------------|
F#|-----------------------------------------|-----------------------------------------|
 B|----2--2--2--3-------2--2--2--2--3-------|----2--2--2--3-------2--2--2--2--3-------|


 E|-----------------------------------------|-------------------------------------|
 B|-----------------------------------------|-------------------------------------|
F#|-----------------------------------------|-------------------------------------|
 B|----2--2--2--3-------2--2--2--2--3-------|-5---5---0--0----2--2--2--2--3-------|


 E|-----------------------------------------|-----------------------------------------|
 B|-----------------------------------------|-----------------------------------------|
F#|-----------------------------------------|-----------------------------------------|
 B|----2--2--2--3-------2--2--2--2--3-------|----2--2--2--3-------2--2--2--2--3-------|


 E|-----------------------------------------|-------------------------------------|
 B|-----------------------------------------|-------------------------------------|
F#|-----------------------------------------|-------------------------------------|
 B|----2--2--2--3-------2--2--2--2--3-------|-5---5---0--0----2--2--2--2--3-------|


 E|-----------------------------------------|-----------------------------------------|
 B|-----------------------------------------|-----------------------------------------|
F#|-----------------------------------------|-----------------------------------------|
 B|----2--2--2--3-------2--2--2--2--3-------|----2--2--2--3-------2--2--2--2--3-------|


 E|-----------------------------------------|-------------------------------------|
 B|-----------------------------------------|-------------------------------------|
F#|-----------------------------------------|-------------------------------------|
 B|----2--2--2--3-------2--2--2--2--3-------|-5---5---0--0----2--2--2--2--3-------|


 E|-----------------------------------------|-----------------------------------------|
 B|-----------------------------------------|-----------------------------------------|
F#|-----------------------------------------|-----------------------------------------|
 B|----2--2--2--3-------2--2--2--2--3-------|----2--2--2--3-------2--2--2--2--3-------|


 E|-----------------------------------------|-----------------------|-------------|
 B|-----------------------------------------|-----------------------|-------------|
F#|-----------------------------------------|-----------------------|-------------|
 B|----2--2--2--3-------2--2--2--2--3-------|-5---5---0--0----3-----|-------5-----|


 E|-------------|-------------|-----------------|---------------------------------|
 B|-------------|-------------|-----------------|---------------------------------|
F#|-------------|-------------|-----------------|---------------------------------|
 B|-------2-----|-------0-----|------------2----|-----0---2---5---5---0---2---5---|


 E|---------------------------|---------------------------------|---------------------------|
 B|---------------------------|---------------------------------|---------------------------|
F#|---------------------------|---------------------------------|---------------------------|
 B|-----0---8---7--------2----|-----0---2---5---5---0---2---5---|-----0---8---7--------2----|


 E|---------------------------------|------------------------|------------------------------|
 B|---------------------------------|------------------------|------------------------------|
F#|---------------------------------|------------------------|------------------------------|
 B|-----0---2---5---5---0---2---5---|-----0---8----7----7----|-7---8---7---10--10--5----5---|


 E|------------------------|---------------------------------|---------------------------|
 B|------------------------|---------------------------------|---------------------------|
F#|------------------------|---------------------------------|---------------------------|
 B|-5---7---8---------2----|-----0---2---5---5---0---2---5---|-----0---8---7--------2----|


 E|---------------------------------|---------------------------|---------------------------------|
 B|---------------------------------|---------------------------|---------------------------------|
F#|---------------------------------|---------------------------|---------------------------------|
 B|-----0---2---5---5---0---2---5---|-----0---8---7--------2----|-----0---2---5---5---0---2---5---|


 E|------------------------|------------------------------|--------------------------------------|
 B|------------------------|------------------------------|--------------------------------------|
F#|------------------------|------------------------------|--------------------------------------|
 B|-----0---8----7----7----|-7---8---7---10--10--5----5---|-5---7---8----0--2-----0--2-----3--2--|


 E|-----------------------------------------------|-----------------------------------------------|
 B|-----------------------------------------------|-----------------------------------------------|
F#|-----------------------------------------------|-----------------------------------------------|
 B|----0--2-----3--2--0---0--2-----0--2-----3--2--|----0--2-----3--2--0---0--2-----0--2-----3--2--|


 E|-----------------------------------------------|---------------------------------|
 B|-----------------------------------------------|---------------------------------|
F#|-----------------------------------------------|---------------------------------|
 B|----0--2-----3--2--0---0--2-----0--2-----3--2--|-5---5---0--0----5---5---0--0----|


 E|---------------------------------------|---------------------------------------|
 B|---------------------------------------|---------------------------------------|
F#|---------------------------------------|---------------------------------------|
 B|-2--2--2--2--3--------2--2--2--3-------|-2--2--2--2--3--------2--2--2--3-------|


 E|---------------------------------------|-------------------------------------|---------------------------------------|
 B|---------------------------------------|-------------------------------------|---------------------------------------|
F#|---------------------------------------|-------------------------------------|---------------------------------------|
 B|-2--2--2--2--3--------2--2--2--3-------|-2--2--2--2--3-------5---5---0--0----|-2--2--2--2--3--------2--2--2--3-------|


 E|---------------------------------------|---------------------------------------|
 B|---------------------------------------|---------------------------------------|
F#|---------------------------------------|---------------------------------------|
 B|-2--2--2--2--3--------2--2--2--3-------|-2--2--2--2--3--------2--2--2--3-------|


 E|-------------------------------------|---------------------------------------|---------------------------------------|
 B|-------------------------------------|---------------------------------------|---------------------------------------|
F#|-------------------------------------|---------------------------------------|---------------------------------------|
 B|-2--2--2--2--3-------5---5---0--0----|-2--2--2--2--3--------2--2--2--3-------|-2--2--2--2--3--------2--2--2--3-------|


 E|---------------------------------------|-------------------------------------|---------------------------------------|
 B|---------------------------------------|-------------------------------------|---------------------------------------|
F#|---------------------------------------|-------------------------------------|---------------------------------------|
 B|-2--2--2--2--3--------2--2--2--3-------|-2--2--2--2--3-------5---5---0--0----|-2--2--2--2--3--------2--2--2--3-------|


 E|---------------------------------------|---------------------------------------|
 B|---------------------------------------|---------------------------------------|
F#|---------------------------------------|---------------------------------------|
 B|-2--2--2--2--3--------2--2--2--3-------|-2--2--2--2--3--------2--2--2--3-------|


 E|-------------------------------------|--------|--------|--------|--------|------------------------|
 B|-------------------------------------|--------|--------|--------|--------|------------------------|
F#|-------------------------------------|--------|--------|--------|--------|------------------------|
 B|-2--2--2--2--3-------5---5---0--0----|-3------|-5------|-2------|-0------|------2-----0---2---5---|


 E|------------------------------|------------------------|------------------------------|
 B|------------------------------|------------------------|------------------------------|
F#|------------------------------|------------------------|------------------------------|
 B|-5---0---2---5----0---8---7---|------2-----0---2---5---|-5---0---2---5----0---8---7---|


 E|------------------------|---------------------------|---------------------------|
 B|------------------------|---------------------------|---------------------------|
F#|------------------------|---------------------------|---------------------------|
 B|------2-----0---2---5---|-5---0---2---5----0---8----|-7----7----7---8---7---10--|


 E|---------------------------|------------------------|------------------------------|
 B|---------------------------|------------------------|------------------------------|
F#|---------------------------|------------------------|------------------------------|
 B|-10--5----5---5---7---8----|------2-----0---2---5---|-5---0---2---5----0---8---7---|


 E|------------------------|------------------------------|------------------------|
 B|------------------------|------------------------------|------------------------|
F#|------------------------|------------------------------|------------------------|
 B|------2-----0---2---5---|-5---0---2---5----0---8---7---|------2-----0---2---5---|


 E|---------------------------|---------------------------|---------------------------|
 B|---------------------------|---------------------------|---------------------------|
F#|---------------------------|---------------------------|---------------------------|
 B|-5---0---2---5----0---8----|-7----7----7---8---7---10--|-10--5----5---5---7---8----|


 E|------------|------------|--------|-------------|------------|------------|--------|
 B|------------|------------|--------|-------------|------------|------------|--------|
F#|------------|------------|--------|-2-----5-----|------------|------------|--------|
 B|-3------5---|-5---0------|-2------|-------------|-3------5---|-5---0------|-2------|


 E|-------------|------------|------------|--------|-------------|------------|------------|
 B|-------------|------------|------------|--------|-------------|------------|------------|
F#|-2-----5-----|------------|------------|--------|-2-----5-----|------------|------------|
 B|-------------|-3------5---|-5---0------|-2------|-------------|-3------5---|-5---0------|


 E|--------|-------------|------------------------------|---------------------------------|
 B|--------|-------------|------------------------------|---------------------------------|
F#|--------|-2-----5-----|------------------------------|---------------------------------|
 B|-2------|-------------|-3----3---3---3---3---3---5---|-5---0---0---0---0---0---0---2---|


 E|---------------------------------|------------------------------|---------------------------------|
 B|---------------------------------|------------------------------|---------------------------------|
F#|-----------------------------2---|-2---2---2---5----5---5-------|---------------------------------|
 B|-2---2---2---2---2---2---2-------|--------------------------3---|-3---3---3---3---3---3---3---5---|


 E|---------------------------------|---------------------------------|------------------------------|
 B|---------------------------------|---------------------------------|------------------------------|
F#|---------------------------------|-----------------------------2---|-2---2---2---5----5---5-------|
 B|-5---0---0---0---0---0---0---2---|-2---2---2---2---2---2---2-------|--------------------------3---|


 E|---------------------------------|---------------------------------|---------------------------------|
 B|---------------------------------|---------------------------------|---------------------------------|
F#|---------------------------------|---------------------------------|-----------------------------2---|
 B|-3---3---3---3---3---3---3---5---|-5---0---0---0---0---0---0---2---|-2---2---2---2---2---2---2-------|


 E|------------------------------|---------------------------------|---------------------------------|
 B|------------------------------|---------------------------------|---------------------------------|
F#|-2---2---2---5----5---5-------|---------------------------------|---------------------------------|
 B|--------------------------3---|-3---3---3---3---3---3---3---5---|-5---0---0---0---0---0---0---2---|


 E|---------------------------------|---------------------------|------------------------|
 B|---------------------------------|---------------------------|------------------------|
F#|-----------------------------2---|-2---2---2---5----5---5----|------------------------|
 B|-2---2---2---2---2---2---2-------|---------------------------|------2-----0---2---5---|


 E|------------------------------|------------------------|------------------------------|
 B|------------------------------|------------------------|------------------------------|
F#|------------------------------|------------------------|------------------------------|
 B|-5---0---2---5----0---8---7---|------2-----0---2---5---|-5---0---2---5----0---8---7---|


 E|------------------------|------------------------------|---------------------------|
 B|------------------------|------------------------------|---------------------------|
F#|------------------------|------------------------------|---------------------------|
 B|------2-----0---2---5---|-5---0---2---5----0---8---7---|-7----7----7---8---7---10--|


 E|---------------------------|------------------------|------------------------------|
 B|---------------------------|------------------------|------------------------------|
F#|---------------------------|------------------------|------------------------------|
 B|-10--5----5---5---7---8----|------2-----0---2---5---|-5---0---2---5----0---8---7---|


 E|------------------------|------------------------------|------------------------|
 B|------------------------|------------------------------|------------------------|
F#|------------------------|------------------------------|------------------------|
 B|------2-----0---2---5---|-5---0---2---5----0---8---7---|------2-----0---2---5---|


 E|------------------------------|---------------------------|---------------------------|
 B|------------------------------|---------------------------|---------------------------|
F#|------------------------------|---------------------------|---------------------------|
 B|-5---0---2---5----0---8---7---|-7----7----7---8---7---10--|-10--5----5---5---7---8----|


 E|------------------------|------------------------------|------------------------|
 B|------------------------|------------------------------|------------------------|
F#|------------------------|------------------------------|------------------------|
 B|------2-----0---2---5---|-5---0---2---5----0---8---7---|------2-----0---2---5---|


 E|------------------------------|------------------------|------------------------------|
 B|------------------------------|------------------------|------------------------------|
F#|------------------------------|------------------------|------------------------------|
 B|-5---0---2---5----0---8---7---|------2-----0---2---5---|-5---0---2---5----0---8---7---|


 E|---------------------------|---------------------------|------------------------|
 B|---------------------------|---------------------------|------------------------|
F#|---------------------------|---------------------------|------------------------|
 B|-7----7----7---8---7---10--|-10--5----5---5---7---8----|------2-----0---2---5---|


 E|------------------------------|------------------------|------------------------------|
 B|------------------------------|------------------------|------------------------------|
F#|------------------------------|------------------------|------------------------------|
 B|-5---0---2---5----0---8---7---|------2-----0---2---5---|-5---0---2---5----0---8---7---|


 E|------------------------|------------------------------|---------------------------|
 B|------------------------|------------------------------|---------------------------|
F#|------------------------|------------------------------|---------------------------|
 B|------2-----0---2---5---|-5---0---2---5----0---8---7---|-7----7----7---8---7---10--|


 E|---------------------------|-----------------------------------------------|-----------------------------------------------|
 B|---------------------------|-----------------------------------------------|-----------------------------------------------|
F#|---------------------------|-----------------------------------------------|-----------------------------------------------|
 B|-10--5----5---5---7---8----|-0--2-----0--2-----3--2-----0--2-----3--2--0---|-0--2-----0--2-----3--2-----0--2-----3--2--0---|


 E|-----------------------------------------------|-----------------------------------------------|
 B|-----------------------------------------------|-----------------------------------------------|
F#|-----------------------------------------------|-----------------------------------------------|
 B|-0--2-----0--2-----3--2-----0--2-----3--2--0---|-0--2-----0--2-----3--2-----0--2-----3--2--0---|


 E|-----------------------------------------------|-----------------------------------------------|
 B|-----------------------------------------------|-----------------------------------------------|
F#|-----------------------------------------------|-----------------------------------------------|
 B|-0--2-----0--2-----3--2-----0--2-----3--2--0---|-0--2-----0--2-----3--2-----0--2-----3--2--0---|


 E|-----------------------------------------------|-----------------------------------------|
 B|-----------------------------------------------|-----------------------------------------|
F#|-----------------------------------------------|-----------------------------------------|
 B|-0--2-----0--2-----3--2-----0--2-----3--2--0---|-0--2-----0--2-----3--2--5---5---0--0----|


 E|-----------------------|--------|--------|--------|--------|--------|
 B|-----------------------|--------|--------|--------|--------|--------|
F#|-----------------------|--------|--------|--------|--------|--------|
 B|-5---5---0--0----------|--------|--------|--------|--------|--------|