Menu:

 

Search:

 

slaughter - up all night:

 



Title: Up All Night
Artist: 
Album: Stick It To Ya
Author: Mark Slaughter/Dana Strum


Track 1: Rhytme Guitar 2

D|--------|--------|--------|--------|--------|--------|-----------------------------------|
A|--------|--------|--------|--------|--------|--------|-----------------------------------|
F|--------|--------|--------|--------|--------|--------|-7-------7-------7-------7------7--|
C|--------|--------|--------|--------|--------|--------|-7-------7-------7-------7------6--|
G|--------|--------|--------|--------|--------|--------|-----------------------------------|
D|--------|--------|--------|--------|--------|--------|-----0-------0-------0-------0-----|


D|-------------------------------------|-----------------------------------|-----------------------------------------|
A|-------------------------------------|-----------------------------------|-----------------------------------------|
F|-7-------7-------7-------9--7-----7--|-7-------7-------7-------7------7--|-7-------7---7--7--7--9--9--9--9--7------|
C|-6-------6-------6-------7-----7--7--|-7-------7-------7-------7------6--|-6-------6---6--6------------------------|
G|-------------------------------------|-----------------------------------|-------------------5--7--7--7--7--5------|
D|-----0-------0-------0---------------|-----0-------0-------0-------0-----|-----0-----------------------------------|


D|--------------------|--------------------|--------------------|-------------------------------|
A|--------------------|--------------------|--------------------|-------------------------------|
F|-7------7--7--7--7--|-7------9--7-----7--|-7------7--7--7--7--|-7-----7--9--9--9--9--7-----7--|
C|-7------7--7--7--6--|-6------7--------7--|-7------7--7--7--6--|-6-----------------------------|
G|--------------------|--------------7-----|--------------------|-------5--7--7--7--7--5-----5--|
D|--------------------|--------------------|--------------------|-------------------------------|


D|--------------------|--------------------|--------------------|-------------|-------------------------------------|
A|--------------------|--------------------|--------------------|-------------|-------------------------------------|
F|-7------7--7--7--7--|-7------9--7-----7--|-7------7--7--7--7--|-7-----------|---------0-----------------0---------|
C|-7------7--7--7--6--|-6------7--------7--|-7------7--7--7--6--|-6-----------|-----0-------0---------0-------0-----|
G|--------------------|--------------7-----|--------------------|-------------|----------------3--3-----------------|
D|--------------------|--------------------|--------------------|--------12---|-1--------------------------------3--|


D|-----------------------------------|-------------------------------------|---------------------------------|
A|-----------------------------------|-------------------------------------|---------------------------------|
F|---------0---------------0---------|---------0-----------------0---------|---------0-------2-------0-------|
C|-----0-------0-------0-------0-----|-----0-------0---------0-------0-----|-----0-------0-------0-------0---|
G|-----------------------------------|----------------3--3-----------------|---------------------------------|
D|-3---------------3--------------1--|-1--------------------------------3--|-3-------------------------------|


D|-------------------------------------|-----------------------------------|-----3-------------------------------|
A|-------------------------------------|-----------------------------------|-------------------------------------|
F|---------0-----------------0---------|---------0---------------0---------|---------0-----------------0---------|
C|-----0-------0---------0-------0-----|-----0-------0-------0-------0-----|-------------0---------0-------0-----|
G|----------------3--3-----------------|-----------------------------------|----------------3--3-----------------|
D|-1--------------------------------3--|-3---------------3--------------1--|-1--------------------------------3--|


D|---------------------------------|--------|--------|--------|--------|-----------------------------------|
A|---------------------------------|--------|--------|--------|--------|-----------------------------------|
F|---------0-------2-------0-------|--------|--------|--------|--------|-7-------7-------7-------7------7--|
C|-----0-------0-------0-------0---|--------|--------|--------|--------|-7-------7-------7-------7------6--|
G|---------------------------------|--------|--------|--------|--------|-----------------------------------|
D|-3-------------------------------|--------|--------|--------|--------|-----0-------0-------0-------0-----|


D|-------------------------------------|-----------------------------------|-----------------------------------------|
A|-------------------------------------|-----------------------------------|-----------------------------------------|
F|-7-------7-------7-------9--7-----7--|-7-------7-------7-------7------7--|-7-------7---7--7--7--9--9--9--9--7------|
C|-6-------6-------6-------7-----7--7--|-7-------7-------7-------7------6--|-6-------6---6--6------------------------|
G|-------------------------------------|-----------------------------------|-------------------5--7--7--7--7--5------|
D|-----0-------0-------0---------------|-----0-------0-------0-------0-----|-----0-----------------------------------|


D|--------------------|--------------------|--------------------|-------------------------------|
A|--------------------|--------------------|--------------------|-------------------------------|
F|-7------7--7--7--7--|-7------9--7-----7--|-7------7--7--7--7--|-7-----7--9--9--9--9--7-----7--|
C|-7------7--7--7--6--|-6------7--------7--|-7------7--7--7--6--|-6-----------------------------|
G|--------------------|--------------7-----|--------------------|-------5--7--7--7--7--5-----5--|
D|--------------------|--------------------|--------------------|-------------------------------|


D|--------------------|--------------------|--------------------|-------------|-------------------------------------|
A|--------------------|--------------------|--------------------|-------------|-------------------------------------|
F|-7------7--7--7--7--|-7------9--7-----7--|-7------7--7--7--7--|-7-----------|---------0-----------------0---------|
C|-7------7--7--7--6--|-6------7--------7--|-7------7--7--7--6--|-6-----------|-----0-------0---------0-------0-----|
G|--------------------|--------------7-----|--------------------|-------------|----------------3--3-----------------|
D|--------------------|--------------------|--------------------|--------12---|-1--------------------------------3--|


D|-----------------------------------|-------------------------------------|---------------------------------|
A|-----------------------------------|-------------------------------------|---------------------------------|
F|---------0---------------0---------|---------0-----------------0---------|---------0-------2-------0-------|
C|-----0-------0-------0-------0-----|-----0-------0---------0-------0-----|-----0-------0-------0-------0---|
G|-----------------------------------|----------------3--3-----------------|---------------------------------|
D|-3---------------3--------------1--|-1--------------------------------3--|-3-------------------------------|


D|-------------------------------------|-----------------------------------|-----3-------------------------------|
A|-------------------------------------|-----------------------------------|-------------------------------------|
F|---------0-----------------0---------|---------0---------------0---------|---------0-----------------0---------|
C|-----0-------0---------0-------0-----|-----0-------0-------0-------0-----|-------------0---------0-------0-----|
G|----------------3--3-----------------|-----------------------------------|----------------3--3-----------------|
D|-1--------------------------------3--|-3---------------3--------------1--|-1--------------------------------3--|


D|---------------------------------|--------|--------|--------|--------|-----------------------------------|
A|---------------------------------|--------|--------|--------|--------|-----------------------------------|
F|---------0-------2-------0-------|--------|--------|--------|--------|-7-------7-------7-------7------7--|
C|-----0-------0-------0-------0---|--------|--------|--------|--------|-7-------7-------7-------7------6--|
G|---------------------------------|--------|--------|--------|--------|-----------------------------------|
D|-3-------------------------------|--------|--------|--------|--------|-----0-------0-------0-------0-----|


D|-------------------------------------|-----------------------------------|-----------------------------------------|
A|-------------------------------------|-----------------------------------|-----------------------------------------|
F|-7-------7-------7-------9--7-----7--|-7-------7-------7-------7------7--|-7-------7---7--7--7--9--9--9--9--7------|
C|-6-------6-------6-------7-----7--7--|-7-------7-------7-------7------6--|-6-------6---6--6------------------------|
G|-------------------------------------|-----------------------------------|-------------------5--7--7--7--7--5------|
D|-----0-------0-------0---------------|-----0-------0-------0-------0-----|-----0-----------------------------------|


D|--------------0---------|-3------------------------------|--------------0---------|
A|--------------3---------|-3------------------------------|--------------3---------|
F|-2---2--------2---------|-0------------------------------|-2---2--------2---------|
C|-2---2--------0---------|-0------------------------------|-2---2--------0---------|
G|-0---0--------0---------|------3----3--0---------0--3----|-0---0--------0---------|
D|------------------------|-3----------------0--3----------|------------------------|


D|--------|--------|---------------------------------------------|---------------------------------------------|
A|--------|--------|---------------------------------8-----------|---------------------------------8-----------|
F|--------|--------|-7---0--0--7--0--0--6--6---0--0-----5--6--7--|-7---0--0--7--0--0--6--6---0--0-----5--6--7--|
C|--------|--------|---------------------------------------------|---------------------------------------------|
G|--------|--------|---------------------------------------------|---------------------------------------------|
D|--------|--------|---------------------------------------------|---------------------------------------------|


D|---------------------------------------------|---------------------------------------------|
A|---------------------------------------------|---------------------------------------------|
F|-7---0--0--7--0--0--6--6---0--0--5--5--6--7--|-7---0--0--7--0--0--6--6---0--0--5--5--6--7--|
C|---------------------------------------------|---------------------------------------------|
G|---------------------------------------------|---------------------------------------------|
D|---------------------------------------------|---------------------------------------------|


D|--------|--------|--------|------0----0-----|---------------------------|---------------------------|
A|--------|--------|--------|------0----0-----|---------------------------|---------------------------|
F|--------|--------|--------|------4----4-----|-9-------6----8-------6----|-9-------6----8-------6----|
C|--------|--------|--------|-5---------------|-----7------------7--------|-----7------------7--------|
G|--------|--------|--------|-5---------------|---------------------------|---------------------------|
D|--------|--------|--------|-3---------------|---------------------------|---------------------------|


D|----------------------------------|---------------------------|-------------------------------------------|
A|----------------------------------|---------------------------|----12-------14-----11-11--------12--------|
F|-9-------6----8-------8--6--4-----|-9-------6---------6---6---|-------13------------------13-------13-----|
C|-----7------------7---------------|-----7--------9------------|----------13-----13-----------13-------13--|
G|----------------------------------|---------------------------|-11----------------------------------------|
D|----------------------------------|---------------------------|-------------------------------------------|


D|-------------------------------------------|-3------|--------|-------------------------------------|
A|----12-------14-----11----11---------------|-3------|--------|-------------------------------------|
F|-------13--------------------13----12------|-0------|--------|---------2-----------------2---------|
C|----------13-----13-------------13----13---|-0------|-2------|-----2-------2---------2-------2-----|
G|-11--------------------11------------------|--------|-0------|----------------5--5--------------0--|
D|-------------------------------------------|-3------|--------|-3-----------------------------------|


D|-----------------------------------|-------------------------------------|---------------------------|
A|-----------------------------------|-------------------------------------|---------------------------|
F|---------2---------------2---------|---------2-----------------2---------|---------2-------4----2----|
C|-----2-------2-------2-------2-----|-----2-------2---------2-------2-----|-----2-------2-------------|
G|-0---------------0-----------------|----------------5--5--------------0--|-0-------------------------|
D|--------------------------------3--|-3-----------------------------------|---------------------------|


D|-------------------------------------|-----------------------------------|-------------------------------------|
A|-------------------------------------|-----------------------------------|-------------------------------------|
F|---------2-----------------2---------|---------2---------------2---------|---------2-----------------2---------|
C|-----2-------2---------2-------2-----|-----2-------2-------2-------2-----|-----2-------2---------2-------2-----|
G|----------------5--5--------------0--|-0---------------0-----------------|----------------5--5--------------0--|
D|-3-----------------------------------|--------------------------------3--|-3-----------------------------------|


D|---------------------------|--------|--------|--------|--------|--------|--------|
A|---------------------------|--------|--------|--------|--------|--------|--------|
F|---------2-------4----2----|--------|--------|--------|--------|--------|--------|
C|-----2-------2-------------|--------|--------|--------|--------|--------|--------|
G|-0-------------------------|--------|--------|--------|--------|--------|--------|
D|---------------------------|--------|--------|--------|--------|--------|--------|


D|--------|--------|--------|--------|
A|--------|--------|--------|--------|
F|--------|--------|--------|--------|
C|--------|--------|--------|--------|
G|--------|--------|--------|--------|
D|--------|--------|--------|--------|





Track 2: Rhytme Guitar 1

D|--------|--------|--------|--------|--------|--------|--------|--------|--------|
A|--------|--------|--------|--------|--------|--------|--------|--------|--------|
F|--------|--------|--------|--------|--------|--------|--------|--------|--------|
C|--------|--------|--------|--------|--------|--------|--------|--------|--------|
G|--------|--------|--------|--------|--------|--------|--------|--------|--------|
D|--------|--------|--------|--------|--------|--------|--------|--------|--------|


D|--------|--------|--------|--------|--------|--------|--------|--------|--------|
A|--------|--------|--------|--------|--------|--------|--------|--------|--------|
F|--------|--------|--------|--------|--------|--------|--------|--------|--------|
C|--------|--------|--------|--------|--------|--------|--------|--------|--------|
G|--------|--------|--------|--------|--------|--------|--------|--------|--------|
D|--------|--------|--------|--------|--------|--------|--------|--------|--------|


D|--------|--------|--------|--------|--------|--------|--------|--------|--------------0---------|
A|--------|--------|--------|--------|--------|--------|--------|--------|--------------3---------|
F|--------|--------|--------|--------|--------|--------|--------|--------|-2---2--------2---------|
C|--------|--------|--------|--------|--------|--------|--------|--------|-2---2--------0---------|
G|--------|--------|--------|--------|--------|--------|--------|--------|-0---0--------0---------|
D|--------|--------|--------|--------|--------|--------|--------|--------|------------------------|


D|-3------------------------------|--------------0---------|-3------------------------------|
A|-3------------------------------|--------------3---------|-3------------------------------|
F|-0------------------------------|-2---2--------2---------|-0------------------------------|
C|-0------------------------------|-2---2--------0---------|-0------------------------------|
G|------3----3--0---------0--3----|-0---0--------0---------|------3----3--0---------0--3----|
D|-3----------------0--3----------|------------------------|-3----------------0--3----------|


D|--------|--------------------------------|--------------------------------------------|
A|--------|--------------15------15--17-19-|-19---19--19---19-11121511----11121512111215|
F|--------|----------16------16------------|--------------------------1412--------------|
C|--------|--------------------------------|--------------------------------------------|
G|--------|--------------------------------|--------------------------------------------|
D|--------|--------------------------------|--------------------------------------------|


D|-----------------------------------|--------|--------|--------|--------|--------|
A|-15141515121412141210-10-10--9-----|--------|--------|--------|--------|--------|
F|-----------------------------------|--------|--------|--------|--------|--------|
C|-----------------------------------|--------|--------|--------|--------|--------|
G|-----------------------------------|--------|--------|--------|--------|--------|
D|-----------------------------------|--------|--------|--------|--------|--------|


D|--------|--------|--------|--------|--------|--------|--------|--------|--------|
A|--------|--------|--------|--------|--------|--------|--------|--------|--------|
F|--------|--------|--------|--------|--------|--------|--------|--------|--------|
C|--------|--------|--------|--------|--------|--------|--------|--------|--------|
G|--------|--------|--------|--------|--------|--------|--------|--------|--------|
D|--------|--------|--------|--------|--------|--------|--------|--------|--------|


D|--------|--------|--------------0---------|-3------------------------------|--------------0---------|
A|--------|--------|--------------3---------|-3------------------------------|--------------3---------|
F|--------|--------|-2---2--------2---------|-0------------------------------|-2---2--------2---------|
C|--------|--------|-2---2--------0---------|-0------------------------------|-2---2--------0---------|
G|--------|--------|-0---0--------0---------|------3----3--0---------0--3----|-0---0--------0---------|
D|--------|--------|------------------------|-3----------------0--3----------|------------------------|


D|-3------------------------------|--------|--------------------------------|--------------------------------------------|
A|-3------------------------------|--------|--------------15------15--17-19-|-19---19--19---19-11121511----11121512111215|
F|-0------------------------------|--------|----------16------16------------|--------------------------1412--------------|
C|-0------------------------------|--------|--------------------------------|--------------------------------------------|
G|------3----3--0---------0--3----|--------|--------------------------------|--------------------------------------------|
D|-3----------------0--3----------|--------|--------------------------------|--------------------------------------------|


D|-----------------------------------|--------|--------|--------|--------|--------|
A|-15141515121412141210-10-10--9-----|--------|--------|--------|--------|--------|
F|-----------------------------------|--------|--------|--------|--------|--------|
C|-----------------------------------|--------|--------|--------|--------|--------|
G|-----------------------------------|--------|--------|--------|--------|--------|
D|-----------------------------------|--------|--------|--------|--------|--------|


D|--------|--------|--------|--------|---------------------------------------|---------------------------------------------|
A|--------|--------|--------|--------|---------10----------------10-------10-|-----------12-------9--9--9--------10--------|
F|--------|--------|--------|--------|------------11----------------11-------|-----11----------------------11-------11-----|
C|--------|--------|--------|--------|-----11--------11------11--------11----|--------11----11-11-------------11-------11--|
G|--------|--------|--------|--------|-9-----------------9-------------------|-9-------------------------------------------|
D|--------|--------|--------|--------|---------------------------------------|---------------------------------------------|


D|-------------0--0-----|--------|--------|--------|--------|--------|--------|--------|
A|-------------0--0-----|--------|--------|--------|--------|--------|--------|--------|
F|------0---2-----------|--------|--------|--------|--------|--------|--------|--------|
C|-3--------------------|--------|--------|--------|--------|--------|--------|--------|
G|-3--------------------|--------|--------|--------|--------|--------|--------|--------|
D|-1--------------------|--------|--------|--------|--------|--------|--------|--------|


D|--------|--------|--------|--------|--------|--------|--------|--------|--------|
A|--------|--------|--------|--------|--------|--------|--------|--------|--------|
F|--------|--------|--------|--------|--------|--------|--------|--------|--------|
C|--------|--------|--------|--------|--------|--------|--------|--------|--------|
G|--------|--------|--------|--------|--------|--------|--------|--------|--------|
D|--------|--------|--------|--------|--------|--------|--------|--------|--------|


D|--------|------------------------|-----------------------------|------------------------|
A|--------|------------------------|-----------------------------|------------------------|
F|--------|-4---4--------9---------|-2---------------------------|-4---4--------9---------|
C|--------|-4---4--------9---------|-2---------------------------|-4---4--------9---------|
G|--------|-2---2--------7---------|-0----5----2---------2--5----|-2---2--------7---------|
D|--------|------------------------|---------------2--5----------|------------------------|


D|-----------------------------|------------------------|-----------------------------|
A|-----------------------------|------------------------|-----------------------------|
F|-2---------------------------|-4---4--------9---------|-2---------------------------|
C|-2---------------------------|-4---4--------9---------|-2---------------------------|
G|-0----5----2---------2--5----|-2---2--------7---------|-0----5----2---------2--5----|
D|---------------2--5----------|------------------------|---------------2--5----------|


D|------------------------|-----------------------------|--------------------|-------------|
A|------------------------|-----------------------------|--------------------|-------------|
F|-4---4--------9---------|-2---------------------------|-4---4--------------|-------------|
C|-4---4--------9---------|-2---------------------------|-4---4--------7-----|-3-----------|
G|-2---2--------7---------|-0----5----2---------2--5----|-2---2--------------|-------------|
D|------------------------|---------------2--5----------|--------------------|-------------|





Track 3: Lead Guitar

D|--------|--------|--------|--------|--------|--------|--------|--------|--------|
A|--------|--------|--------|--------|--------|--------|--------|--------|--------|
F|--------|--------|--------|--------|--------|--------|--------|--------|--------|
C|--------|--------|--------|--------|--------|--------|--------|--------|--------|
G|--------|--------|--------|--------|--------|--------|--------|--------|--------|
D|--------|--------|--------|--------|--------|--------|--------|--------|--------|


D|--------|--------|--------|--------|--------|--------|--------|--------|--------|
A|--------|--------|--------|--------|--------|--------|--------|--------|--------|
F|--------|--------|--------|--------|--------|--------|--------|--------|--------|
C|--------|--------|--------|--------|--------|--------|--------|--------|--------|
G|--------|--------|--------|--------|--------|--------|--------|--------|--------|
D|--------|--------|--------|--------|--------|--------|--------|--------|--------|


D|--------|--------|--------|--------|--------|--------|--------|--------|--------|
A|--------|--------|--------|--------|--------|--------|--------|--------|--------|
F|--------|--------|--------|--------|--------|--------|--------|--------|--------|
C|--------|--------|--------|--------|--------|--------|--------|--------|--------|
G|--------|--------|--------|--------|--------|--------|--------|--------|--------|
D|--------|--------|--------|--------|--------|--------|--------|--------|--------|


D|--------|--------|--------|--------|--------|--------|--------|--------|--------|
A|--------|--------|--------|--------|--------|--------|--------|--------|--------|
F|--------|--------|--------|--------|--------|--------|--------|--------|--------|
C|--------|--------|--------|--------|--------|--------|--------|--------|--------|
G|--------|--------|--------|--------|--------|--------|--------|--------|--------|
D|--------|--------|--------|--------|--------|--------|--------|--------|--------|


D|--------|--------|--------|--------|--------|--------|--------|--------|--------|
A|--------|--------|--------|--------|--------|--------|--------|--------|--------|
F|--------|--------|--------|--------|--------|--------|--------|--------|--------|
C|--------|--------|--------|--------|--------|--------|--------|--------|--------|
G|--------|--------|--------|--------|--------|--------|--------|--------|--------|
D|--------|--------|--------|--------|--------|--------|--------|--------|--------|


D|--------|--------|--------|--------|--------|--------|--------|--------|--------|
A|--------|--------|--------|--------|--------|--------|--------|--------|--------|
F|--------|--------|--------|--------|--------|--------|--------|--------|--------|
C|--------|--------|--------|--------|--------|--------|--------|--------|--------|
G|--------|--------|--------|--------|--------|--------|--------|--------|--------|
D|--------|--------|--------|--------|--------|--------|--------|--------|--------|


D|--------|--------|--------|--------|--------|--------|--------|--------|--------|
A|--------|--------|--------|--------|--------|--------|--------|--------|--------|
F|--------|--------|--------|--------|--------|--------|--------|--------|--------|
C|--------|--------|--------|--------|--------|--------|--------|--------|--------|
G|--------|--------|--------|--------|--------|--------|--------|--------|--------|
D|--------|--------|--------|--------|--------|--------|--------|--------|--------|


D|--------|--------|--------|--------|---------------------|---------------------------|
A|--------|--------|--------|--------|----------------15---|-15---14---151412----------|
F|--------|--------|--------|--------|-11---13---14--------|--------------------14---12|
C|--------|--------|--------|--------|---------------------|---------------------------|
G|--------|--------|--------|--------|---------------------|---------------------------|
D|--------|--------|--------|--------|---------------------|---------------------------|


D|-----------------------------|---------------------|--------------------------|------------------------|
A|-----------------------------|---------------------|-----------4----4---4--5--|-5----------------------|
F|-10---9----109-7----5----7-5-|-4----5----7----4----|-4----6-------------------|------6----8-------6----|
C|-----------------------------|---------------------|--------------------------|---------------7--------|
G|-----------------------------|---------------------|--------------------------|------------------------|
D|-----------------------------|---------------------|--------------------------|------------------------|


D|-----------------------------|--------------------------|------------------------19---|
A|--------------4----4---4--4--|-4------------------------|-19---19---16-17161716-------|
F|------6----6-----------------|------6----4----6---18-16-|-----------------------------|
C|-7---------------------------|--------------------------|-----------------------------|
G|-----------------------------|--------------------------|-----------------------------|
D|-----------------------------|--------------------------|-----------------------------|


D|-1818-1918161816------------------------------------|-------------------|------------------------------------|
A|----------------151616191615--1519--1919-19-19--19--|-------------------|------------------------------------|
F|----------------------------16----------------------|-------------------|------------------------------------|
C|----------------------------------------------------|-11----11----11-9--|------------------------------------|
G|----------------------------------------------------|-------------------|-12--12-12-12-12-12--12-12--12-12---|
D|----------------------------------------------------|-------------------|------------------------------------|


D|--------|--------|--------|--------|--------|--------|--------|--------|--------|
A|--------|--------|--------|--------|--------|--------|--------|--------|--------|
F|--------|--------|--------|--------|--------|--------|--------|--------|--------|
C|--------|--------|--------|--------|--------|--------|--------|--------|--------|
G|--------|--------|--------|--------|--------|--------|--------|--------|--------|
D|--------|--------|--------|--------|--------|--------|--------|--------|--------|


D|--------|--------|--------|--------|--------|--------|--------|--------|--------|
A|--------|--------|--------|--------|--------|--------|--------|--------|--------|
F|--------|--------|--------|--------|--------|--------|--------|--------|--------|
C|--------|--------|--------|--------|--------|--------|--------|--------|--------|
G|--------|--------|--------|--------|--------|--------|--------|--------|--------|
D|--------|--------|--------|--------|--------|--------|--------|--------|--------|





Track 4: Untitled

G|--------|--------|--------|--------|--------|--------|--------|--------|--------|
D|--------|--------|--------|--------|--------|--------|--------|--------|--------|
A|--------|--------|--------|--------|--------|--------|--------|--------|--------|
E|--------|--------|--------|--------|--------|--------|--------|--------|--------|


G|--------|--------|--------|--------|--------|--------|--------|--------|--------|
D|--------|--------|--------|--------|--------|--------|--------|--------|--------|
A|--------|--------|--------|--------|--------|--------|--------|--------|--------|
E|--------|--------|--------|--------|--------|--------|--------|--------|--------|


G|--------|--------|--------|--------|--------|--------|--------|--------|--------|
D|--------|--------|--------|--------|--------|--------|--------|--------|--------|
A|--------|--------|--------|--------|--------|--------|--------|--------|--------|
E|--------|--------|--------|--------|--------|--------|--------|--------|--------|


G|--------|--------|--------|--------|--------|--------|--------|--------|--------|
D|--------|--------|--------|--------|--------|--------|--------|--------|--------|
A|--------|--------|--------|--------|--------|--------|--------|--------|--------|
E|--------|--------|--------|--------|--------|--------|--------|--------|--------|


G|--------|--------|--------|--------|--------|--------|--------|--------|--------|
D|--------|--------|--------|--------|--------|--------|--------|--------|--------|
A|--------|--------|--------|--------|--------|--------|--------|--------|--------|
E|--------|--------|--------|--------|--------|--------|--------|--------|--------|


G|--------|--------|--------|--------|--------|--------|--------|--------|--------|
D|--------|--------|--------|--------|--------|--------|--------|--------|--------|
A|--------|--------|--------|--------|--------|--------|--------|--------|--------|
E|--------|--------|--------|--------|--------|--------|--------|--------|--------|


G|--------|--------|--------|--------|--------|--------|--------|--------|--------|
D|--------|--------|--------|--------|--------|--------|--------|--------|--------|
A|--------|--------|--------|--------|--------|--------|--------|--------|--------|
E|--------|--------|--------|--------|--------|--------|--------|--------|--------|


G|--------|--------|--------|--------|--------|--------|--------|--------|--------|
D|--------|--------|--------|--------|--------|--------|--------|--------|--------|
A|--------|--------|--------|--------|--------|--------|--------|--------|--------|
E|--------|--------|--------|--------|--------|--------|--------|--------|--------|


G|--------|--------|--------|--------|--------|--------|--------|--------|--------|
D|--------|--------|--------|--------|--------|--------|--------|--------|--------|
A|--------|--------|--------|--------|--------|--------|--------|--------|--------|
E|--------|--------|--------|--------|--------|--------|--------|--------|--------|


G|--------|--------|--------|--------|--------|--------|--------|--------|--------|
D|--------|--------|--------|--------|--------|--------|--------|--------|--------|
A|--------|--------|--------|--------|--------|--------|--------|--------|--------|
E|--------|--------|--------|--------|--------|--------|--------|--------|--------|


G|--------|--------|--------|--------|--------|--------|--------|
D|--------|--------|--------|--------|--------|--------|--------|
A|--------|--------|--------|--------|--------|--------|--------|
E|--------|--------|--------|--------|--------|--------|--------|