Menu:

 

Search:

 

slaughter - she wants more:

 



Title: She Wants More
Artist: 
Album: Stick It To Ya
Author: 


Track 1: Rhytme Guitar

D|---------------------------------|--------|---------------------------------|--------|
A|---------------------------------|--------|---------------------------------|--------|
F|-----------------------------2---|--------|-----------------------------2---|--------|
C|-----------------7---0-------2---|--------|---------7---0---7---0-------2---|--------|
G|-----0---3---0-----------3---0---|--------|-----0-------------------3---0---|--------|
D|---------------------------------|--------|---------------------------------|--------|


D|---------------------------------|-------------|---------------------------------|
A|---------------------------------|-------------|---------------------------------|
F|-------------------------8---7---|-7-----7-----|-5-------5-------4-------3---2---|
C|-----------------7---0---8---7---|-7-----7-----|-5---5-------5-------0---3---2---|
G|-----0---3---0-------------------|-------------|-----------------------------0---|
D|---------------------------------|-------------|---------------------------------|


D|--------|---------------------------------|--------|---------------------------------|
A|--------|---------------------------------|--------|---------------------------------|
F|--------|-----------------------------2---|--------|-----------------------------2---|
C|--------|-----------------7---0-------2---|--------|---------7---0---7---0-------2---|
G|--------|-----0---3---0-----------3---0---|--------|-----0-------------------3---0---|
D|--------|---------------------------------|--------|---------------------------------|


D|--------|---------------------------------|--------|--------|---------------------|
A|--------|---------------------------------|--------|--------|-10---9----8----7----|
F|--------|-------------------------8---7---|-7------|-5------|-10---9----8----7----|
C|--------|-----------------7---0---8---7---|-7------|-5------|-9----8----7----6----|
G|--------|-----0---3---0-------------------|--------|--------|---------------------|
D|--------|---------------------------------|--------|--------|---------------------|


D|---------------------|---------------------|---------------------|---------------------|
A|-6----5----4----3----|-2----3----4----5----|-6----7----8----9----|---------------------|
F|-6----5----4----3----|-2----3----4----5----|-6----7----8----9----|---------------------|
C|-5----4----3----2----|-1----2----3----4----|-5----6----7----8----|------7--------------|
G|---------------------|---------------------|---------------------|-0---------6----5----|
D|---------------------|---------------------|---------------------|---------------------|


D|-------------------------------|---------------------|---------------------------------|
A|-------------------------------|---------------------|---------------------------------|
F|-------------------------------|---------------------|---------------------------------|
C|---------------------------7---|-7-------------------|-----------------------------7---|
G|-3----5----6---5---3---0-------|------6----5----3----|-----6---5---3---5---3---0-------|
D|-------------------------------|---------------------|---------------------------------|


D|---------------------|------------------------------|---------------------------|
A|---------------------|------------------------------|---------------------------|
F|---------------------|------------------------------|-----------------------2---|
C|-7-------------------|--------------------------7---|-7---------------------2---|
G|------6----5----3----|-5----5---5---5---3---0-------|------6----5---0---3---0---|
D|---------------------|------------------------------|---------------------------|


D|--------------------|---------------------------------|--------------------|---------------------------------|
A|----------------5---|-7---7---7---7---7---5---7---5---|----------------5---|-7---7---7---7---7---5---7---5---|
F|----------------5---|-7---7---7---7---7---5---7---5---|----------------5---|-7---7---7---7---7---5---7---5---|
C|--------------------|---------------------------------|--------------------|---------------------------------|
G|--------------------|---------------------------------|--------------------|---------------------------------|
D|--------------------|---------------------------------|--------------------|---------------------------------|


D|-----5-------5-------5-----------|---------------------------------|--------------------|
A|-----5---7---5---7---5---7---5---|-7---7---7---7---7---5---7---5---|--------------------|
F|-------------------------7---5---|-7---7---7---7---7---5---7---5---|----------------5---|
C|---------------------------------|---------------------------------|----------------5---|
G|---------------------------------|---------------------------------|--------------------|
D|---------------------------------|---------------------------------|--------------------|


D|---------------------------------|------------------------------|-------------|--------|
A|-7---7---7---7---7---5---7---5---|------------------------------|-------------|--------|
F|-7---7---7---7---7---5---7---5---|-----7-------5------------2---|-2-----------|--------|
C|---------------------------------|-----7-------5------------2---|-2-----------|--------|
G|---------------------------------|--------------------------0---|-0-----------|--------|
D|---------------------------------|------------------------------|-------------|--------|


D|--------|--------|---------------------------------|--------------------|---------------------------------|
A|--------|--------|-7---7---7---7---7---5---7---5---|----------------5---|-7---7---7---7---7---5---7---5---|
F|--------|--------|-7---7---7---7---7---5---7---5---|----------------5---|-7---7---7---7---7---5---7---5---|
C|--------|--------|---------------------------------|--------------------|---------------------------------|
G|--------|--------|---------------------------------|--------------------|---------------------------------|
D|--------|--------|---------------------------------|--------------------|---------------------------------|


D|-----5-------5-------5-----------|---------------------------------|--------------------|
A|-----5---7---5---7---5---7---5---|-7---7---7---7---7---5---7---5---|--------------------|
F|-------------------------7---5---|-7---7---7---7---7---5---7---5---|----------------5---|
C|---------------------------------|---------------------------------|----------------5---|
G|---------------------------------|---------------------------------|--------------------|
D|---------------------------------|---------------------------------|--------------------|


D|---------------------------------|------------------------------|-------------|--------|
A|-7---7---7---7---7---5---7---5---|------------------------------|-------------|--------|
F|-7---7---7---7---7---5---7---5---|-----7-------5------------2---|-2-----------|--------|
C|---------------------------------|-----7-------5------------2---|-2-----------|--------|
G|---------------------------------|--------------------------0---|-0-----------|--------|
D|---------------------------------|------------------------------|-------------|--------|


D|--------|--------|--------|--------|---------------------------------|---------------------------------|
A|--------|--------|-3------|-3------|---------------------------------|---------------------------------|
F|--------|--------|-0------|-2------|-2---2-------2---2---2-------2---|-2---2-------2---2---------------|
C|--------|--------|-0------|-0------|-2---2-------2---2---2---4---2---|-2---2-------2---2---2---4---2---|
G|--------|--------|--------|-0------|-0-------3-----------------------|---------3-----------------------|
D|--------|--------|-3------|--------|---------------------------------|---------------------------------|


D|-3------|--------|-------------------------------------------------|-------------------------------------------------|
A|-0------|-3------|-5---5---5---5---5---5---7---7---7---7---7---7---|-5---5---5---5---5---5---3---3---3---3---3---3---|
F|-0------|-2------|-5---5---5---5---5---5---7---7---7---7---7---7---|-5---5---5---5---5---5---5---5---5---5---5---5---|
C|-0------|-0------|-------------------------------------------------|-------------------------------------------------|
G|--------|-0------|-------------------------------------------------|-------------------------------------------------|
D|-3------|--------|-------------------------------------------------|-------------------------------------------------|


D|--------|--------|---------------------------------|------------------------------|
A|-3------|-3------|-----14--12--12--10--10--8---8---|-7---7---5---5---3---3---2----|
F|-0------|-2------|---------------------------------|------------------------------|
C|-0------|-0------|-14------12------11------9-------|-7-------5-------4-------2----|
G|--------|-0------|---------------------------------|------------------------------|
D|-3------|--------|---------------------------------|------------------------------|


D|--------|--------|---------------------------------|------------------------|------------------------------|
A|-3------|-3------|---------------------------------|------------------------|------------------------------|
F|-0------|-2------|---------------------------------|------------------------|------------------------------|
C|-0------|-0------|---------------------------------|------------------------|------------------------------|
G|--------|-0------|-----7-----------6-----------5---|-5---5---4----3----2----|-----7-----------6--------4---|
D|-3------|--------|-0-----------0-----------0-------|------------------------|-0-----------0----------------|


D|------------------------|---------------------|-------------------------------|---------------------|
A|------------------------|---------------------|-------------------------------|---------------------|
F|------------------------|---------------------|-------------------------------|---------------------|
C|------------------------|------7--------------|---------------------------7---|-7-------------------|
G|-4----5----6----7---0---|-0---------6----5----|-3----5----6---5---3---0-------|------6----5----3----|
D|------------------------|---------------------|-------------------------------|---------------------|


D|---------------------------------|---------------------|------------------------------|
A|---------------------------------|---------------------|------------------------------|
F|---------------------------------|---------------------|------------------------------|
C|-----------------------------7---|-7-------------------|--------------------------7---|
G|-----6---5---3---5---3---0-------|------6----5----3----|-5----5---5---5---3---0-------|
D|---------------------------------|---------------------|------------------------------|


D|---------------------------|--------------------|---------------------------------|
A|---------------------------|----------------5---|-7---7---7---7---7---5---7---5---|
F|-----------------------2---|----------------5---|-7---7---7---7---7---5---7---5---|
C|-7---------------------2---|--------------------|---------------------------------|
G|------6----5---0---3---0---|--------------------|---------------------------------|
D|---------------------------|--------------------|---------------------------------|


D|--------------------|---------------------------------|-----5-------5-------5-----------|
A|----------------5---|-7---7---7---7---7---5---7---5---|-----5---7---5---7---5---7---5---|
F|----------------5---|-7---7---7---7---7---5---7---5---|-------------------------7---5---|
C|--------------------|---------------------------------|---------------------------------|
G|--------------------|---------------------------------|---------------------------------|
D|--------------------|---------------------------------|---------------------------------|


D|---------------------------------|--------------------|---------------------------------|
A|-7---7---7---7---7---5---7---5---|--------------------|-7---7---7---7---7---5---7---5---|
F|-7---7---7---7---7---5---7---5---|----------------5---|-7---7---7---7---7---5---7---5---|
C|---------------------------------|----------------5---|---------------------------------|
G|---------------------------------|--------------------|---------------------------------|
D|---------------------------------|--------------------|---------------------------------|


D|------------------------------|-------------|--------|--------|--------|---------------------------------|
A|------------------------------|-------------|--------|--------|--------|-7---7---7---7---7---5---7---5---|
F|-----7-------5------------2---|-2-----------|--------|--------|--------|-7---7---7---7---7---5---7---5---|
C|-----7-------5------------2---|-2-----------|--------|--------|--------|---------------------------------|
G|--------------------------0---|-0-----------|--------|--------|--------|---------------------------------|
D|------------------------------|-------------|--------|--------|--------|---------------------------------|


D|--------------------|---------------------------------|-----5-------5-------5-----------|
A|----------------5---|-7---7---7---7---7---5---7---5---|-----5---7---5---7---5---7---5---|
F|----------------5---|-7---7---7---7---7---5---7---5---|-------------------------7---5---|
C|--------------------|---------------------------------|---------------------------------|
G|--------------------|---------------------------------|---------------------------------|
D|--------------------|---------------------------------|---------------------------------|


D|---------------------------------|--------------------|---------------------------------|
A|-7---7---7---7---7---5---7---5---|--------------------|-7---7---7---7---7---5---7---5---|
F|-7---7---7---7---7---5---7---5---|----------------5---|-7---7---7---7---7---5---7---5---|
C|---------------------------------|----------------5---|---------------------------------|
G|---------------------------------|--------------------|---------------------------------|
D|---------------------------------|--------------------|---------------------------------|


D|------------------------------|-------------|--------|--------|--------|--------|
A|------------------------------|-------------|--------|--------|--------|-3------|
F|-----7-------5------------2---|-2-----------|--------|--------|--------|-0------|
C|-----7-------5------------2---|-2-----------|--------|--------|--------|-0------|
G|--------------------------0---|-0-----------|--------|--------|--------|--------|
D|------------------------------|-------------|--------|--------|--------|-3------|


D|--------|---------------------------------|---------------------------------|-3------|
A|-3------|---------------------------------|---------------------------------|-0------|
F|-2------|-2---2-------2---2---2-------2---|-2---2-------2---2---------------|-0------|
C|-0------|-2---2-------2---2---2---4---2---|-2---2-------2---2---2---4---2---|-0------|
G|-0------|-0-------3-----------------------|---------3-----------------------|--------|
D|--------|---------------------------------|---------------------------------|-3------|


D|--------|-------------------------------------------------|-------------------------------------------------|
A|-3------|-5---5---5---5---5---5---7---7---7---7---7---7---|-5---5---5---5---5---5---3---3---3---3---3---3---|
F|-2------|-5---5---5---5---5---5---7---7---7---7---7---7---|-5---5---5---5---5---5---5---5---5---5---5---5---|
C|-0------|-------------------------------------------------|-------------------------------------------------|
G|-0------|-------------------------------------------------|-------------------------------------------------|
D|--------|-------------------------------------------------|-------------------------------------------------|


D|--------|--------|---------------------------------|------------------------------|
A|-3------|-3------|-----14--12--12--10--10--8---8---|-7---7---5---5---3---3---2----|
F|-0------|-2------|---------------------------------|------------------------------|
C|-0------|-0------|-14------12------11------9-------|-7-------5-------4-------2----|
G|--------|-0------|---------------------------------|------------------------------|
D|-3------|--------|---------------------------------|------------------------------|


D|--------|--------|---------------------------------|------------------------|------------------------------|
A|-3------|-3------|---------------------------------|------------------------|------------------------------|
F|-0------|-2------|---------------------------------|------------------------|------------------------------|
C|-0------|-0------|---------------------------------|------------------------|------------------------------|
G|--------|-0------|-----7-----------6-----------5---|-5---5---4----3----2----|-----7-----------6--------4---|
D|-3------|--------|-0-----------0-----------0-------|------------------------|-0-----------0----------------|


D|------------------------|---------------------|-------------------------------|---------------------|
A|------------------------|---------------------|-------------------------------|---------------------|
F|------------------------|---------------------|-------------------------------|---------------------|
C|------------------------|------7--------------|---------------------------7---|-7-------------------|
G|-4----5----6----7---0---|-0---------6----5----|-3----5----6---5---3---0-------|------6----5----3----|
D|------------------------|---------------------|-------------------------------|---------------------|


D|---------------------------------|---------------------|------------------------------|
A|---------------------------------|---------------------|------------------------------|
F|---------------------------------|---------------------|------------------------------|
C|-----------------------------7---|-7-------------------|--------------------------7---|
G|-----6---5---3---5---3---0-------|------6----5----3----|-5----5---5---5---3---0-------|
D|---------------------------------|---------------------|------------------------------|


D|---------------------------|--------------------|--------|--------|--------|--------|
A|---------------------------|----------------5---|--------|--------|--------|--------|
F|-----------------------2---|----------------5---|--------|--------|--------|--------|
C|-7---------------------2---|--------------------|--------|--------|--------|--------|
G|------6----5---0---3---0---|--------------------|--------|--------|--------|--------|
D|---------------------------|--------------------|--------|--------|--------|--------|


D|--------|--------|--------|--------|--------|--------|--------|--------|--------|
A|--------|--------|--------|--------|--------|--------|--------|--------|--------|
F|--------|--------|--------|--------|--------|--------|--------|--------|--------|
C|--------|--------|--------|--------|--------|--------|--------|--------|--------|
G|--------|--------|--------|--------|--------|--------|--------|--------|--------|
D|--------|--------|--------|--------|--------|--------|--------|--------|--------|


D|--------|--------|--------|--------|-------------|--------|-------------|-----------------------------|
A|--------|--------|--------|--------|-------------|--------|------5------|-5---7----5---7----7---------|
F|--------|--------|--------|--------|-6----6------|-6------|------5------|-5---7----5---7----7----5----|
C|--------|--------|--------|--------|-5----5------|-5------|------4------|-----------------------------|
G|--------|--------|--------|--------|-0----0------|-0------|------5------|------------------------7----|
D|--------|--------|--------|--------|-------------|--------|-------------|-----------------------------|


D|---------------------------|-----------5---5---5-------|-------------------------|
A|------5----5---5---5-------|-5---------5---5---5-------|------7---8----8---------|
F|------6----6---6---6-------|-6---------6---6---6-------|------7---7----7---------|
C|------5----5---5---5-------|-5---------5---5---5-------|------7---9----9---------|
G|---------------------------|---------------------------|-7-----------------------|
D|-5-------------------------|---------------------------|-------------------------|


D|-8----8----5---5---5----|---------------------------|-----------------|------------------------|
A|-8----8----5---5---5----|------3----5---5---5-------|------7-----7----|-7-----7---7---7---7----|
F|-8----8------------5----|------4----5---5---5-------|------7-----7----|-7-----7---7---7---7----|
C|-7----7-----------------|-4----4----5---5---5-------|------7-----7----|-7---------7---7---7----|
G|------------------------|---------------------------|-5---------------|------------------------|
D|------------------------|---------------------------|-----------------|------------------------|


D|------5------|----------12--12--10----|-15---13---12--13-----------|------------------------|
A|------6------|-10---------------------|-------------------15--15---|-15--15---15--15--------|
F|------5------|-10---------------------|----------------------------|------------------------|
C|------7------|-12---------------------|----------------------------|------------------------|
G|-5-----------|------------------------|----------------------------|------------------------|
D|-------------|------------------------|----------------------------|------------------------|


D|--------|--------|--------|-12---11---10---9----|-8----7----6----5----|---------------------|
A|-2------|-3------|-7------|-12---11---10---9----|-8----7----6----5----|---------------------|
F|-2------|-2------|-6------|-12---11---10---9----|-8----7----6----5----|---------------------|
C|-2------|-4------|-7------|-11---10---9----8----|-7----6----5----4----|------7--------------|
G|-0------|-0------|-0------|---------------------|---------------------|-0---------6----5----|
D|--------|--------|--------|---------------------|---------------------|---------------------|


D|-------------------------------|---------------------|---------------------------------|
A|-------------------------------|---------------------|---------------------------------|
F|-------------------------------|---------------------|---------------------------------|
C|---------------------------7---|-7-------------------|-----------------------------7---|
G|-3----5----6---5---3---0-------|------6----5----3----|-----6---5---3---5---3---0-------|
D|-------------------------------|---------------------|---------------------------------|


D|---------------------|------------------------------|---------------------|---------------------------------|
A|---------------------|------------------------------|---------------------|---------------------------------|
F|---------------------|------------------------------|---------------------|---------------------------------|
C|-7-------------------|--------------------------7---|-7-------------------|-----------------------------7---|
G|------6----5----3----|-5----5---5---5---3---0-------|------6----5----3----|-----6---5---3---5---4---0-------|
D|---------------------|------------------------------|---------------------|---------------------------------|


D|---------------------|------------------------------|---------------------|---------------------------------|
A|---------------------|------------------------------|---------------------|---------------------------------|
F|---------------------|------------------------------|---------------------|---------------------------------|
C|-7-------------------|--------------------------7---|-7-------------------|-----------------------------7---|
G|------6----5----3----|-5----5---5---5---3---0-------|------6----5----3----|-----6---5---3---5---4---0-------|
D|---------------------|------------------------------|---------------------|---------------------------------|


D|---------------------|------------------------------|---------------------------|
A|---------------------|------------------------------|---------------------------|
F|---------------------|------------------------------|-----------------------2---|
C|-7-------------------|--------------------------7---|-7---------------------2---|
G|------6----5----3----|-5----5---5---5---3---0-------|------6----5---0---3---0---|
D|---------------------|------------------------------|---------------------------|


D|--------|--------|
A|--------|--------|
F|--------|-2------|
C|--------|-2------|
G|--------|-0------|
D|--------|--------|





Track 2: Rhytme Guitar 2

D|--------|--------|--------|--------|--------|--------|--------|--------|--------|
A|--------|--------|--------|--------|--------|--------|--------|--------|--------|
F|--------|--------|--------|--------|--------|--------|--------|--------|--------|
C|--------|--------|--------|--------|--------|--------|--------|--------|--------|
G|--------|--------|--------|--------|--------|--------|--------|--------|--------|
D|--------|--------|--------|--------|--------|--------|--------|--------|--------|


D|--------|--------|--------|--------|--------|--------|--------|--------|--------|
A|--------|--------|--------|--------|--------|--------|--------|--------|--------|
F|--------|--------|--------|--------|--------|--------|--------|--------|--------|
C|--------|--------|--------|--------|--------|--------|--------|--------|--------|
G|--------|--------|--------|--------|--------|--------|--------|--------|--------|
D|--------|--------|--------|--------|--------|--------|--------|--------|--------|


D|--------|--------|--------|--------|--------|--------|--------|--------|--------|
A|--------|--------|--------|--------|--------|--------|--------|--------|--------|
F|--------|--------|--------|--------|--------|--------|--------|--------|--------|
C|--------|--------|--------|--------|--------|--------|--------|--------|--------|
G|--------|--------|--------|--------|--------|--------|--------|--------|--------|
D|--------|--------|--------|--------|--------|--------|--------|--------|--------|


D|--------|--------|--------|--------|--------|--------|--------|--------|---------------------|
A|--------|--------|--------|--------|--------|--------|--------|--------|---------------------|
F|--------|--------|--------|--------|--------|--------|--------|--------|---------------------|
C|--------|--------|--------|--------|--------|--------|--------|--------|------7--------------|
G|--------|--------|--------|--------|--------|--------|--------|--------|-0---------6----5----|
D|--------|--------|--------|--------|--------|--------|--------|--------|---------------------|


D|-------------------------------|---------------------|--------|--------|--------|
A|-------------------------------|---------------------|--------|--------|--------|
F|-------------------------------|---------------------|--------|--------|--------|
C|---------------------------7---|-7-------------------|--------|--------|--------|
G|-3----5----6---5---3---0-------|------6----5----3----|--------|--------|--------|
D|-------------------------------|---------------------|--------|--------|--------|


D|--------|--------|--------|--------|--------|--------|---------------------|-------------------------------|
A|--------|--------|--------|--------|--------|--------|---------------------|-------------------------------|
F|--------|--------|--------|--------|--------|--------|---------------------|-------------------------------|
C|--------|--------|--------|--------|--------|--------|------7--------------|---------------------------7---|
G|--------|--------|--------|--------|--------|--------|-0---------6----5----|-3----5----6---5---3---0-------|
D|--------|--------|--------|--------|--------|--------|---------------------|-------------------------------|


D|---------------------|--------|--------|--------|--------|--------|--------|--------|
A|---------------------|--------|--------|--------|--------|--------|--------|--------|
F|---------------------|--------|--------|--------|--------|--------|--------|--------|
C|-7-------------------|--------|--------|--------|--------|--------|--------|--------|
G|------6----5----3----|--------|--------|--------|--------|--------|--------|--------|
D|---------------------|--------|--------|--------|--------|--------|--------|--------|


D|--------|--------|--------|--------|--------|--------|--------|--------|--------|
A|--------|--------|--------|--------|--------|--------|--------|--------|--------|
F|--------|--------|--------|--------|--------|--------|--------|--------|--------|
C|--------|--------|--------|--------|--------|--------|--------|--------|--------|
G|--------|--------|--------|--------|--------|--------|--------|--------|--------|
D|--------|--------|--------|--------|--------|--------|--------|--------|--------|


D|--------|--------|--------|--------|--------|--------|--------|--------|--------|
A|--------|--------|--------|--------|--------|--------|--------|--------|--------|
F|--------|--------|--------|--------|--------|--------|--------|--------|--------|
C|--------|--------|--------|--------|--------|--------|--------|--------|--------|
G|--------|--------|--------|--------|--------|--------|--------|--------|--------|
D|--------|--------|--------|--------|--------|--------|--------|--------|--------|


D|--------|--------|--------|--------|--------|--------|--------|--------|--------|
A|--------|--------|--------|--------|--------|--------|--------|--------|--------|
F|--------|--------|--------|--------|--------|--------|--------|--------|--------|
C|--------|--------|--------|--------|--------|--------|--------|--------|--------|
G|--------|--------|--------|--------|--------|--------|--------|--------|--------|
D|--------|--------|--------|--------|--------|--------|--------|--------|--------|


D|--------|---------------------|-------------------------------|---------------------|
A|--------|---------------------|-------------------------------|---------------------|
F|--------|---------------------|-------------------------------|---------------------|
C|--------|------7--------------|---------------------------7---|-7-------------------|
G|--------|-0---------6----5----|-3----5----6---5---3---0-------|------6----5----3----|
D|--------|---------------------|-------------------------------|---------------------|


D|--------|--------|--------|--------|--------|--------|--------|--------|--------|
A|--------|--------|--------|--------|--------|--------|--------|--------|--------|
F|--------|--------|--------|--------|--------|--------|--------|--------|--------|
C|--------|--------|--------|--------|--------|--------|--------|--------|--------|
G|--------|--------|--------|--------|--------|--------|--------|--------|--------|
D|--------|--------|--------|--------|--------|--------|--------|--------|--------|


D|---------------------|-------------------------------|---------------------|--------|
A|---------------------|-------------------------------|---------------------|--------|
F|---------------------|-------------------------------|---------------------|--------|
C|------7--------------|---------------------------7---|-7-------------------|--------|
G|-0---------6----5----|-3----5----6---5---3---0-------|------6----5----3----|--------|
D|---------------------|-------------------------------|---------------------|--------|


D|--------|--------|--------|--------|--------|--------|--------|--------|--------|
A|--------|--------|--------|--------|--------|--------|--------|--------|--------|
F|--------|--------|--------|--------|--------|--------|--------|--------|--------|
C|--------|--------|--------|--------|--------|--------|--------|--------|--------|
G|--------|--------|--------|--------|--------|--------|--------|--------|--------|
D|--------|--------|--------|--------|--------|--------|--------|--------|--------|


D|--------|--------|--------|--------|--------|--------|--------|--------|--------|
A|--------|--------|--------|--------|--------|--------|--------|--------|--------|
F|--------|--------|--------|--------|--------|--------|--------|--------|--------|
C|--------|--------|--------|--------|--------|--------|--------|--------|--------|
G|--------|--------|--------|--------|--------|--------|--------|--------|--------|
D|--------|--------|--------|--------|--------|--------|--------|--------|--------|


D|--------|--------|--------|--------|--------|--------|--------|--------|--------|
A|--------|--------|--------|--------|--------|--------|--------|--------|--------|
F|--------|--------|--------|--------|--------|--------|--------|--------|--------|
C|--------|--------|--------|--------|--------|--------|--------|--------|--------|
G|--------|--------|--------|--------|--------|--------|--------|--------|--------|
D|--------|--------|--------|--------|--------|--------|--------|--------|--------|


D|--------|--------|--------|--------|--------|--------|--------|--------|--------|
A|--------|--------|--------|--------|--------|--------|--------|--------|--------|
F|--------|--------|--------|--------|--------|--------|--------|--------|--------|
C|--------|--------|--------|--------|--------|--------|--------|--------|--------|
G|--------|--------|--------|--------|--------|--------|--------|--------|--------|
D|--------|--------|--------|--------|--------|--------|--------|--------|--------|


D|--------|--------|--------|--------|--------|--------|--------|--------|--------|
A|--------|--------|--------|--------|--------|--------|--------|--------|--------|
F|--------|--------|--------|--------|--------|--------|--------|--------|--------|
C|--------|--------|--------|--------|--------|--------|--------|--------|--------|
G|--------|--------|--------|--------|--------|--------|--------|--------|--------|
D|--------|--------|--------|--------|--------|--------|--------|--------|--------|


D|--------|--------|--------|--------|--------|--------|--------|--------|--------|
A|--------|--------|--------|--------|--------|--------|--------|--------|--------|
F|--------|--------|--------|--------|--------|--------|--------|--------|--------|
C|--------|--------|--------|--------|--------|--------|--------|--------|--------|
G|--------|--------|--------|--------|--------|--------|--------|--------|--------|
D|--------|--------|--------|--------|--------|--------|--------|--------|--------|


D|--------|--------|--------|--------|--------|--------|--------|--------|--------|
A|--------|--------|--------|--------|--------|--------|--------|--------|--------|
F|--------|--------|--------|--------|--------|--------|--------|--------|--------|
C|--------|--------|--------|--------|--------|--------|--------|--------|--------|
G|--------|--------|--------|--------|--------|--------|--------|--------|--------|
D|--------|--------|--------|--------|--------|--------|--------|--------|--------|


D|--------|--------|--------|--------|--------|--------|--------|--------|--------|
A|--------|--------|--------|--------|--------|--------|--------|--------|--------|
F|--------|--------|--------|--------|--------|--------|--------|--------|--------|
C|--------|--------|--------|--------|--------|--------|--------|--------|--------|
G|--------|--------|--------|--------|--------|--------|--------|--------|--------|
D|--------|--------|--------|--------|--------|--------|--------|--------|--------|


D|--------|--------|--------|--------|--------|--------|--------|--------|
A|--------|--------|--------|--------|--------|--------|--------|--------|
F|--------|--------|--------|--------|--------|--------|--------|--------|
C|--------|--------|--------|--------|--------|--------|--------|--------|
G|--------|--------|--------|--------|--------|--------|--------|--------|
D|--------|--------|--------|--------|--------|--------|--------|--------|





Track 3: Lead Guitar

D|--------|--------|--------|--------|--------|--------|--------|--------|--------|
A|--------|--------|--------|--------|--------|--------|--------|--------|--------|
F|--------|--------|--------|--------|--------|--------|--------|--------|--------|
C|--------|--------|--------|--------|--------|--------|--------|--------|--------|
G|--------|--------|--------|--------|--------|--------|--------|--------|--------|
D|--------|--------|--------|--------|--------|--------|--------|--------|--------|


D|--------|--------|--------|--------|--------|--------|--------|--------|--------|
A|--------|--------|--------|--------|--------|--------|--------|--------|--------|
F|--------|--------|--------|--------|--------|--------|--------|--------|--------|
C|--------|--------|--------|--------|--------|--------|--------|--------|--------|
G|--------|--------|--------|--------|--------|--------|--------|--------|--------|
D|--------|--------|--------|--------|--------|--------|--------|--------|--------|


D|--------|--------|--------|--------|--------|--------|--------|--------|--------|
A|--------|--------|--------|--------|--------|--------|--------|--------|--------|
F|--------|--------|--------|--------|--------|--------|--------|--------|--------|
C|--------|--------|--------|--------|--------|--------|--------|--------|--------|
G|--------|--------|--------|--------|--------|--------|--------|--------|--------|
D|--------|--------|--------|--------|--------|--------|--------|--------|--------|


D|--------|--------|--------|--------|--------|--------|--------|--------|--------|
A|--------|--------|--------|--------|--------|--------|--------|--------|--------|
F|--------|--------|--------|--------|--------|--------|--------|--------|--------|
C|--------|--------|--------|--------|--------|--------|--------|--------|--------|
G|--------|--------|--------|--------|--------|--------|--------|--------|--------|
D|--------|--------|--------|--------|--------|--------|--------|--------|--------|


D|--------|--------|------------------------------------------|--------|--------|--------|
A|--------|--------|------------------------------------------|--------|--------|--------|
F|--------|--------|------5--0--5--0--5--0--5--0--5--0--5--0--|--------|--------|--------|
C|--------|--------|------------------------------------------|--------|--------|--------|
G|--------|--------|------------------------------------------|--------|--------|--------|
D|--------|--------|------------------------------------------|--------|--------|--------|


D|--------|--------|--------|--------|--------|--------|--------|--------|------------------------------|
A|--------|--------|--------|--------|--------|--------|--------|--------|------------------------------|
F|--------|--------|--------|--------|--------|--------|--------|--------|------------------------------|
C|--------|--------|--------|--------|--------|--------|--------|--------|------------------------------|
G|--------|--------|--------|--------|--------|--------|--------|--------|-----6---5---3---5---3--------|
D|--------|--------|--------|--------|--------|--------|--------|--------|-------------------------5----|


D|--------|--------|--------|--------|--------|--------|--------|--------|--------|
A|--------|--------|--------|--------|--------|--------|--------|--------|--------|
F|--------|--------|--------|--------|--------|--------|--------|--------|--------|
C|--------|--------|--------|--------|--------|--------|--------|--------|--------|
G|--------|--------|--------|--------|--------|--------|--------|--------|--------|
D|--------|--------|--------|--------|--------|--------|--------|--------|--------|


D|--------|--------|--------|--------|--------|--------|--------|--------|--------|
A|--------|--------|--------|--------|--------|--------|--------|--------|--------|
F|--------|--------|--------|--------|--------|--------|--------|--------|--------|
C|--------|--------|--------|--------|--------|--------|--------|--------|--------|
G|--------|--------|--------|--------|--------|--------|--------|--------|--------|
D|--------|--------|--------|--------|--------|--------|--------|--------|--------|


D|--------|--------|--------|--------|--------|--------|--------|--------|--------|
A|--------|--------|--------|--------|--------|--------|--------|--------|--------|
F|--------|--------|--------|--------|--------|--------|--------|--------|--------|
C|--------|--------|--------|--------|--------|--------|--------|--------|--------|
G|--------|--------|--------|--------|--------|--------|--------|--------|--------|
D|--------|--------|--------|--------|--------|--------|--------|--------|--------|


D|--------|--------|--------|--------|--------|--------|--------|--------|--------|
A|--------|--------|--------|--------|--------|--------|--------|--------|--------|
F|--------|--------|--------|--------|--------|--------|--------|--------|--------|
C|--------|--------|--------|--------|--------|--------|--------|--------|--------|
G|--------|--------|--------|--------|--------|--------|--------|--------|--------|
D|--------|--------|--------|--------|--------|--------|--------|--------|--------|


D|--------|------------------------------------------|--------|--------|--------|--------|
A|--------|------------------------------------------|--------|--------|--------|--------|
F|--------|------5--0--5--0--5--0--5--0--5--0--5--0--|--------|--------|--------|--------|
C|--------|------------------------------------------|--------|--------|--------|--------|
G|--------|------------------------------------------|--------|--------|--------|--------|
D|--------|------------------------------------------|--------|--------|--------|--------|


D|--------|--------|--------|--------|--------|--------|--------|------------------------------|
A|--------|--------|--------|--------|--------|--------|--------|------------------------------|
F|--------|--------|--------|--------|--------|--------|--------|------------------------------|
C|--------|--------|--------|--------|--------|--------|--------|------------------------------|
G|--------|--------|--------|--------|--------|--------|--------|-----6---5---3---5---3--------|
D|--------|--------|--------|--------|--------|--------|--------|-------------------------5----|


D|--------|--------|--------|--------|--------|--------|--------|--------|--------|
A|--------|--------|--------|--------|--------|--------|--------|--------|--------|
F|--------|--------|--------|--------|--------|--------|--------|--------|--------|
C|--------|--------|--------|--------|--------|--------|--------|--------|--------|
G|--------|--------|--------|--------|--------|--------|--------|--------|--------|
D|--------|--------|--------|--------|--------|--------|--------|--------|--------|


D|--------|--------|--------|--------|--------|--------|--------|--------|--------|
A|--------|--------|--------|--------|--------|--------|--------|--------|--------|
F|--------|--------|--------|--------|--------|--------|--------|--------|--------|
C|--------|--------|--------|--------|--------|--------|--------|--------|--------|
G|--------|--------|--------|--------|--------|--------|--------|--------|--------|
D|--------|--------|--------|--------|--------|--------|--------|--------|--------|


D|--------|--------|--------|--------|--------|--------|--------|--------|---------------------|
A|--------|--------|--------|--------|--------|--------|--------|--------|-----------20--------|
F|--------|--------|--------|--------|--------|--------|--------|--------|------16---------14--|
C|--------|--------|--------|--------|--------|--------|--------|--------|---------------------|
G|--------|--------|--------|--------|--------|--------|--------|--------|---------------------|
D|--------|--------|--------|--------|--------|--------|--------|--------|---------------------|


D|--------|--------------------------------------|-5-----------------------------------------------|
A|--------|--------------------------------------|-----8---5---8---5-------5-----------5-----------|
F|-14-----|-14--14--14--12------14--12-----------|---------------------8-------8---7-------7---8---|
C|--------|-----------------14----------14--12---|-------------------------------------------------|
G|--------|--------------------------------------|-------------------------------------------------|
D|--------|--------------------------------------|-------------------------------------------------|


D|------------------------------|---------------------------------------|-----------------------------------------|
A|---------------------0---19---|-19--17--19-19-19--19--19--17--20--20--|-20---17-19--19--19--19--17--19--17--17--|
F|-5----7----5----5-------------|---------------------------------------|-----------------------------------------|
C|------------------------------|---------------------------------------|-----------------------------------------|
G|------------------------------|---------------------------------------|-----------------------------------------|
D|------------------------------|---------------------------------------|-----------------------------------------|


D|-12--8---8---5--7--8--7--5---7---5-------5-------|---------------------------------------------|
A|-------------------------------------8-------7---|-5-------------------------------------------|
F|-------------------------------------------------|-----7---5--7---5---7---5---5---5---5---19---|
C|-------------------------------------------------|---------------------------------------------|
G|-------------------------------------------------|---------------------------------------------|
D|-------------------------------------------------|---------------------------------------------|


D|-------------17----------------------17------17--|-20--17--20--17------17----------------------|
A|-------------------------------------------------|-----------------20--------------------------|
F|-17--19--20------20--19--17--19--20------20------|-------------------------20--19--17--19--20--|
C|-------------------------------------------------|---------------------------------------------|
G|-------------------------------------------------|---------------------------------------------|
D|-------------------------------------------------|---------------------------------------------|


D|-17----------------------17----------------------|-20---20---20--20--20---20---20--|
A|-------------------------------------------------|---------------------------------|
F|-----20--19--17--19--20------20--19--17--20--17--|---------------------------------|
C|-------------------------------------------------|---------------------------------|
G|-------------------------------------------------|---------------------------------|
D|-------------------------------------------------|---------------------------------|


D|-17--19--17--19--17---------------------|-17----------------------------------------------|
A|---------------------20--22-20-17--20---|-----20--17--20--17------17----------------------|
F|----------------------------------------|---------------------20------20--19--20--17--17--|
C|----------------------------------------|-------------------------------------------------|
G|----------------------------------------|-------------------------------------------------|
D|----------------------------------------|-------------------------------------------------|


D|----------------------------------|-------------|--------|--------|--------|--------|
A|-19-------------------------------|-------------|--------|--------|--------|--------|
F|------19---21--19--17---19---19---|-19---19-----|--------|--------|--------|--------|
C|----------------------------------|-------------|--------|--------|--------|--------|
G|----------------------------------|-------------|--------|--------|--------|--------|
D|----------------------------------|-------------|--------|--------|--------|--------|


D|--------|--------|--------|--------|--------|--------|--------|--------|--------|
A|--------|--------|--------|--------|--------|--------|--------|--------|--------|
F|--------|--------|--------|--------|--------|--------|--------|--------|--------|
C|--------|--------|--------|--------|--------|--------|--------|--------|--------|
G|--------|--------|--------|--------|--------|--------|--------|--------|--------|
D|--------|--------|--------|--------|--------|--------|--------|--------|--------|


D|--------|--------|--------|--------|--------|--------|--------|--------|--------|
A|--------|--------|--------|--------|--------|--------|--------|--------|--------|
F|--------|--------|--------|--------|--------|--------|--------|--------|--------|
C|--------|--------|--------|--------|--------|--------|--------|--------|--------|
G|--------|--------|--------|--------|--------|--------|--------|--------|--------|
D|--------|--------|--------|--------|--------|--------|--------|--------|--------|


D|--------|--------|--------|--------|--------|--------|--------|--------|--------|
A|--------|--------|--------|--------|--------|--------|--------|--------|--------|
F|--------|--------|--------|--------|--------|--------|--------|--------|--------|
C|--------|--------|--------|--------|--------|--------|--------|--------|--------|
G|--------|--------|--------|--------|--------|--------|--------|--------|--------|
D|--------|--------|--------|--------|--------|--------|--------|--------|--------|


D|--------|--------|--------|--------|--------|--------|
A|--------|--------|--------|--------|--------|--------|
F|--------|--------|--------|--------|--------|--------|
C|--------|--------|--------|--------|--------|--------|
G|--------|--------|--------|--------|--------|--------|
D|--------|--------|--------|--------|--------|--------|





Track 4: Untitled

G|--------|--------|--------|--------|--------|--------|--------|--------|--------|
D|--------|--------|--------|--------|--------|--------|--------|--------|--------|
A|--------|--------|--------|--------|--------|--------|--------|--------|--------|
E|--------|--------|--------|--------|--------|--------|--------|--------|--------|


G|--------|--------|--------|--------|--------|--------|--------|--------|--------|
D|--------|--------|--------|--------|--------|--------|--------|--------|--------|
A|--------|--------|--------|--------|--------|--------|--------|--------|--------|
E|--------|--------|--------|--------|--------|--------|--------|--------|--------|


G|--------|--------|--------|--------|--------|--------|--------|--------|--------|
D|--------|--------|--------|--------|--------|--------|--------|--------|--------|
A|--------|--------|--------|--------|--------|--------|--------|--------|--------|
E|--------|--------|--------|--------|--------|--------|--------|--------|--------|


G|--------|--------|--------|--------|--------|--------|--------|--------|--------|
D|--------|--------|--------|--------|--------|--------|--------|--------|--------|
A|--------|--------|--------|--------|--------|--------|--------|--------|--------|
E|--------|--------|--------|--------|--------|--------|--------|--------|--------|


G|--------|--------|--------|--------|--------|--------|--------|--------|--------|
D|--------|--------|--------|--------|--------|--------|--------|--------|--------|
A|--------|--------|--------|--------|--------|--------|--------|--------|--------|
E|--------|--------|--------|--------|--------|--------|--------|--------|--------|


G|--------|--------|--------|--------|--------|--------|--------|--------|--------|
D|--------|--------|--------|--------|--------|--------|--------|--------|--------|
A|--------|--------|--------|--------|--------|--------|--------|--------|--------|
E|--------|--------|--------|--------|--------|--------|--------|--------|--------|


G|--------|--------|--------|--------|--------|--------|--------|--------|--------|
D|--------|--------|--------|--------|--------|--------|--------|--------|--------|
A|--------|--------|--------|--------|--------|--------|--------|--------|--------|
E|--------|--------|--------|--------|--------|--------|--------|--------|--------|


G|--------|--------|--------|--------|--------|--------|--------|--------|--------|
D|--------|--------|--------|--------|--------|--------|--------|--------|--------|
A|--------|--------|--------|--------|--------|--------|--------|--------|--------|
E|--------|--------|--------|--------|--------|--------|--------|--------|--------|


G|--------|--------|--------|--------|--------|--------|--------|--------|--------|
D|--------|--------|--------|--------|--------|--------|--------|--------|--------|
A|--------|--------|--------|--------|--------|--------|--------|--------|--------|
E|--------|--------|--------|--------|--------|--------|--------|--------|--------|


G|--------|--------|--------|--------|--------|--------|--------|--------|--------|
D|--------|--------|--------|--------|--------|--------|--------|--------|--------|
A|--------|--------|--------|--------|--------|--------|--------|--------|--------|
E|--------|--------|--------|--------|--------|--------|--------|--------|--------|


G|--------|--------|--------|--------|--------|--------|--------|--------|--------|
D|--------|--------|--------|--------|--------|--------|--------|--------|--------|
A|--------|--------|--------|--------|--------|--------|--------|--------|--------|
E|--------|--------|--------|--------|--------|--------|--------|--------|--------|


G|--------|--------|--------|--------|--------|--------|--------|--------|--------|
D|--------|--------|--------|--------|--------|--------|--------|--------|--------|
A|--------|--------|--------|--------|--------|--------|--------|--------|--------|
E|--------|--------|--------|--------|--------|--------|--------|--------|--------|


G|--------|--------|--------|--------|--------|--------|--------|--------|--------|
D|--------|--------|--------|--------|--------|--------|--------|--------|--------|
A|--------|--------|--------|--------|--------|--------|--------|--------|--------|
E|--------|--------|--------|--------|--------|--------|--------|--------|--------|


G|--------|--------|--------|--------|--------|--------|--------|--------|--------|
D|--------|--------|--------|--------|--------|--------|--------|--------|--------|
A|--------|--------|--------|--------|--------|--------|--------|--------|--------|
E|--------|--------|--------|--------|--------|--------|--------|--------|--------|


G|--------|--------|--------|--------|--------|--------|--------|--------|--------|
D|--------|--------|--------|--------|--------|--------|--------|--------|--------|
A|--------|--------|--------|--------|--------|--------|--------|--------|--------|
E|--------|--------|--------|--------|--------|--------|--------|--------|--------|


G|--------|--------|--------|--------|--------|--------|--------|--------|--------|
D|--------|--------|--------|--------|--------|--------|--------|--------|--------|
A|--------|--------|--------|--------|--------|--------|--------|--------|--------|
E|--------|--------|--------|--------|--------|--------|--------|--------|--------|


G|--------|--------|--------|--------|--------|--------|--------|--------|--------|
D|--------|--------|--------|--------|--------|--------|--------|--------|--------|
A|--------|--------|--------|--------|--------|--------|--------|--------|--------|
E|--------|--------|--------|--------|--------|--------|--------|--------|--------|


G|--------|--------|--------|--------|--------|--------|--------|--------|--------|
D|--------|--------|--------|--------|--------|--------|--------|--------|--------|
A|--------|--------|--------|--------|--------|--------|--------|--------|--------|
E|--------|--------|--------|--------|--------|--------|--------|--------|--------|


G|--------|--------|--------|--------|--------|--------|--------|--------|--------|
D|--------|--------|--------|--------|--------|--------|--------|--------|--------|
A|--------|--------|--------|--------|--------|--------|--------|--------|--------|
E|--------|--------|--------|--------|--------|--------|--------|--------|--------|


G|--------|--------|--------|--------|--------|--------|--------|--------|--------|
D|--------|--------|--------|--------|--------|--------|--------|--------|--------|
A|--------|--------|--------|--------|--------|--------|--------|--------|--------|
E|--------|--------|--------|--------|--------|--------|--------|--------|--------|


G|--------|
D|--------|
A|--------|
E|--------|