Menu:

 

Search:

 

slaughter - eye to eye:

 



Title: Eye To Eye
Artist: 
Album: Stick It To Ya
Author: M.Slaughter/D.Strum


Track 1: Lead Guitar

D|--------|-----22----19-14-19-14-15-19-14-15-14-15-19-14-|-------------------------------------------------------------------------|
A|--------|-----------------------------------------------|-15-19-15-14-15-14-20-12-14-15-14-12-------------------------------------|
F|--------|-----------------------------------------------|-------------------------------------14-16-14-12-11-12-14-12-11-9--------|
C|--------|-----------------------------------------------|-------------------------------------------------------------------12-11-|
G|--------|-----------------------------------------------|-------------------------------------------------------------------------|
D|--------|-----------------------------------------------|-------------------------------------------------------------------------|


D|--------|--------|-12--10------12--10------12--10--|-----12--10------12--10------12--|
A|--------|--------|-12--10--12--12--10--12--12--10--|-12--12--10--12--12--10--12--12--|
F|--------|--------|---------------------------------|---------------------------------|
C|--------|--------|---------12----------12----------|-12----------12----------12------|
G|--------|--------|---------------------------------|---------------------------------|
D|--------|--------|---------------------------------|---------------------------------|


D|-10------12--10------12--10------|--------|--------|--------|--------|--------|--------|
A|-10--12--12--10--12--12--10--12--|--------|--------|--------|--------|--------|--------|
F|---------------------------------|--------|--------|--------|--------|--------|--------|
C|-----12----------12----------12--|--------|--------|--------|--------|--------|--------|
G|---------------------------------|--------|--------|--------|--------|--------|--------|
D|---------------------------------|--------|--------|--------|--------|--------|--------|


D|--------|--------|--------|--------|--------|--------|--------|--------|--------|
A|--------|--------|--------|--------|--------|--------|--------|--------|--------|
F|--------|--------|--------|--------|--------|--------|--------|--------|--------|
C|--------|--------|--------|--------|--------|--------|--------|--------|--------|
G|--------|--------|--------|--------|--------|--------|--------|--------|--------|
D|--------|--------|--------|--------|--------|--------|--------|--------|--------|


D|--------|--------|--------|--------|--------|--------|--------|--------|--------|
A|--------|--------|--------|--------|--------|--------|--------|--------|--------|
F|--------|--------|--------|--------|--------|--------|--------|--------|--------|
C|--------|--------|--------|--------|--------|--------|--------|--------|--------|
G|--------|--------|--------|--------|--------|--------|--------|--------|--------|
D|--------|--------|--------|--------|--------|--------|--------|--------|--------|


D|--------|--------|--------|--------|--------|--------|--------|--------|--------|
A|--------|--------|--------|--------|--------|--------|--------|--------|--------|
F|--------|--------|--------|--------|--------|--------|--------|--------|--------|
C|--------|--------|--------|--------|--------|--------|--------|--------|--------|
G|--------|--------|--------|--------|--------|--------|--------|--------|--------|
D|--------|--------|--------|--------|--------|--------|--------|--------|--------|


D|--------|--------|--------|--------|--------|--------|--------|--------|--------|
A|--------|--------|--------|--------|--------|--------|--------|--------|--------|
F|--------|--------|--------|--------|--------|--------|--------|--------|--------|
C|--------|--------|--------|--------|--------|--------|--------|--------|--------|
G|--------|--------|--------|--------|--------|--------|--------|--------|--------|
D|--------|--------|--------|--------|--------|--------|--------|--------|--------|


D|--------|--------|--------|--------|--------|--------|--------|--------|--------|
A|--------|--------|--------|--------|--------|--------|--------|--------|--------|
F|--------|--------|--------|--------|--------|--------|--------|--------|--------|
C|--------|--------|--------|--------|--------|--------|--------|--------|--------|
G|--------|--------|--------|--------|--------|--------|--------|--------|--------|
D|--------|--------|--------|--------|--------|--------|--------|--------|--------|


D|--------|--------|--------|--------|--------|--------|--------|--------|--------|
A|--------|--------|--------|--------|--------|--------|--------|--------|--------|
F|--------|--------|--------|--------|--------|--------|--------|--------|--------|
C|--------|--------|--------|--------|--------|--------|--------|--------|--------|
G|--------|--------|--------|--------|--------|--------|--------|--------|--------|
D|--------|--------|--------|--------|--------|--------|--------|--------|--------|


D|--------|--------|--------|--------|--------|--------|--------|--------|--------|
A|--------|--------|--------|--------|--------|--------|--------|--------|--------|
F|--------|--------|--------|--------|--------|--------|--------|--------|--------|
C|--------|--------|--------|--------|--------|--------|--------|--------|--------|
G|--------|--------|--------|--------|--------|--------|--------|--------|--------|
D|--------|--------|--------|--------|--------|--------|--------|--------|--------|


D|-------------|---------------------|-----------------|-----------22---22---|------20------------|
A|-------------|-----------12---17---|------29---------|---------------------|--------------------|
F|-------------|---------------------|-----------------|---------------------|----------------14--|
C|-------------|---------------------|-----------------|---------------------|--------------------|
G|-------------|---------------------|-----------------|---------------------|--------------------|
D|-------------|---------------------|-----------------|---------------------|--------------------|


D|--------------------|--------------------|--------|--------|--------|--------|
A|-------22--24--24---|-----24-------------|--------|--------|--------|--------|
F|-16----22--24--24---|---------21---------|--------|--------|--------|--------|
C|--------------------|--------------------|--------|--------|--------|--------|
G|--------------------|--------------------|--------|--------|--------|--------|
D|--------------------|--------------------|--------|--------|--------|--------|





Track 2: Rhytme Guitar 1

D|--------|--------|--------|---------------------------------|---------------------------------|
A|--------|--------|--------|-----8---7-------8---7-------8---|-7-------8---7-------8---7-------|
F|--------|--------|--------|---------------------------------|---------------------------------|
C|--------|--------|--------|-9---5---4---9---5---4---9---5---|-4---9---5---4---9---5---4---9---|
G|--------|--------|--------|-2-----------2-----------2-------|-----2-----------2-----------2---|
D|--------|--------|--------|---------------------------------|---------------------------------|


D|---------------------------------|---------------------------------|---------------------------------|
A|-8---7-------8---7-------8---7---|-----8---7-------8---7-------8---|-7-------8---7-------8---7-------|
F|---------------------------------|---------------------------------|---------------------------------|
C|-5---4---9---5---4---9---5---4---|-9---5---4---9---5---4---9---5---|-4---9---5---4---9---5---4---9---|
G|---------2-----------2-----------|-2-----------2-----------2-------|-----2-----------2-----------2---|
D|---------------------------------|---------------------------------|---------------------------------|


D|---------0------|-0---------------|--------|--------|--------|--------|--------|
A|---------0------|-0---------------|--------|--------|--------|--------|--------|
F|----------------|-----------------|--------|--------|--------|--------|--------|
C|-5---4---2------|-2---------------|--------|--------|--------|--------|--------|
G|-5---4---2------|-2---------------|--------|--------|--------|--------|--------|
D|-3---2---0------|-0---------------|--------|--------|--------|--------|--------|


D|--------|--------|--------|--------|--------|--------|--------|--------|--------|
A|--------|--------|--------|--------|--------|--------|--------|--------|--------|
F|--------|--------|--------|--------|--------|--------|--------|--------|--------|
C|--------|--------|--------|--------|--------|--------|--------|--------|--------|
G|--------|--------|--------|--------|--------|--------|--------|--------|--------|
D|--------|--------|--------|--------|--------|--------|--------|--------|--------|


D|--------|--------|--------|--------|--------|--------|--------|--------|--------|
A|--------|--------|--------|--------|--------|--------|--------|--------|--------|
F|--------|--------|--------|--------|--------|--------|--------|--------|--------|
C|--------|--------|--------|--------|--------|--------|--------|--------|--------|
G|--------|--------|--------|--------|--------|--------|--------|--------|--------|
D|--------|--------|--------|--------|--------|--------|--------|--------|--------|


D|--------|--------|--------|--------|--------|--------|--------|--------|--------|
A|--------|--------|--------|--------|--------|--------|--------|--------|--------|
F|--------|--------|--------|--------|--------|--------|--------|--------|--------|
C|--------|--------|--------|--------|--------|--------|--------|--------|--------|
G|--------|--------|--------|--------|--------|--------|--------|--------|--------|
D|--------|--------|--------|--------|--------|--------|--------|--------|--------|


D|--------|--------|--------|--------|--------|--------|--------|--------|--------|
A|--------|--------|--------|--------|--------|--------|--------|--------|--------|
F|--------|--------|--------|--------|--------|--------|--------|--------|--------|
C|--------|--------|--------|--------|--------|--------|--------|--------|--------|
G|--------|--------|--------|--------|--------|--------|--------|--------|--------|
D|--------|--------|--------|--------|--------|--------|--------|--------|--------|


D|--------|--------|--------|--------|--------|--------|--------|--------|--------|
A|--------|--------|--------|--------|--------|--------|--------|--------|--------|
F|--------|--------|--------|--------|--------|--------|--------|--------|--------|
C|--------|--------|--------|--------|--------|--------|--------|--------|--------|
G|--------|--------|--------|--------|--------|--------|--------|--------|--------|
D|--------|--------|--------|--------|--------|--------|--------|--------|--------|


D|--------|--------|--------|--------|--------|--------|--------|--------|--------|
A|--------|--------|--------|--------|--------|--------|--------|--------|--------|
F|--------|--------|--------|--------|--------|--------|--------|--------|--------|
C|--------|--------|--------|--------|--------|--------|--------|--------|--------|
G|--------|--------|--------|--------|--------|--------|--------|--------|--------|
D|--------|--------|--------|--------|--------|--------|--------|--------|--------|


D|--------|--------|--------|--------|--------|--------|--------|--------|--------7-------|
A|--------|--------|--------|--------|--------|--------|--------|--------|--------0-------|
F|--------|--------|--------|--------|--------|--------|--------|--------|--------9----7--|
C|--------|--------|--------|--------|--------|--------|--------|--------|--------9----7--|
G|--------|--------|--------|--------|--------|--------|--------|--------|--------7----5--|
D|--------|--------|--------|--------|--------|--------|--------|--------|----------------|


D|-----7-----------------------3----|--------7-------|-----7-----------------------3----|
A|-----0-----------------------3----|--------0-------|-----0-----------------------3----|
F|-7---9-----------------------0----|--------9----7--|-7---9-----------------------0----|
C|-7---9-----------------------0----|--------9----7--|-7---9-----------------------0----|
G|-5---7----------------------------|--------7----5--|-5---7----------------------------|
D|---------0--0--0--0--0---0---3----|----------------|---------0--0--0--0--0---0---3----|


D|--------7-------|-----7-----------------------3----|-------3---------|--------|--------|
A|--------0-------|-----0-----------------------3----|-------3---------|--------|--------|
F|--------9----7--|-7---9-----------------------0----|-------0---------|--------|--------|
C|--------9----7--|-7---9-----------------------0----|-------0---------|--------|--------|
G|--------7----5--|-5---7----------------------------|-----------------|--------|--------|
D|----------------|---------0--0--0--0--0---0---3----|-------3---------|--------|--------|


D|--------|--------|
A|--------|--------|
F|--------|--------|
C|--------|--------|
G|--------|--------|
D|--------|--------|





Track 3: Rhytme Guitar 2

D|--------|--------|--------|--------|--------|--------|--------|--------|--------|
A|--------|--------|--------|--------|--------|--------|--------|--------|--------|
F|--------|--------|--------|--------|--------|--------|--------|--------|--------|
C|--------|--------|--------|--------|--------|--------|--------|--------|--------|
G|--------|--------|--------|--------|--------|--------|--------|--------|--------|
D|--------|--------|--------|--------|--------|--------|--------|--------|--------|


D|--------0----|--------0----|-------------------------------|-------------------------------------------------|
A|--------0----|--------0----|-------------------------------|-------------------------------------------------|
F|-------------|-------------|-------------------------------|-------------------------------------------------|
C|--------2----|--------2----|-----------2-------------------|-------------------------------------------------|
G|--------2----|--------2----|-----------2-------------------|-------------------------------------------------|
D|--------0----|--------0----|-----------0-------0--0--0--0--|-0--0--0--0--0--0--0--0--0--0--0--0--0--0--0--0--|


D|-------------------------------------0-------|-----------------------------------------|
A|-------------------------------------0-------|-----------------------------------------|
F|-----------------------------------------9---|-9--7----9---------------------------2---|
C|----------------------0--------------2---9---|-9--7----9------------0--------------2---|
G|-------------0--1--2-----2--0--------2---7---|-7--5----7---0--1--2-----2--0--------0---|
D|-0--0--0--0--------------------3--0--0-------|-------------------------------3--0------|


D|-----------------------------------------|-----------------------------------------|
A|----3------------------------------------|-----------------------------------------|
F|-2--2----2---------------------------9---|-9--7----9---------------------------2---|
C|-2--0----2------------0--------------9---|-9--7----9------------0--------------2---|
G|-0-------0---0--1--2-----2--0--------7---|-7--5----7---0--1--2-----2--0--------0---|
D|-------------------------------3--0------|-------------------------------3--0------|


D|----------------------0----|--------0----|-------------------------------|-------------------------------------------------|
A|----3---------3--3----0----|--------0----|-------------------------------|-------------------------------------------------|
F|-2--2----2----2--2---------|-------------|-------------------------------|-------------------------------------------------|
C|-2--0----2----0--0----2----|--------2----|-----------2-------------------|-------------------------------------------------|
G|-0-------0------------2----|--------2----|-----------2-------------------|-------------------------------------------------|
D|----------------------0----|--------0----|-----------0-------0--0--0--0--|-0--0--0--0--0--0--0--0--0--0--0--0--0--0--0--0--|


D|-------------------------------------0-------|-----------------------------------------|
A|-------------------------------------0-------|-----------------------------------------|
F|-----------------------------------------9---|-9--7----9---------------------------2---|
C|----------------------0--------------2---9---|-9--7----9------------0--------------2---|
G|-------------0--1--2-----2--0--------2---7---|-7--5----7---0--1--2-----2--0--------0---|
D|-0--0--0--0--------------------3--0--0-------|-------------------------------3--0------|


D|-----------------------------------------|-----------------------------------------|
A|----3------------------------------------|-----------------------------------------|
F|-2--2----2---------------------------9---|-9--7----9---------------------------2---|
C|-2--0----2------------0--------------9---|-9--7----9------------0--------------2---|
G|-0-------0---0--1--2-----2--0--------7---|-7--5----7---0--1--2-----2--0--------0---|
D|-------------------------------3--0------|-------------------------------3--0------|


D|------------------------------|-------------------0------------|------------------------------0-----------|
A|----3---------3--3------------|-------------------0------------|------------------------------0-----------|
F|-2--2----2----2--2----4-------|-4------2--2---4--------2---2---|-1--2--1-----1--1---1---1--2------4-------|
C|-2--0----2----0--0----4---4---|-----4------------------2---2---|----------2--2--2---2---2---------4---4---|
G|-0-------0------------2-------|------------------------0-------|----------------------------------2-------|
D|------------------------------|--------------------------------|------------------------------------------|


D|-------------------0------------|------------------------------0-----------|---------0--0-----0-------------------|
A|-------------------0------------|------------------------------0-----------|---------2--2-----2-------------------|
F|-4------2--2---4--------2---2---|-1--2--1-----1--1---1---1--2------2-------|-----2---2--2-----2-----2-------------|
C|-----4------------------2---2---|----------2--2--2---2---2---------2-------|-----2---2--2-----2-----2--2--2--0----|
G|------------------------0-------|----------------------------------0-------|-----0---------------------0--0-------|
D|--------------------------------|---------------------------------------3--|-3-------------------------------3----|


D|-----------------------------------|---------9--9--9--9--9--9--9--------|-----------------------------------|
A|-3-----------------3---------------|---------8--8--8--8--8--8--8--------|-3-----------------3---------------|
F|-2-----------------2---2---2-------|-----2---9--9--9--9--9--9--9--------|-2-----------------2---2---2-------|
C|-0-------------0-------0---2-------|-----2-------------------------0----|-0-------------0-------0---2-------|
G|---------------------------0-------|-----0------------------------------|---------------------------0-------|
D|-----3--2--2--------------------3--|-3-----------------------------3----|-----3--2--2--------------------3--|


D|---------2--2-----2-------------------|-----------------------------------|---------9--9--9--9--9--9--9--------|
A|---------2--2-----2-------------------|-3-----------------3---------------|---------8--8--8--8--8--8--8--------|
F|-----2---2--2-----2-----2-------------|-2-----------------2---2---2-------|-----2---9--9--9--9--9--9--9--------|
C|-----2---2--2-----2-----2--2--2--0----|-0-------------0-------0---2-------|-----2-------------------------0----|
G|-----0---------------------0--0-------|---------------------------0-------|-----0------------------------------|
D|-3-------------------------------3----|-----3--2--2--------------------3--|-3-----------------------------3----|


D|-------------------------------------------|-----------------------------------------|
A|-3-----------------------------------------|-----------------------------------------|
F|-2-------------------------------------9---|-9--7----9---------------------------2---|
C|-0----------------------0--------------9---|-9--7----9------------0--------------2---|
G|---------------0--1--2-----2--0--------7---|-7--5----7---0--1--2-----2--0--------0---|
D|-----3--2--2---------------------3--0------|-------------------------------3--0------|


D|-----------------------------------------|-----------------------------------------|
A|----3------------------------------------|-----------------------------------------|
F|-2--2----2---------------------------9---|-9--7----9---------------------------2---|
C|-2--0----2------------0--------------9---|-9--7----9------------0--------------2---|
G|-0-------0---0--1--2-----2--0--------7---|-7--5----7---0--1--2-----2--0--------0---|
D|-------------------------------3--0------|-------------------------------3--0------|


D|-------------------------0----|--------0----|-------------------------------|-------------------------------------------------|
A|----3---------3--3-------0----|--------0----|-------------------------------|-------------------------------------------------|
F|-2--2----2----2--2---2--------|-------------|-------------------------------|-------------------------------------------------|
C|-2--0----2----0--0---2---2----|--------2----|-----------2-------------------|-------------------------------------------------|
G|-0-------0-----------0---2----|--------2----|-----------2-------------------|-------------------------------------------------|
D|-------------------------0----|--------0----|-----------0-------0--0--0--0--|-0--0--0--0--0--0--0--0--0--0--0--0--0--0--0--0--|


D|-------------------------------------0-------|-----------------------------------------|
A|-------------------------------------0-------|-----------------------------------------|
F|-----------------------------------------9---|-9--7----9---------------------------2---|
C|----------------------0--------------2---9---|-9--7----9------------0--------------2---|
G|-------------0--1--2-----2--0--------2---7---|-7--5----7---0--1--2-----2--0--------0---|
D|-0--0--0--0--------------------3--0--0-------|-------------------------------3--0------|


D|-----------------------------------------|-----------------------------------------|
A|----3------------------------------------|-----------------------------------------|
F|-2--2----2---------------------------9---|-9--7----9---------------------------2---|
C|-2--0----2------------0--------------9---|-9--7----9------------0--------------2---|
G|-0-------0---0--1--2-----2--0--------7---|-7--5----7---0--1--2-----2--0--------0---|
D|-------------------------------3--0------|-------------------------------3--0------|


D|----------------------0----|--------0----|-------------------------------|-------------------------------------------------|
A|----3---------3--3----0----|--------0----|-------------------------------|-------------------------------------------------|
F|-2--2----2----2--2---------|-------------|-------------------------------|-------------------------------------------------|
C|-2--0----2----0--0----2----|--------2----|-----------2-------------------|-------------------------------------------------|
G|-0-------0------------2----|--------2----|-----------2-------------------|-------------------------------------------------|
D|----------------------0----|--------0----|-----------0-------0--0--0--0--|-0--0--0--0--0--0--0--0--0--0--0--0--0--0--0--0--|


D|-------------------------------------0-------|-----------------------------------------|
A|-------------------------------------0-------|-----------------------------------------|
F|-----------------------------------------9---|-9--7----9---------------------------2---|
C|----------------------0--------------2---9---|-9--7----9------------0--------------2---|
G|-------------0--1--2-----2--0--------2---7---|-7--5----7---0--1--2-----2--0--------0---|
D|-0--0--0--0--------------------3--0--0-------|-------------------------------3--0------|


D|-----------------------------------------|-----------------------------------------|
A|----3------------------------------------|-----------------------------------------|
F|-2--2----2---------------------------9---|-9--7----9---------------------------2---|
C|-2--0----2------------0--------------9---|-9--7----9------------0--------------2---|
G|-0-------0---0--1--2-----2--0--------7---|-7--5----7---0--1--2-----2--0--------0---|
D|-------------------------------3--0------|-------------------------------3--0------|


D|------------------------------|-------------------0------------|------------------------------0-----------|
A|----3---------3--3------------|-------------------0------------|------------------------------0-----------|
F|-2--2----2----2--2----4-------|-4------2--2---4--------2---2---|-1--2--1-----1--1---1---1--2------4-------|
C|-2--0----2----0--0----4---4---|-----4------------------2---2---|----------2--2--2---2---2---------4---4---|
G|-0-------0------------2-------|------------------------0-------|----------------------------------2-------|
D|------------------------------|--------------------------------|------------------------------------------|


D|-------------------0------------|------------------------------0-----------|---------0--0-----0-------------------|
A|-------------------0------------|------------------------------0-----------|---------2--2-----2-------------------|
F|-4------2--2---4--------2---2---|-1--2--1-----1--1---1---1--2------2-------|-----2---2--2-----2-----2-------------|
C|-----4------------------2---2---|----------2--2--2---2---2---------2-------|-----2---2--2-----2-----2--2--2--0----|
G|------------------------0-------|----------------------------------0-------|-----0---------------------0--0-------|
D|--------------------------------|---------------------------------------3--|-3-------------------------------3----|


D|-----------------------------------|---------9--9--9--9--9--9--9--------|-----------------------------------|
A|-3-----------------3---------------|---------8--8--8--8--8--8--8--------|-3-----------------3---------------|
F|-2-----------------2---2---2-------|-----2---9--9--9--9--9--9--9--------|-2-----------------2---2---2-------|
C|-0-------------0-------0---2-------|-----2-------------------------0----|-0-------------0-------0---2-------|
G|---------------------------0-------|-----0------------------------------|---------------------------0-------|
D|-----3--2--2--------------------3--|-3-----------------------------3----|-----3--2--2--------------------3--|


D|---------2--2-----2-------------------|-----------------------------------|---------9--9--9--9--9--9--9--------|
A|---------2--2-----2-------------------|-3-----------------3---------------|---------8--8--8--8--8--8--8--------|
F|-----2---2--2-----2-----2-------------|-2-----------------2---2---2-------|-----2---9--9--9--9--9--9--9--------|
C|-----2---2--2-----2-----2--2--2--0----|-0-------------0-------0---2-------|-----2-------------------------0----|
G|-----0---------------------0--0-------|---------------------------0-------|-----0------------------------------|
D|-3-------------------------------3----|-----3--2--2--------------------3--|-3-----------------------------3----|


D|-------------------------------------------|-----------------------------------------|
A|-3-----------------------------------------|-----------------------------------------|
F|-2-------------------------------------9---|-9--7----9---------------------------2---|
C|-0----------------------0--------------9---|-9--7----9------------0--------------2---|
G|---------------0--1--2-----2--0--------7---|-7--5----7---0--1--2-----2--0--------0---|
D|-----3--2--2---------------------3--0------|-------------------------------3--0------|


D|-----------------------------------------|-----------------------------------------|
A|----3------------------------------------|-----------------------------------------|
F|-2--2----2---------------------------9---|-9--7----9---------------------------2---|
C|-2--0----2------------0--------------9---|-9--7----9------------0--------------2---|
G|-0-------0---0--1--2-----2--0--------7---|-7--5----7---0--1--2-----2--0--------0---|
D|-------------------------------3--0------|-------------------------------3--0------|


D|------------------------------|-------------|-------------|-----------------|-------------|
A|----3---------3--3-------12---|--------12---|-------------|-----------------|-------------|
F|-2--2----2----2--2---2--------|-------------|-------------|-----------------|-------------|
C|-2--0----2----0--0---2--------|-------------|-------------|-----------------|-------------|
G|-0-------0-----------0--------|-------------|-------------|-----------------|-------------|
D|------------------------------|-------------|--------24---|-19--------------|-------------|


D|---------------------------------|-------------|-----------------------------|-------------|
A|----------------------------5----|-------------|-----------------------------|-------------|
F|------------5------------5-------|-------------|------------5----------------|-------------|
C|---------5------------5----------|-------------|---------5-------------------|-------------|
G|------5--------------------------|-------------|------5----------------------|-------------|
D|---------------3--2--------------|-------------|----------------3---2---2----|-------------|


D|----------------------------5----|------------------------|---------------------------------------------|
A|-------------------5-----5-------|------------------------|---------------------------------------------|
F|----------------5-----5----------|---------------------0--|------------------------------------------0--|
C|-------------5-------------------|------------0--1--2-----|-2--0----------------------------0--1--2-----|
G|----------5----------------------|------------------------|-------3--0--5--0--0--5--5---3---------------|
D|---------------------------------|------------------------|---------------------------------------------|


D|----------------------------------------|---------------------------------------------|
A|----------------------------------------|---------------------------------------------|
F|-------------------------------------0--|------------------------------------------0--|
C|-2--0-----------------------0--1--2-----|-2--0----------------------------0--1--2-----|
G|-------3--0--5--3---3-------------------|-------3--0--5--0--0--5--5---3---------------|
D|----------------------------------------|---------------------------------------------|


D|---------------------------------|
A|---------------------------------|
F|-----------------------2---------|
C|-2--0------------------2---------|
G|-------3--0--5--3---3--0---------|
D|---------------------------------|





Track 4: Rhytme Guitar 2

D|--------|--------|--------|--------|--------|--------|--------|--------|--------|
A|--------|--------|--------|--------|--------|--------|--------|--------|--------|
F|--------|--------|--------|--------|--------|--------|--------|--------|--------|
C|--------|--------|--------|--------|--------|--------|--------|--------|--------|
G|--------|--------|--------|--------|--------|--------|--------|--------|--------|
D|--------|--------|--------|--------|--------|--------|--------|--------|--------|


D|--------|--------|--------|--------|--------|--------|--------|--------|--------|
A|--------|--------|--------|--------|--------|--------|--------|--------|--------|
F|--------|--------|--------|--------|--------|--------|--------|--------|--------|
C|--------|--------|--------|--------|--------|--------|--------|--------|--------|
G|--------|--------|--------|--------|--------|--------|--------|--------|--------|
D|--------|--------|--------|--------|--------|--------|--------|--------|--------|


D|--------|--------|--------|--------|--------|--------|--------|--------|--------|
A|--------|--------|--------|--------|--------|--------|--------|--------|--------|
F|--------|--------|--------|--------|--------|--------|--------|--------|--------|
C|--------|--------|--------|--------|--------|--------|--------|--------|--------|
G|--------|--------|--------|--------|--------|--------|--------|--------|--------|
D|--------|--------|--------|--------|--------|--------|--------|--------|--------|


D|--------|--------|--------|--------|--------|--------|--------|--------|--------|
A|--------|--------|--------|--------|--------|--------|--------|--------|--------|
F|--------|--------|--------|--------|--------|--------|--------|--------|--------|
C|--------|--------|--------|--------|--------|--------|--------|--------|--------|
G|--------|--------|--------|--------|--------|--------|--------|--------|--------|
D|--------|--------|--------|--------|--------|--------|--------|--------|--------|


D|--------|--------|--------|--------|--------|--------|--------|--------|--------|
A|--------|--------|--------|--------|--------|--------|--------|--------|--------|
F|--------|--------|--------|--------|--------|--------|--------|--------|--------|
C|--------|--------|--------|--------|--------|--------|--------|--------|--------|
G|--------|--------|--------|--------|--------|--------|--------|--------|--------|
D|--------|--------|--------|--------|--------|--------|--------|--------|--------|


D|--------|--------|--------|--------|--------|--------|--------|--------|--------|
A|--------|--------|--------|--------|--------|--------|--------|--------|--------|
F|--------|--------|--------|--------|--------|--------|--------|--------|--------|
C|--------|--------|--------|--------|--------|--------|--------|--------|--------|
G|--------|--------|--------|--------|--------|--------|--------|--------|--------|
D|--------|--------|--------|--------|--------|--------|--------|--------|--------|


D|--------|--------|--------|--------|--------|--------|--------|--------|--------|
A|--------|--------|--------|--------|--------|--------|--------|--------|--------|
F|--------|--------|--------|--------|--------|--------|--------|--------|--------|
C|--------|--------|--------|--------|--------|--------|--------|--------|--------|
G|--------|--------|--------|--------|--------|--------|--------|--------|--------|
D|--------|--------|--------|--------|--------|--------|--------|--------|--------|


D|--------|--------|--------|--------|--------|--------|--------|--------|--------|
A|--------|--------|--------|--------|--------|--------|--------|--------|--------|
F|--------|--------|--------|--------|--------|--------|--------|--------|--------|
C|--------|--------|--------|--------|--------|--------|--------|--------|--------|
G|--------|--------|--------|--------|--------|--------|--------|--------|--------|
D|--------|--------|--------|--------|--------|--------|--------|--------|--------|


D|--------|--------0----|--------0----|------------7-------|-----7-----------------------3----|
A|--------|--------0----|--------0----|------------0-------|-----0-----------------------3----|
F|--------|-------------|-------------|------------9----7--|-7---9-----------------------0----|
C|--------|--------2----|--------2----|------------9----7--|-7---9-----------------------0----|
G|--------|--------2----|--------2----|------------7----5--|-5---7----------------------------|
D|--------|--------0----|--------0----|------------0-------|-----0---0--0--0--0--0---0---3----|


D|--------|--------|--------|--------|--------|--------|--------|--------|--------|
A|--------|--------|--------|--------|--------|--------|--------|--------|--------|
F|--------|--------|--------|--------|--------|--------|--------|--------|--------|
C|--------|--------|--------|--------|--------|--------|--------|--------|--------|
G|--------|--------|--------|--------|--------|--------|--------|--------|--------|
D|--------|--------|--------|--------|--------|--------|--------|--------|--------|


D|--------|--------|
A|--------|--------|
F|--------|--------|
C|--------|--------|
G|--------|--------|
D|--------|--------|





Track 5: Untitled

G|--------|--------|--------|--------|--------|--------|--------|--------|--------|
D|--------|--------|--------|--------|--------|--------|--------|--------|--------|
A|--------|--------|--------|--------|--------|--------|--------|--------|--------|
E|--------|--------|--------|--------|--------|--------|--------|--------|--------|


G|--------|--------|--------|--------|--------|--------|--------|--------|--------|
D|--------|--------|--------|--------|--------|--------|--------|--------|--------|
A|--------|--------|--------|--------|--------|--------|--------|--------|--------|
E|--------|--------|--------|--------|--------|--------|--------|--------|--------|


G|--------|--------|--------|--------|--------|--------|--------|--------|--------|
D|--------|--------|--------|--------|--------|--------|--------|--------|--------|
A|--------|--------|--------|--------|--------|--------|--------|--------|--------|
E|--------|--------|--------|--------|--------|--------|--------|--------|--------|


G|--------|--------|--------|--------|--------|--------|--------|--------|--------|
D|--------|--------|--------|--------|--------|--------|--------|--------|--------|
A|--------|--------|--------|--------|--------|--------|--------|--------|--------|
E|--------|--------|--------|--------|--------|--------|--------|--------|--------|


G|--------|--------|--------|--------|--------|--------|--------|--------|--------|
D|--------|--------|--------|--------|--------|--------|--------|--------|--------|
A|--------|--------|--------|--------|--------|--------|--------|--------|--------|
E|--------|--------|--------|--------|--------|--------|--------|--------|--------|


G|--------|--------|--------|--------|--------|--------|--------|--------|--------|
D|--------|--------|--------|--------|--------|--------|--------|--------|--------|
A|--------|--------|--------|--------|--------|--------|--------|--------|--------|
E|--------|--------|--------|--------|--------|--------|--------|--------|--------|


G|--------|--------|--------|--------|--------|--------|--------|--------|--------|
D|--------|--------|--------|--------|--------|--------|--------|--------|--------|
A|--------|--------|--------|--------|--------|--------|--------|--------|--------|
E|--------|--------|--------|--------|--------|--------|--------|--------|--------|


G|--------|--------|--------|--------|--------|--------|--------|--------|--------|
D|--------|--------|--------|--------|--------|--------|--------|--------|--------|
A|--------|--------|--------|--------|--------|--------|--------|--------|--------|
E|--------|--------|--------|--------|--------|--------|--------|--------|--------|


G|--------|--------|--------|--------|--------|--------|--------|--------|--------|
D|--------|--------|--------|--------|--------|--------|--------|--------|--------|
A|--------|--------|--------|--------|--------|--------|--------|--------|--------|
E|--------|--------|--------|--------|--------|--------|--------|--------|--------|


G|--------|--------|--------|--------|--------|--------|--------|
D|--------|--------|--------|--------|--------|--------|--------|
A|--------|--------|--------|--------|--------|--------|--------|
E|--------|--------|--------|--------|--------|--------|--------|