Menu:

 

Search:

 

slaughter - desparately:

 



Title: Desperately
Artist: 
Album: Stick It To Ya
Author: M.Slaughter/D.Strum


Track 1: Rhytm Guitar

D|-----------------9------------|--------------------------|---------------------------------|
A|-----9---9---9---9--------10--|-10---9----9--------------|-----9---9---9---9---9-------10--|
F|-----11--11--11--11-------9---|-9----9----9--------------|-----11--11--11--11--9-------9---|
C|-----11--11--11--11-------7---|-7----9----9--------------|-----11--11--11--11--11------7---|
G|-----9---9---9---9--------7---|-7----7----7----------7---|-----9---9---9---9---9-------7---|
D|------------------------------|----------------7--9------|---------------------------------|


D|------------------------------|-----------------9------------|--------------------------|
A|-10--12------12--12-----------|-----9---9---9---9--------10--|-10---9----9--------------|
F|-9---11------11--11--9---9----|-----11--11--11--11-------9---|-9----9----9--------------|
C|-7---9-------9---9---9---9----|-----11--11--11--11-------7---|-7----9----9--------------|
G|-7---9-------9---9------------|-----9---9---9---9--------7---|-7----7----7----------7---|
D|------------------------------|------------------------------|----------------7--9------|


D|---------------------------------|------------------------------|------------------------------|
A|-----9---9---9---9---9-------10--|-10--12------12--12-----------|-----9---9---9---9--------10--|
F|-----11--11--11--11--9-------9---|-9---11------11--11--9---9----|-----11--11--9---9--------9---|
C|-----11--11--11--11--11------7---|-7---9-------9---9---9---9----|-----11--11--11--11-------7---|
G|-----9---9---9---9---9-------7---|-7---9-------9---9------------|-----9---9---9---9--------7---|
D|---------------------------------|------------------------------|------------------------------|


D|----------------------|---------------------------------|------------------------------|
A|-10---9---------------|-----9---9---9---9---9-------10--|-10--12------12--12-----------|
F|-9----9---------------|-----11--11--11--11--9-------9---|-9---11------11--11--9---9----|
C|-7----9---------------|-----11--11--11--11--11------7---|-7---9-------9---9---9---9----|
G|-7----7-----------7---|-----9---9---9---9---9-------7---|-7---9-------9---9------------|
D|------------7--9------|---------------------------------|------------------------------|


D|------------------------------|----------------------|-------------2---2---------------|
A|-----9---9---9---9--------10--|-10---9---------------|---------3-----------3-----------|
F|-----11--11--9---9--------9---|-9----9---------------|-------------------------2-------|
C|-----11--11--11--11-------7---|-7----9---------------|-----4-----------------------4---|
G|-----9---9---9---9--------7---|-7----7-----------7---|-2-------------------------------|
D|------------------------------|------------7--9------|---------------------------------|


D|-------------4---4---------------|-------------2---2---------------|-------------4---4---------------|
A|---------5-----------5-----------|---------3-----------3-----------|---------5-----------5-----------|
F|-----4-------------------4-------|-----2-------------------2-------|-----4-------------------4-------|
C|-----------------------------7---|-----------------------------4---|-2---------------------------2---|
G|-4-------------------------------|-5-------------------------------|---------------------------------|
D|---------------------------------|---------------------------------|---------------------------------|


D|-------------2---2---------------|-------------4---4---------------|-------------2---2---------------|
A|---------3-----------3-----------|---------5-----------5-----------|---------3-----------3-----------|
F|-------------------------2-------|-----4-------------------4-------|-----2-------------------2-------|
C|-----4-----------------------4---|-----------------------------6---|-----------------------------4---|
G|-2-------------------------------|-4-------------------------------|-5-------------------------------|
D|---------------------------------|---------------------------------|---------------------------------|


D|------------------------------|--------|--------|--------|--------|--------|--------|
A|-------------9---9------------|--------|--------|--------|--------|--------|--------|
F|---------9-----------9--------|--------|--------|--------|--------|--------|--------|
C|-----9-------------------9----|--------|--------|--------|--------|--------|--------|
G|-7----------------------------|--------|--------|--------|--------|--------|--------|
D|------------------------------|--------|--------|--------|--------|--------|--------|


D|--------|--------|----------------------|----------------------|-----------------|
A|--------|--------|-10----10---10---9----|-7----9---------------|-----------------|
F|--------|--------|----------------------|-----------9----------|-----------------|
C|--------|--------|----------------------|----------------9-----|-9---------------|
G|--------|--------|----------------------|----------------------|-----------------|
D|--------|--------|----------------------|----------------------|-----------------|


D|----------------------|---------------------------------|--------|------------------------------|
A|-10---9---------------|-----9---9---9---9---9-------10--|--------|-----9---9---9---9--------10--|
F|-9----9---------------|-----11--11--11--11--9-------9---|--------|-----11--11--9---9--------9---|
C|-7----9---------------|-----11--11--11--11--11------7---|--------|-----11--11--11--11-------7---|
G|-7----7-----------7---|-----9---9---9---9---9-------7---|--------|-----9---9---9---9--------7---|
D|------------7--9------|---------------------------------|-2------|------------------------------|


D|----------------------|---------------------------------|------------------------------|
A|-10---9---------------|-----9---9---9---9---9-------10--|-10--12------12--12-----------|
F|-9----9---------------|-----11--11--11--11--9-------9---|-9---11------11--11--9---9----|
C|-7----9---------------|-----11--11--11--11--11------7---|-7---9-------9---9---9---9----|
G|-7----7-----------7---|-----9---9---9---9---9-------7---|-7---9-------9---9------------|
D|------------7--9------|---------------------------------|------------------------------|


D|------------------------------|----------------------|-------------2---2---------------|
A|-----9---9---9---9--------10--|-10---9---------------|---------3-----------3-----------|
F|-----11--11--9---9--------9---|-9----9---------------|-------------------------2-------|
C|-----11--11--11--11-------7---|-7----9---------------|-----4-----------------------4---|
G|-----9---9---9---9--------7---|-7----7-----------7---|-2-------------------------------|
D|------------------------------|------------7--9------|---------------------------------|


D|-------------4---4---------------|-------------2---2---------------|-------------4---4---------------|
A|---------5-----------5-----------|---------3-----------3-----------|---------5-----------5-----------|
F|-----4-------------------4-------|-----2-------------------2-------|-----4-------------------4-------|
C|-----------------------------7---|-----------------------------4---|-2---------------------------2---|
G|-4-------------------------------|-5-------------------------------|---------------------------------|
D|---------------------------------|---------------------------------|---------------------------------|


D|-------------2---2---------------|-------------4---4---------------|-------------2---2---------------|
A|---------3-----------3-----------|---------5-----------5-----------|---------3-----------3-----------|
F|-------------------------2-------|-----4-------------------4-------|-----2-------------------2-------|
C|-----4-----------------------4---|-----------------------------6---|-----------------------------4---|
G|-2-------------------------------|-4-------------------------------|-5-------------------------------|
D|---------------------------------|---------------------------------|---------------------------------|


D|------------------------------|--------|--------|--------|--------|--------|--------|
A|-------------9---9------------|--------|--------|--------|--------|--------|--------|
F|---------9-----------9--------|--------|--------|--------|--------|--------|--------|
C|-----9-------------------9----|--------|--------|--------|--------|--------|--------|
G|-7----------------------------|--------|--------|--------|--------|--------|--------|
D|------------------------------|--------|--------|--------|--------|--------|--------|


D|--------|--------|----------------------|----------------------|-----------------|
A|--------|--------|-10----10---10---9----|-7----9---------------|-----------------|
F|--------|--------|----------------------|-----------9----------|-----------------|
C|--------|--------|----------------------|----------------9-----|-9---------------|
G|--------|--------|----------------------|----------------------|-----------------|
D|--------|--------|----------------------|----------------------|-----------------|


D|----------------------|---------------------------------|--------|----------------------|
A|-10---9---------------|-----9---9---9---9---9-------10--|--------|-10----10---10---9----|
F|-9----9---------------|-----11--11--11--11--9-------9---|--------|----------------------|
C|-7----9---------------|-----11--11--11--11--11------7---|--------|----------------------|
G|-7----7-----------7---|-----9---9---9---9---9-------7---|--------|----------------------|
D|------------7--9------|---------------------------------|-2------|----------------------|


D|----------------------|------------------------------|------------------------------|
A|-7----9---------------|------------------------------|------------------------------|
F|-----------9----------|------4---3---4---3-----------|------4---3---4---3-----------|
C|----------------9-----|-6--------------------6---4---|-4--------------------6---3---|
G|----------------------|------2---1---2---1-----------|------2---1---2---1-----------|
D|----------------------|-4--------------------4---2---|-2--------------------4---1---|


D|------------------------------|------------------------------|------------------------------|
A|--------------------------5---|-5---4---5---4---5---5---7----|------------------------------|
F|------4---3---4---3-----------|------------------------------|------4---3---4---3-----------|
C|-3--------------------6---2---|-2---1---2---1---2---2---4----|-6--------------------6---4---|
G|------2---1---2---1-----------|------------------------------|------2---1---2---1-----------|
D|-1--------------------4-------|------------------------------|-4--------------------4---2---|


D|------------------------------|---------------------|---------------------|--------|
A|------------------------------|---------------------|---------------------|--------|
F|------4---3---4---3-----------|---------------------|---------------------|--------|
C|-4--------------------6---4---|-6-----7---7----8----|-8---9-----10---11---|--------|
G|------2---1---2---1-----------|---------------------|---------------------|--------|
D|-2--------------------4---2---|-4-----5---5----6----|-6---7-----8----9----|--------|


D|--------|--------|--------|--------|--------|--------|--------|--------|--------|
A|--------|--------|--------|--------|--------|--------|--------|--------|--------|
F|--------|--------|--------|--------|--------|--------|--------|--------|--------|
C|--------|--------|--------|--------|--------|--------|--------|--------|--------|
G|--------|--------|--------|--------|--------|--------|--------|--------|--------|
D|--------|--------|--------|--------|--------|--------|--------|--------|--------|


D|--------|--------|--------|--------|--------|--------|--------|--------|--------|
A|--------|--------|--------|--------|--------|--------|--------|--------|--------|
F|--------|--------|--------|--------|--------|--------|--------|--------|--------|
C|--------|--------|--------|--------|--------|--------|--------|--------|--------|
G|--------|--------|--------|--------|--------|--------|--------|--------|--------|
D|--------|--------|--------|--------|--------|--------|--------|--------|--------|


D|--------|--------|--------|--------|--------|--------|--------|--------|--------|
A|--------|--------|--------|--------|--------|--------|--------|--------|--------|
F|--------|--------|--------|--------|--------|--------|--------|--------|--------|
C|--------|--------|--------|--------|--------|--------|--------|--------|--------|
G|--------|--------|--------|--------|--------|--------|--------|--------|--------|
D|--------|--------|--------|--------|--------|--------|--------|--------|--------|


D|--------|--------|--------|--------|--------|
A|--------|--------|--------|--------|--------|
F|--------|--------|--------|--------|--------|
C|--------|--------|--------|--------|--------|
G|--------|--------|--------|--------|--------|
D|--------|--------|--------|--------|--------|





Track 2: Rhytm Guitar 2

D|--------|--------|--------|--------|--------|--------|--------|--------|--------|
A|--------|--------|--------|--------|--------|--------|--------|--------|--------|
F|--------|--------|--------|--------|--------|--------|--------|--------|--------|
C|--------|--------|--------|--------|--------|--------|--------|--------|--------|
G|--------|--------|--------|--------|--------|--------|--------|--------|--------|
D|--------|--------|--------|--------|--------|--------|--------|--------|--------|


D|--------|--------|--------|--------|--------|---------------------------------|---------------------------------|
A|--------|--------|--------|--------|--------|---------------------------------|---------------------------------|
F|--------|--------|--------|--------|--------|---------------------------------|---------------------------------|
C|--------|--------|--------|--------|--------|---------------------------------|---------------------------------|
G|--------|--------|--------|--------|--------|-2---2---2---------------2-------|-4---4---4---------------4-------|
D|--------|--------|--------|--------|--------|-------------2---2---2-------2---|-------------4---4---4-------4---|


D|---------------------------------|---------------------------------|---------------------------------|
A|---------------------------------|---------------------------------|---------------------------------|
F|---------------------------------|---------------------------------|---------------------------------|
C|---------------------------------|---------------------------------|-4---4---4-----------4---4---4---|
G|-5---5---5---------------5-------|-7---7---7---------------7-------|-------------2---2---------------|
D|-------------5---5---5-------5---|-------------7---7---7-------7---|---------------------------------|


D|---------------------------------|-----------------------------------|---------------------------------|
A|---------------------------------|-----------------------------------|---------------------------------|
F|---------------------------------|-----------------------------------|---------------------------------|
C|-6---6---6-----------6---6---6---|-7---7---7-----------7---7---------|-9---9---9---9---9---9---9---11--|
G|-------------4---4---------------|-------------5---5-----------5--7--|-7---7---7---7---7---7---7---9---|
D|---------------------------------|-----------------------------------|---------------------------------|


D|--------|--------|--------|--------|--------|--------|--------|--------|--------|
A|--------|--------|--------|--------|--------|--------|--------|--------|--------|
F|--------|--------|--------|--------|--------|--------|--------|--------|--------|
C|--------|--------|--------|--------|--------|--------|--------|--------|--------|
G|--------|--------|--------|--------|--------|--------|--------|--------|--------|
D|--------|--------|--------|--------|--------|--------|--------|--------|--------|


D|--------|--------|--------|--------|--------|--------|--------|--------|--------|
A|--------|--------|--------|--------|--------|--------|--------|--------|--------|
F|--------|--------|--------|--------|--------|--------|--------|--------|--------|
C|--------|--------|--------|--------|--------|--------|--------|--------|--------|
G|--------|--------|--------|--------|--------|--------|--------|--------|--------|
D|--------|--------|--------|--------|--------|--------|--------|--------|--------|


D|--------|--------|---------------------------------|---------------------------------|
A|--------|--------|---------------------------------|---------------------------------|
F|--------|--------|---------------------------------|---------------------------------|
C|--------|--------|---------------------------------|---------------------------------|
G|--------|--------|-2---2---2---------------2-------|-4---4---4---------------4-------|
D|--------|--------|-------------2---2---2-------2---|-------------4---4---4-------4---|


D|---------------------------------|---------------------------------|---------------------------------|
A|---------------------------------|---------------------------------|---------------------------------|
F|---------------------------------|---------------------------------|---------------------------------|
C|---------------------------------|---------------------------------|-4---4---4-----------4---4---4---|
G|-5---5---5---------------5-------|-7---7---7---------------7-------|-------------2---2---------------|
D|-------------5---5---5-------5---|-------------7---7---7-------7---|---------------------------------|


D|---------------------------------|-----------------------------------|---------------------------------|
A|---------------------------------|-----------------------------------|---------------------------------|
F|---------------------------------|-----------------------------------|---------------------------------|
C|-6---6---6-----------6---6---6---|-7---7---7-----------7---7---------|-9---9---9---9---9---9---9---11--|
G|-------------4---4---------------|-------------5---5-----------5--7--|-7---7---7---7---7---7---7---9---|
D|---------------------------------|-----------------------------------|---------------------------------|


D|--------|--------|--------|--------|--------|--------|--------|--------|--------|
A|--------|--------|--------|--------|--------|--------|--------|--------|--------|
F|--------|--------|--------|--------|--------|--------|--------|--------|--------|
C|--------|--------|--------|--------|--------|--------|--------|--------|--------|
G|--------|--------|--------|--------|--------|--------|--------|--------|--------|
D|--------|--------|--------|--------|--------|--------|--------|--------|--------|


D|--------|--------|--------|--------|--------|--------|--------|--------|--------|
A|--------|--------|--------|--------|--------|--------|--------|--------|--------|
F|--------|--------|--------|--------|--------|--------|--------|--------|--------|
C|--------|--------|--------|--------|--------|--------|--------|--------|--------|
G|--------|--------|--------|--------|--------|--------|--------|--------|--------|
D|--------|--------|--------|--------|--------|--------|--------|--------|--------|


D|--------|--------|--------|--------|--------|--------|--------|--------|--------|
A|--------|--------|--------|--------|--------|--------|--------|--------|--------|
F|--------|--------|--------|--------|--------|--------|--------|--------|--------|
C|--------|--------|--------|--------|--------|--------|--------|--------|--------|
G|--------|--------|--------|--------|--------|--------|--------|--------|--------|
D|--------|--------|--------|--------|--------|--------|--------|--------|--------|


D|--------|--------|--------|--------|--------|--------|--------|--------|--------|
A|--------|--------|--------|--------|--------|--------|--------|--------|--------|
F|--------|--------|--------|--------|--------|--------|--------|--------|--------|
C|--------|--------|--------|--------|--------|--------|--------|--------|--------|
G|--------|--------|--------|--------|--------|--------|--------|--------|--------|
D|--------|--------|--------|--------|--------|--------|--------|--------|--------|


D|--------|--------|--------|--------|--------|--------|--------|--------|--------|
A|--------|--------|--------|--------|--------|--------|--------|--------|--------|
F|--------|--------|--------|--------|--------|--------|--------|--------|--------|
C|--------|--------|--------|--------|--------|--------|--------|--------|--------|
G|--------|--------|--------|--------|--------|--------|--------|--------|--------|
D|--------|--------|--------|--------|--------|--------|--------|--------|--------|


D|--------|--------|--------|--------|--------|--------|--------|--------|--------|
A|--------|--------|--------|--------|--------|--------|--------|--------|--------|
F|--------|--------|--------|--------|--------|--------|--------|--------|--------|
C|--------|--------|--------|--------|--------|--------|--------|--------|--------|
G|--------|--------|--------|--------|--------|--------|--------|--------|--------|
D|--------|--------|--------|--------|--------|--------|--------|--------|--------|


D|--------|--------|--------|
A|--------|--------|--------|
F|--------|--------|--------|
C|--------|--------|--------|
G|--------|--------|--------|
D|--------|--------|--------|





Track 3: Lead Guitar

D|--------|--------|--------|--------|--------|--------|--------|--------|--------|
A|--------|--------|--------|--------|--------|--------|--------|--------|--------|
F|--------|--------|--------|--------|--------|--------|--------|--------|--------|
C|--------|--------|--------|--------|--------|--------|--------|--------|--------|
G|--------|--------|--------|--------|--------|--------|--------|--------|--------|
D|--------|--------|--------|--------|--------|--------|--------|--------|--------|


D|--------|--------|--------|--------|--------|--------|--------|--------|--------|
A|--------|--------|--------|--------|--------|--------|--------|--------|--------|
F|--------|--------|--------|--------|--------|--------|--------|--------|--------|
C|--------|--------|--------|--------|--------|--------|--------|--------|--------|
G|--------|--------|--------|--------|--------|--------|--------|--------|--------|
D|--------|--------|--------|--------|--------|--------|--------|--------|--------|


D|--------|--------|--------|--------|--------|--------|--------|--------|--------|
A|--------|--------|--------|--------|--------|--------|--------|--------|--------|
F|--------|--------|--------|--------|--------|--------|--------|--------|--------|
C|--------|--------|--------|--------|--------|--------|--------|--------|--------|
G|--------|--------|--------|--------|--------|--------|--------|--------|--------|
D|--------|--------|--------|--------|--------|--------|--------|--------|--------|


D|--------|--------|--------|--------|--------|--------|--------|--------|--------|
A|--------|--------|--------|--------|--------|--------|--------|--------|--------|
F|--------|--------|--------|--------|--------|--------|--------|--------|--------|
C|--------|--------|--------|--------|--------|--------|--------|--------|--------|
G|--------|--------|--------|--------|--------|--------|--------|--------|--------|
D|--------|--------|--------|--------|--------|--------|--------|--------|--------|


D|--------|--------|--------|--------|--------|--------|--------|--------|--------|
A|--------|--------|--------|--------|--------|--------|--------|--------|--------|
F|--------|--------|--------|--------|--------|--------|--------|--------|--------|
C|--------|--------|--------|--------|--------|--------|--------|--------|--------|
G|--------|--------|--------|--------|--------|--------|--------|--------|--------|
D|--------|--------|--------|--------|--------|--------|--------|--------|--------|


D|--------|--------|--------|--------|--------|--------|--------|--------|--------|
A|--------|--------|--------|--------|--------|--------|--------|--------|--------|
F|--------|--------|--------|--------|--------|--------|--------|--------|--------|
C|--------|--------|--------|--------|--------|--------|--------|--------|--------|
G|--------|--------|--------|--------|--------|--------|--------|--------|--------|
D|--------|--------|--------|--------|--------|--------|--------|--------|--------|


D|--------|--------|--------|--------|--------|--------|--------|--------|--------|
A|--------|--------|--------|--------|--------|--------|--------|--------|--------|
F|--------|--------|--------|--------|--------|--------|--------|--------|--------|
C|--------|--------|--------|--------|--------|--------|--------|--------|--------|
G|--------|--------|--------|--------|--------|--------|--------|--------|--------|
D|--------|--------|--------|--------|--------|--------|--------|--------|--------|


D|--------|--------|--------|-11---7-----------------|-----------------------|--------------------------------------|
A|--------|--------|--------|-----------9------------|-----------------------|--------------------------------------|
F|--------|--------|--------|----------------8---6---|-6-----6---4---6---6---|-6---6--6--4--6---4---6---4-------3---|
C|--------|--------|--------|------------------------|-----------------------|------------------------------6-------|
G|--------|--------|--------|------------------------|-----------------------|--------------------------------------|
D|--------|--------|--------|------------------------|-----------------------|--------------------------------------|


D|------------------------------|-12--11-12-11----------------------|-----------------------------------|
A|------------------------------|--------------14--12--11--14---14--|-14---12-14-12-11--12--11----------|
F|-3---3---3---3---3---3--------|-----------------------------------|---------------------------13--11--|
C|-------------------------4----|-----------------------------------|-----------------------------------|
G|------------------------------|-----------------------------------|-----------------------------------|
D|------------------------------|-----------------------------------|-----------------------------------|


D|-----------------------------------------------------|-------------------------------------19--------|
A|-----7--9--7------9--12-9------12-15-12-----13-16-13-|-----14-17-14-----16-19-16----17---------------|
F|-9------------11-----------13-----------14-----------|-16-----------18-----------19----19-----19--19-|
C|-----------------------------------------------------|-----------------------------------------------|
G|-----------------------------------------------------|-----------------------------------------------|
D|-----------------------------------------------------|-----------------------------------------------|


D|-14---14-14---14---14--14--|-14-14--------------14---------------------|-----------------14--17--17----|
A|-17------17---17---17--17--|-17----17-14-----14----17-14---------------|---------14--17----------------|
F|---------------------------|-------------16--------------16--16-14-----|-14--16------------------------|
C|---------------------------|---------------------------------------16--|-------------------------------|
G|---------------------------|-------------------------------------------|-------------------------------|
D|---------------------------|-------------------------------------------|-------------------------------|


D|---------14--16--17--17--17-19----19-19-19-19-17-|-22----22-21-21-20----20-19--|
A|-14--17------------------------------------------|-----------------------------|
F|-------------------------------------------------|-----------------------------|
C|-------------------------------------------------|-----------------------------|
G|-------------------------------------------------|-----------------------------|
D|-------------------------------------------------|-----------------------------|


D|-19--19---19-19-17-19-17-14--14-----14-|-17--16-17-16-14--16------14----------|------------------------------|
A|--------------------------------17-----|----------------------17------15--14--|------------------------------|
F|---------------------------------------|--------------------------------------|-14--13-----------------------|
C|---------------------------------------|--------------------------------------|---------14-------------------|
G|---------------------------------------|--------------------------------------|-------------14--12--11-------|
D|---------------------------------------|--------------------------------------|-------------------------12---|


D|----------------------------------|-----------------------------------------|-16--16-17-16-14--16------14----------|
A|------------------14-14-14-----14-|-14-14-14--14----------------------------|----------------------17------15--14--|
F|-14-------14--14--14-14-14-----14-|-14-14-14-----14-----------------14--16--|--------------------------------------|
C|-14---16--------------------16----|-----------------16-14-16-14-16----------|--------------------------------------|
G|----------------------------------|-----------------------------------------|--------------------------------------|
D|----------------------------------|-----------------------------------------|--------------------------------------|


D|------------------------------|-12-------14--14------12---|-12--------14---12--------|
A|------------------------------|-15-------17--17------15---|-15------------------14---|
F|-14--13-----------------------|---------------------------|--------------------------|
C|---------14-------------------|---------------------------|--------------------------|
G|-------------14--12--11-------|---------------------------|--------------------------|
D|-------------------------12---|---------------------------|--------------------------|


D|-----------------|-19---19---19----|------------------------------|------------------------------|
A|-15---15---15----|-----------------|-5--------5---5-------5-------|-----0--------5---5---2---5---|
F|-----------------|-----------------|-7--------7---7-----------6---|-6----------------------------|
C|-----------------|-----------------|------------------------------|------------------------------|
G|-----------------|-----------------|------------------------------|------------------------------|
D|-----------------|-----------------|------------------------------|------------------------------|


D|-----------------------|-------------------------|--------------------------------|
A|-5-----5---2---5---5---|-5---5-------------------|-5--------7---7-----------------|
F|-----------------------|---------4--2------------|-7--------9---9-------6--9--6---|
C|-----------------------|---------------2---2-----|--------------------------------|
G|-----------------------|-------------------------|--------------------------------|
D|-----------------------|-------------------------|--------------------------------|


D|--------------------------|----------------------------|--------------------------------------|
A|--------------------------|-17----17-14-17---14---17---|-17--14-------------------------17-14-|
F|-6---------14---13--------|----------------------------|--------16-16-16-14-16-14---16--------|
C|---------------------16---|----------------------------|--------------------------------------|
G|--------------------------|----------------------------|--------------------------------------|
D|--------------------------|----------------------------|--------------------------------------|


D|----------------|----------------------------------|--------14-------------14-17-14-17-14----------14-|
A|--------14--16--|----------------------14--14--14--|-14--14----14-17---17-----------------17----14----|
F|-14-----14------|-14---14----14-14-14--16--16--16--|-16--16----------------------------------16-------|
C|----------------|---------16-----------------------|--------------------------------------------------|
G|----------------|----------------------------------|--------------------------------------------------|
D|----------------|----------------------------------|--------------------------------------------------|


D|-----14--------------------------------------|-----------------------------------------|
A|-17-----17-14-17-14----14--------------------|-14-----17----16---14-16-16----16--14-16-|
F|--------------------16----16-16-14-16--14----|-16--------14---------16-16-14-----------|
C|---------------------------------------------|-----11----------------------------------|
G|---------------------------------------------|-----------------------------------------|
D|---------------------------------------------|-----------------------------------------|


D|---------------------------17---17--17--|-------14----14----14-----------14----------14-|
A|-16-----------14------------------------|-14-17----17----17----17-14--------17-14-------|
F|-----14-16-17----17-16-14---------------|----------------------------16-----------16----|
C|----------------------------------------|-----------------------------------------------|
G|----------------------------------------|-----------------------------------------------|
D|----------------------------------------|-----------------------------------------------|


D|--------------------------------------|----------------------------------------|
A|------------------------------16--16--|-14-------------------------------------|
F|-16-16-14----16----14-14-14---16--16--|-14--------16-16-14-14-16-14------------|
C|----------16----14--------------------|-----16-14-------------------16----16---|
G|--------------------------------------|----------------------------------------|
D|--------------------------------------|----------------------------------------|





Track 4: Untitled

G|--------|--------|--------|--------|--------|--------|--------|--------|--------|
D|--------|--------|--------|--------|--------|--------|--------|--------|--------|
A|--------|--------|--------|--------|--------|--------|--------|--------|--------|
E|--------|--------|--------|--------|--------|--------|--------|--------|--------|


G|--------|--------|--------|--------|--------|--------|--------|--------|--------|
D|--------|--------|--------|--------|--------|--------|--------|--------|--------|
A|--------|--------|--------|--------|--------|--------|--------|--------|--------|
E|--------|--------|--------|--------|--------|--------|--------|--------|--------|


G|--------|--------|--------|--------|--------|--------|--------|--------|--------|
D|--------|--------|--------|--------|--------|--------|--------|--------|--------|
A|--------|--------|--------|--------|--------|--------|--------|--------|--------|
E|--------|--------|--------|--------|--------|--------|--------|--------|--------|


G|--------|--------|--------|--------|--------|--------|--------|--------|--------|
D|--------|--------|--------|--------|--------|--------|--------|--------|--------|
A|--------|--------|--------|--------|--------|--------|--------|--------|--------|
E|--------|--------|--------|--------|--------|--------|--------|--------|--------|


G|--------|--------|--------|--------|--------|--------|--------|--------|--------|
D|--------|--------|--------|--------|--------|--------|--------|--------|--------|
A|--------|--------|--------|--------|--------|--------|--------|--------|--------|
E|--------|--------|--------|--------|--------|--------|--------|--------|--------|


G|--------|--------|--------|--------|--------|--------|--------|--------|--------|
D|--------|--------|--------|--------|--------|--------|--------|--------|--------|
A|--------|--------|--------|--------|--------|--------|--------|--------|--------|
E|--------|--------|--------|--------|--------|--------|--------|--------|--------|


G|--------|--------|--------|--------|--------|--------|--------|--------|--------|
D|--------|--------|--------|--------|--------|--------|--------|--------|--------|
A|--------|--------|--------|--------|--------|--------|--------|--------|--------|
E|--------|--------|--------|--------|--------|--------|--------|--------|--------|


G|--------|--------|--------|--------|--------|--------|--------|--------|--------|
D|--------|--------|--------|--------|--------|--------|--------|--------|--------|
A|--------|--------|--------|--------|--------|--------|--------|--------|--------|
E|--------|--------|--------|--------|--------|--------|--------|--------|--------|


G|--------|--------|--------|--------|--------|--------|--------|--------|--------|
D|--------|--------|--------|--------|--------|--------|--------|--------|--------|
A|--------|--------|--------|--------|--------|--------|--------|--------|--------|
E|--------|--------|--------|--------|--------|--------|--------|--------|--------|


G|--------|--------|--------|--------|--------|--------|--------|--------|--------|
D|--------|--------|--------|--------|--------|--------|--------|--------|--------|
A|--------|--------|--------|--------|--------|--------|--------|--------|--------|
E|--------|--------|--------|--------|--------|--------|--------|--------|--------|


G|--------|--------|--------|--------|--------|--------|--------|--------|--------|
D|--------|--------|--------|--------|--------|--------|--------|--------|--------|
A|--------|--------|--------|--------|--------|--------|--------|--------|--------|
E|--------|--------|--------|--------|--------|--------|--------|--------|--------|


G|--------|--------|--------|--------|--------|--------|--------|--------|
D|--------|--------|--------|--------|--------|--------|--------|--------|
A|--------|--------|--------|--------|--------|--------|--------|--------|
E|--------|--------|--------|--------|--------|--------|--------|--------|