Menu:

 

Search:

 

sigbjørn ottar nydal - hope:

 



Title: Hope
Artist: 
Album: 
Author: Sigbjrn Ottar Nydal


Track 1: Acoustic Guitar

E|-----3---3----3-----|-6---3-----------5---------------|-1---------------------|-----6---5---3-------------------|
B|-3------------------|---------3-----------3---1---3---|-----3-----------------|-----------------3---------------|
G|-3------------------|-------------3-------------------|---------3-------------|-3-------------------5---3---5---|
D|-5------------------|---------------------------------|-------------3---3-----|---------------------------------|
A|--------------------|---------------------------------|-----------------------|---------------------------------|
E|--------------------|---------------------------------|-----------------------|---------------------------------|


E|---------------------------|---------------------------------|-6---3------------------------|
B|-6-------------------------|-----------------6-------6---8---|---------4------------4---6---|
G|-----6---------------------|-7---5-------5-------7-----------|-------------3---3------------|
D|---------6-----------------|---------7-----------------------|------------------------------|
A|-------------4---4-----4---|---------------------------------|------------------------------|
E|---------------------------|---------------------------------|------------------------------|


E|-6-----5------------|-3------|-3------|--------|--------|--------|--------|--------|
B|------------4---6---|-3------|-3------|--------|--------|--------|--------|--------|
G|--------------------|-3------|-3------|--------|--------|--------|--------|--------|
D|--------------------|-5------|-5------|--------|--------|--------|--------|--------|
A|--------------------|--------|--------|--------|--------|--------|--------|--------|
E|--------------------|--------|--------|--------|--------|--------|--------|--------|


E|--------|--------|--------|--------|--------|--------|--------|--------|--------|
B|--------|--------|--------|--------|--------|--------|--------|--------|--------|
G|--------|--------|--------|--------|--------|--------|--------|--------|--------|
D|--------|--------|--------|--------|--------|--------|--------|--------|--------|
A|--------|--------|--------|--------|--------|--------|--------|--------|--------|
E|--------|--------|--------|--------|--------|--------|--------|--------|--------|


E|--------|--------|--------|--------|--------|--------|--------|--------|--------|
B|--------|--------|--------|--------|--------|--------|--------|--------|--------|
G|--------|--------|--------|--------|--------|--------|--------|--------|--------|
D|--------|--------|--------|--------|--------|--------|--------|--------|--------|
A|--------|--------|--------|--------|--------|--------|--------|--------|--------|
E|--------|--------|--------|--------|--------|--------|--------|--------|--------|


E|--------|--------|--------|--------|--------|--------|--------|--------|--------|
B|--------|--------|--------|--------|--------|--------|--------|--------|--------|
G|--------|--------|--------|--------|--------|--------|--------|--------|--------|
D|--------|--------|--------|--------|--------|--------|--------|--------|--------|
A|--------|--------|--------|--------|--------|--------|--------|--------|--------|
E|--------|--------|--------|--------|--------|--------|--------|--------|--------|


E|--------|--------|--------|--------|--------|--------|--------|--------|--------|
B|--------|--------|--------|--------|--------|--------|--------|--------|--------|
G|--------|--------|--------|--------|--------|--------|--------|--------|--------|
D|--------|--------|--------|--------|--------|--------|--------|--------|--------|
A|--------|--------|--------|--------|--------|--------|--------|--------|--------|
E|--------|--------|--------|--------|--------|--------|--------|--------|--------|


E|--------|--------|--------|--------|--------|--------|--------|--------|--------|
B|--------|--------|--------|--------|--------|--------|--------|--------|--------|
G|--------|--------|--------|--------|--------|--------|--------|--------|--------|
D|--------|--------|--------|--------|--------|--------|--------|--------|--------|
A|--------|--------|--------|--------|--------|--------|--------|--------|--------|
E|--------|--------|--------|--------|--------|--------|--------|--------|--------|


E|--------|--------|--------|--------|--------|--------|--------|--------|--------|
B|--------|--------|--------|--------|--------|--------|--------|--------|--------|
G|--------|--------|--------|--------|--------|--------|--------|--------|--------|
D|--------|--------|--------|--------|--------|--------|--------|--------|--------|
A|--------|--------|--------|--------|--------|--------|--------|--------|--------|
E|--------|--------|--------|--------|--------|--------|--------|--------|--------|


E|--------|--------|--------|--------|--------|--------|--------|--------|--------|
B|--------|--------|--------|--------|--------|--------|--------|--------|--------|
G|--------|--------|--------|--------|--------|--------|--------|--------|--------|
D|--------|--------|--------|--------|--------|--------|--------|--------|--------|
A|--------|--------|--------|--------|--------|--------|--------|--------|--------|
E|--------|--------|--------|--------|--------|--------|--------|--------|--------|


E|--------|--------|--------|--------|--------|--------|--------|--------|--------|
B|--------|--------|--------|--------|--------|--------|--------|--------|--------|
G|--------|--------|--------|--------|--------|--------|--------|--------|--------|
D|--------|--------|--------|--------|--------|--------|--------|--------|--------|
A|--------|--------|--------|--------|--------|--------|--------|--------|--------|
E|--------|--------|--------|--------|--------|--------|--------|--------|--------|


E|--------|--------|--------|--------|--------|--------|--------|--------|--------|
B|--------|--------|--------|--------|--------|--------|--------|--------|--------|
G|--------|--------|--------|--------|--------|--------|--------|--------|--------|
D|--------|--------|--------|--------|--------|--------|--------|--------|--------|
A|--------|--------|--------|--------|--------|--------|--------|--------|--------|
E|--------|--------|--------|--------|--------|--------|--------|--------|--------|


E|--------|--------|--------|--------|--------|--------|--------|--------|--------|
B|--------|--------|--------|--------|--------|--------|--------|--------|--------|
G|--------|--------|--------|--------|--------|--------|--------|--------|--------|
D|--------|--------|--------|--------|--------|--------|--------|--------|--------|
A|--------|--------|--------|--------|--------|--------|--------|--------|--------|
E|--------|--------|--------|--------|--------|--------|--------|--------|--------|


E|--------|--------|--------|--------|--------|--------|--------|--------|--------|
B|--------|--------|--------|--------|--------|--------|--------|--------|--------|
G|--------|--------|--------|--------|--------|--------|--------|--------|--------|
D|--------|--------|--------|--------|--------|--------|--------|--------|--------|
A|--------|--------|--------|--------|--------|--------|--------|--------|--------|
E|--------|--------|--------|--------|--------|--------|--------|--------|--------|


E|--------|--------|--------|--------|--------|--------|--------|--------|--------|
B|--------|--------|--------|--------|--------|--------|--------|--------|--------|
G|--------|--------|--------|--------|--------|--------|--------|--------|--------|
D|--------|--------|--------|--------|--------|--------|--------|--------|--------|
A|--------|--------|--------|--------|--------|--------|--------|--------|--------|
E|--------|--------|--------|--------|--------|--------|--------|--------|--------|


E|--------|--------|--------|--------|--------|--------|--------|--------|--------|
B|--------|--------|--------|--------|--------|--------|--------|--------|--------|
G|--------|--------|--------|--------|--------|--------|--------|--------|--------|
D|--------|--------|--------|--------|--------|--------|--------|--------|--------|
A|--------|--------|--------|--------|--------|--------|--------|--------|--------|
E|--------|--------|--------|--------|--------|--------|--------|--------|--------|


E|--------|--------|--------|--------|--------|--------|--------|--------|--------|
B|--------|--------|--------|--------|--------|--------|--------|--------|--------|
G|--------|--------|--------|--------|--------|--------|--------|--------|--------|
D|--------|--------|--------|--------|--------|--------|--------|--------|--------|
A|--------|--------|--------|--------|--------|--------|--------|--------|--------|
E|--------|--------|--------|--------|--------|--------|--------|--------|--------|


E|--------|--------|--------|--------|--------|--------|--------|--------|--------|
B|--------|--------|--------|--------|--------|--------|--------|--------|--------|
G|--------|--------|--------|--------|--------|--------|--------|--------|--------|
D|--------|--------|--------|--------|--------|--------|--------|--------|--------|
A|--------|--------|--------|--------|--------|--------|--------|--------|--------|
E|--------|--------|--------|--------|--------|--------|--------|--------|--------|


E|--------|--------|--------|--------|--------|--------|--------|--------|--------|
B|--------|--------|--------|--------|--------|--------|--------|--------|--------|
G|--------|--------|--------|--------|--------|--------|--------|--------|--------|
D|--------|--------|--------|--------|--------|--------|--------|--------|--------|
A|--------|--------|--------|--------|--------|--------|--------|--------|--------|
E|--------|--------|--------|--------|--------|--------|--------|--------|--------|


E|--------|--------|--------|--------|--------|--------|--------|--------|--------|
B|--------|--------|--------|--------|--------|--------|--------|--------|--------|
G|--------|--------|--------|--------|--------|--------|--------|--------|--------|
D|--------|--------|--------|--------|--------|--------|--------|--------|--------|
A|--------|--------|--------|--------|--------|--------|--------|--------|--------|
E|--------|--------|--------|--------|--------|--------|--------|--------|--------|


E|--------|--------|--------|--------|--------|--------|--------|--------|--------|
B|--------|--------|--------|--------|--------|--------|--------|--------|--------|
G|--------|--------|--------|--------|--------|--------|--------|--------|--------|
D|--------|--------|--------|--------|--------|--------|--------|--------|--------|
A|--------|--------|--------|--------|--------|--------|--------|--------|--------|
E|--------|--------|--------|--------|--------|--------|--------|--------|--------|


E|--------|--------|--------|--------|--------|--------|--------|--------|--------|
B|--------|--------|--------|--------|--------|--------|--------|--------|--------|
G|--------|--------|--------|--------|--------|--------|--------|--------|--------|
D|--------|--------|--------|--------|--------|--------|--------|--------|--------|
A|--------|--------|--------|--------|--------|--------|--------|--------|--------|
E|--------|--------|--------|--------|--------|--------|--------|--------|--------|


E|--------|--------|--------|--------|--------|--------|--------|-----3---3----3-----|
B|--------|--------|--------|--------|--------|--------|--------|-3------------------|
G|--------|--------|--------|--------|--------|--------|--------|-3------------------|
D|--------|--------|--------|--------|--------|--------|--------|-5------------------|
A|--------|--------|--------|--------|--------|--------|--------|--------------------|
E|--------|--------|--------|--------|--------|--------|--------|--------------------|


E|-6---3-----------5---------------|-------------3---3-----|-3------|
B|---------3-----------3---1---3---|---------3-------------|--------|
G|-------------3-------------------|-----3-----------------|-5------|
D|---------------------------------|-5---------------------|--------|
A|---------------------------------|-----------------------|--------|
E|---------------------------------|-----------------------|--------|





Track 2: Distortion Guitar -Rhythm

E|--------|--------|--------|--------|--------|--------|--------|--------|--------|
B|--------|--------|--------|--------|--------|--------|--------|--------|--------|
G|--------|--------|--------|--------|--------|--------|--------|--------|--------|
D|--------|--------|--------|--------|--------|--------|--------|--------|--------|
A|--------|--------|--------|--------|--------|--------|--------|--------|--------|
E|--------|--------|--------|--------|--------|--------|--------|--------|--------|


E|--------|-------------------------------------------------|-------------------------------------------------|
B|--------|-------------------------------------------------|-------------------------------------------------|
G|--------|-------------------------------------------------|-------------------------------------------------|
D|--------|-------------------------------------------------|-------------------------------------------------|
A|--------|-------------------------------------------------|-5--5--5--5--3--3--3--3--------------------------|
E|--------|-3--3--3--3--6--6--6--6--5--5--5--5--6--6--6--6--|-------------------------6--6--6--6--5--5--5--5--|


E|-------------------------------------------------|-------------------------------------------------|
B|-------------------------------------------------|-------------------------------------------------|
G|-------------------------------------------------|-------------------------------------------------|
D|-------------------------------------3--3--3--3--|-------------3--3--3--3--1--1--1--1--------------|
A|-------------5--5--5--5--6--6--6--6--------------|-5--5--5--5--------------------------3--3--3--3--|
E|-6--6--6--6--------------------------------------|-------------------------------------------------|


E|-------------------------------------------------|-------------------------------------------------|
B|-------------------------------------------------|-------------------------------------------------|
G|-------------------------------------------------|-------------------------------------------------|
D|-------------3--3--3--3--6--6--6--6--------------|-7--7--7--7--3--3--3--3--------------3--3--3--3--|
A|-4--4--4--4--------------------------4--4--4--4--|-------------------------5--5--5--5--------------|
E|-------------------------------------------------|-------------------------------------------------|


E|-------------------------------------------------|-------------------------------------------------|
B|-------------------------------------------------|-------------------------------------------------|
G|-------------------------------------------------|-------------------------------------------------|
D|-------------5--5--5--5--8--8--8--8--------------|-8--8--8--8--------------------------------------|
A|-6--6--6--6--------------------------6--6--6--6--|-------------5--5--5--5--8--8--8--8--6--6--6--6--|
E|-------------------------------------------------|-------------------------------------------------|


E|-------------|--------|--------|--------|--------|--------|--------|--------|--------|
B|-------------|--------|--------|--------|--------|--------|--------|--------|--------|
G|-------------|--------|--------|--------|--------|-6------|-7------|-8------|--------|
D|-5-----------|-5------|-5------|-8------|-8------|-6------|-7------|-8------|-8------|
A|-5-----------|-5------|-5------|-8------|-8------|-4------|-5------|-6------|-8------|
E|-3-----------|-3------|-3------|-6------|-6------|--------|--------|--------|-6------|


E|------------------------------|---------------------------------|------------------------------|
B|------------------------------|---------------------------------|------------------------------|
G|------------------------------|---------------------------------|------------------------------|
D|-5----------------------------|---------------------------------|-8----------------------------|
A|-5----------------------------|---------------------------------|-8----------------------------|
E|-3----3---3---3---3---3---3---|-3---3---3---3---3---3---3---3---|-6----6---6---6---6---6---6---|


E|---------------------------------|------------------------------|------------------------------|
B|---------------------------------|------------------------------|------------------------------|
G|---------------------------------|-6----------------------------|-7----------------------------|
D|---------------------------------|-6----------------------------|-7----------------------------|
A|---------------------------------|-4----4---4---4---4---4---4---|-5----5---5---5---5---5---5---|
E|-6---6---6---6---6---6---6---6---|------------------------------|------------------------------|


E|------------------------------|------------------------------|---------------------|
B|------------------------------|------------------------------|---------------------|
G|-8----------------------------|------------------------------|-8-------------------|
D|-8----------------------------|-8----------------------------|-8---------8---------|
A|-6----6---6---6---6---6---6---|-8------------------------5---|-6---------8---------|
E|------------------------------|-6----6---6---6---6---8-------|-----------6---------|


E|---------------------|---------------------|---------------------|-------------------------------------------------|
B|---------------------|---------------------|---------------------|-------------------------------------------------|
G|---------------------|-8-------------------|-----------3---------|-------------------------------------------------|
D|-7---------5---------|-8---------8---------|-3---------3---------|-------------------------------------------------|
A|-6---------5---------|-6---------8---------|-3---------1---------|-------------------------------------------------|
E|-5---------3---------|-----------6---------|-1-------------------|-3--3--3--3--6--6--6--6--5--5--5--5--6--6--6--6--|


E|-------------------------------------------------|-------------------------------------------------|
B|-------------------------------------------------|-------------------------------------------------|
G|-------------------------------------------------|-------------------------------------------------|
D|-------------------------------------------------|-------------------------------------3--3--3--3--|
A|-5--5--5--5--3--3--3--3--------------------------|-------------5--5--5--5--6--6--6--6--------------|
E|-------------------------6--6--6--6--5--5--5--5--|-6--6--6--6--------------------------------------|


E|-------------------------------------------------|-------------------------------------------------|
B|-------------------------------------------------|-------------------------------------------------|
G|-------------------------------------------------|-------------------------------------------------|
D|-------------3--3--3--3--1--1--1--1--------------|-------------3--3--3--3--6--6--6--6--------------|
A|-5--5--5--5--------------------------3--3--3--3--|-4--4--4--4--------------------------4--4--4--4--|
E|-------------------------------------------------|-------------------------------------------------|


E|-------------------------------------------------|-------------------------------------------------|
B|-------------------------------------------------|-------------------------------------------------|
G|-------------------------------------------------|-------------------------------------------------|
D|-7--7--7--7--3--3--3--3--------------3--3--3--3--|-------------5--5--5--5--8--8--8--8--------------|
A|-------------------------5--5--5--5--------------|-6--6--6--6--------------------------6--6--6--6--|
E|-------------------------------------------------|-------------------------------------------------|


E|-------------------------------------------------|-------------|--------|--------|
B|-------------------------------------------------|-------------|--------|--------|
G|-------------------------------------------------|-------------|--------|--------|
D|-8--8--8--8--------------------------------------|-5-----------|-5------|-5------|
A|-------------5--5--5--5--8--8--8--8--6--6--6--6--|-5-----------|-5------|-5------|
E|-------------------------------------------------|-3-----------|-3------|-3------|


E|--------|--------|--------|--------|--------|--------|------------------------------|
B|--------|--------|--------|--------|--------|--------|------------------------------|
G|--------|--------|-6------|-7------|-8------|--------|------------------------------|
D|-8------|-8------|-6------|-7------|-8------|-8------|-5----------------------------|
A|-8------|-8------|-4------|-5------|-6------|-8------|-5----------------------------|
E|-6------|-6------|--------|--------|--------|-6------|-3----3---3---3---3---3---3---|


E|---------------------------------|------------------------------|---------------------------------|
B|---------------------------------|------------------------------|---------------------------------|
G|---------------------------------|------------------------------|---------------------------------|
D|---------------------------------|-8----------------------------|---------------------------------|
A|---------------------------------|-8----------------------------|---------------------------------|
E|-3---3---3---3---3---3---3---3---|-6----6---6---6---6---6---6---|-6---6---6---6---6---6---6---6---|


E|------------------------------|------------------------------|------------------------------|
B|------------------------------|------------------------------|------------------------------|
G|-6----------------------------|-7----------------------------|-8----------------------------|
D|-6----------------------------|-7----------------------------|-8----------------------------|
A|-4----4---4---4---4---4---4---|-5----5---5---5---5---5---5---|-6----6---6---6---6---6---6---|
E|------------------------------|------------------------------|------------------------------|


E|------------------------------|--------|--------|--------|--------|--------|--------|
B|------------------------------|--------|--------|--------|--------|--------|--------|
G|------------------------------|-9------|--------|--------|-6------|-9------|--------|
D|-8----------------------------|-9------|-7------|-4------|-6------|-9------|-7------|
A|-8------------------------5---|-7------|-7------|-4------|-4------|-7------|-7------|
E|-6----6---6---6---6---8-------|--------|-5------|-2------|--------|--------|-5------|


E|--------|------------------------|--------|--------|--------|--------|--------|--------|
B|--------|------------------------|--------|--------|--------|--------|--------|--------|
G|--------|------------------------|-5------|-5------|-8------|--------|--------|--------|
D|-4------|-2-----------2----------|-5------|-5------|-8------|-5------|-6------|-3------|
A|-4------|-2-----------2----------|-3------|-3------|-6------|-5------|-6------|-3------|
E|-2------|-0---0---0---0----------|--------|--------|--------|-3------|-4------|-1------|


E|--------|--------|--------|--------|--------|--------|--------|--------|--------|
B|--------|-8------|--------|--------|--------|--------|--------|--------|--------|
G|--------|-7------|-5------|-5------|-8------|--------|--------|--------|--------|
D|-5------|-5------|-5------|-5------|-8------|-5------|-6------|-3------|-5------|
A|-5------|--------|-3------|-3------|-6------|-5------|-6------|-3------|-5------|
E|-3------|--------|--------|--------|--------|-3------|-4------|-1------|-3------|


E|--------|--------|-------------|--------|--------|--------|--------|--------|--------|
B|-8------|--------|-------------|--------|--------|--------|--------|--------|--------|
G|-7------|-5------|-5-----------|--------|--------|--------|--------|--------|--------|
D|-5------|-5------|-5-----------|--------|--------|--------|--------|--------|--------|
A|--------|-3------|-3-----------|--------|--------|--------|--------|--------|--------|
E|--------|--------|-------------|--------|--------|--------|--------|--------|--------|


E|--------|--------|--------|--------|-------------|--------|-----------------------------------|
B|--------|--------|--------|--------|-------------|--------|-----------------------------------|
G|--------|--------|-3------|--------|-6-----------|-3------|-6----------------6----------------|
D|--------|--------|-3------|-6------|-6-----3-----|-3------|-6----------------6----------------|
A|--------|--------|-1------|-6------|-4-----3-----|-1------|-4----4---4---4---4----4---4---4---|
E|--------|--------|--------|-4------|-------1-----|--------|-----------------------------------|


E|-------------|-----------------------------------|--------|--------|--------|-------------|
B|-------------|-----------------------------------|--------|--------|--------|-------------|
G|-------3-----|-----------------------------------|--------|-9------|--------|-4-----7-----|
D|-3-----3-----|-4----------------6----------------|-8------|-9------|-5------|-4-----7-----|
A|-3-----1-----|-4----------------6----------------|-8------|-7------|-5------|-2-----5-----|
E|-1-----------|-2----2---2---2---4----4---4---4---|-6------|-0------|-3------|-------------|


E|-----------------|--------|--------|-------------|-----------------|--------|--------|
B|-----------------|--------|--------|-------------|-----------------|--------|--------|
G|-------4---------|-5------|-4------|-5-----4-----|-----------------|--------|--------|
D|-2-----4----5----|-5------|-4------|-5-----5-----|-2-----2---------|--------|--------|
A|-2-----2----5----|-3------|-2------|-3-----2-----|-2-----2---------|--------|--------|
E|-0----------3----|--------|--------|-------------|-0-----0---------|--------|--------|


E|--------|--------|--------|--------|--------|--------|-------------------------------------------------|
B|--------|--------|--------|--------|--------|--------|-------------------------------------------------|
G|--------|--------|--------|--------|--------|--------|-------------------------------------------------|
D|--------|--------|--------|--------|--------|--------|-------------------------------------------------|
A|--------|--------|--------|--------|--------|--------|-------------------------------------------------|
E|--------|--------|--------|--------|--------|--------|-3--3--3--3--6--6--6--6--5--5--5--5--6--6--6--6--|


E|-------------------------------------------------|-------------------------------------------------|
B|-------------------------------------------------|-------------------------------------------------|
G|-------------------------------------------------|-------------------------------------------------|
D|-------------------------------------------------|-------------------------------------3--3--3--3--|
A|-5--5--5--5--3--3--3--3--------------------------|-------------5--5--5--5--6--6--6--6--------------|
E|-------------------------6--6--6--6--5--5--5--5--|-6--6--6--6--------------------------------------|


E|-------------------------------------------------|-------------------------------------------------|
B|-------------------------------------------------|-------------------------------------------------|
G|-------------------------------------------------|-------------------------------------------------|
D|-------------3--3--3--3--1--1--1--1--------------|-------------3--3--3--3--6--6--6--6--------------|
A|-5--5--5--5--------------------------3--3--3--3--|-4--4--4--4--------------------------4--4--4--4--|
E|-------------------------------------------------|-------------------------------------------------|


E|-------------------------------------------------|-------------------------------------------------|
B|-------------------------------------------------|-------------------------------------------------|
G|-------------------------------------------------|-------------------------------------------------|
D|-7--7--7--7--3--3--3--3--------------3--3--3--3--|-------------5--5--5--5--8--8--8--8--------------|
A|-------------------------5--5--5--5--------------|-6--6--6--6--------------------------6--6--6--6--|
E|-------------------------------------------------|-------------------------------------------------|


E|-------------------------------------------------|-------------|--------|--------|
B|-------------------------------------------------|-------------|--------|--------|
G|-------------------------------------------------|-------------|--------|--------|
D|-8--8--8--8--------------------------------------|-5-----------|-5------|-5------|
A|-------------5--5--5--5--8--8--8--8--6--6--6--6--|-5-----------|-5------|-5------|
E|-------------------------------------------------|-3-----------|-3------|-3------|


E|--------|--------|--------|--------|--------|--------|------------------------------|
B|--------|--------|--------|--------|--------|--------|------------------------------|
G|--------|--------|-6------|-7------|-8------|--------|------------------------------|
D|-8------|-8------|-6------|-7------|-8------|-8------|-5----------------------------|
A|-8------|-8------|-4------|-5------|-6------|-8------|-5----------------------------|
E|-6------|-6------|--------|--------|--------|-6------|-3----3---3---3---3---3---3---|


E|---------------------------------|------------------------------|---------------------------------|
B|---------------------------------|------------------------------|---------------------------------|
G|---------------------------------|------------------------------|---------------------------------|
D|---------------------------------|-8----------------------------|---------------------------------|
A|---------------------------------|-8----------------------------|---------------------------------|
E|-3---3---3---3---3---3---3---3---|-6----6---6---6---6---6---6---|-6---6---6---6---6---6---6---6---|


E|------------------------------|------------------------------|------------------------------|
B|------------------------------|------------------------------|------------------------------|
G|-6----------------------------|-7----------------------------|-8----------------------------|
D|-6----------------------------|-7----------------------------|-8----------------------------|
A|-4----4---4---4---4---4---4---|-5----5---5---5---5---5---5---|-6----6---6---6---6---6---6---|
E|------------------------------|------------------------------|------------------------------|


E|------------------------------|---------------------|---------------------|---------------------|
B|------------------------------|---------------------|---------------------|---------------------|
G|------------------------------|-8-------------------|---------------------|-8-------------------|
D|-8----------------------------|-8---------8---------|-7---------5---------|-8---------8---------|
A|-8------------------------5---|-6---------8---------|-6---------5---------|-6---------8---------|
E|-6----6---6---6---6---8-------|-----------6---------|-5---------3---------|-----------6---------|


E|---------------------|--------|--------|--------|--------|--------|--------|--------|
B|---------------------|--------|--------|--------|--------|--------|--------|--------|
G|-----------3---------|-9------|--------|--------|-6------|-9------|--------|--------|
D|-3---------3---------|-9------|-7------|-4------|-6------|-9------|-7------|-4------|
A|-3---------1---------|-7------|-7------|-4------|-4------|-7------|-7------|-4------|
E|-1-------------------|--------|-5------|-2------|--------|--------|-5------|-2------|


E|------------------------|--------|--------|--------|--------|--------|--------|--------|
B|------------------------|--------|--------|--------|--------|--------|--------|--------|
G|------------------------|-5------|-5------|-8------|--------|--------|--------|--------|
D|-2-----------2----------|-5------|-5------|-8------|-5------|-6------|-3------|-5------|
A|-2-----------2----------|-3------|-3------|-6------|-5------|-6------|-3------|-5------|
E|-0---0---0---0----------|--------|--------|--------|-3------|-4------|-1------|-3------|


E|--------|--------|--------|--------|--------|--------|--------|--------|--------|
B|-8------|--------|--------|--------|--------|--------|--------|--------|-8------|
G|-7------|-5------|-5------|-8------|--------|--------|--------|--------|-7------|
D|-5------|-5------|-5------|-8------|-5------|-6------|-3------|-5------|-5------|
A|--------|-3------|-3------|-6------|-5------|-6------|-3------|-5------|--------|
E|--------|--------|--------|--------|-3------|-4------|-1------|-3------|--------|


E|--------|--------|--------|--------|--------|--------|--------|--------|--------|
B|--------|--------|--------|--------|--------|--------|--------|-10-----|--------|
G|-7------|-7------|-10-----|--------|--------|--------|--------|-9------|-7------|
D|-7------|-7------|-10-----|-7------|-8------|-5------|-7------|-7------|-7------|
A|-5------|-5------|-8------|-7------|-8------|-5------|-7------|--------|-5------|
E|--------|--------|--------|-5------|-6------|-3------|-5------|--------|--------|


E|--------|--------|--------|--------|--------|--------|--------|--------|-------------|
B|--------|--------|--------|--------|--------|--------|-10-----|--------|-------------|
G|-7------|-10-----|--------|--------|--------|--------|-9------|-7------|-7-----------|
D|-7------|-10-----|-7------|-8------|-5------|-7------|-7------|-7------|-7-----------|
A|-5------|-8------|-7------|-8------|-5------|-7------|--------|-5------|-5-----------|
E|--------|--------|-5------|-6------|-3------|-5------|--------|--------|-------------|


E|--------|--------|--------|--------|
B|--------|--------|--------|--------|
G|--------|--------|--------|--------|
D|--------|--------|--------|--------|
A|--------|--------|--------|--------|
E|--------|--------|--------|--------|





Track 3: Distortion Guitar -Lead

E|--------|--------|--------|--------|--------|--------|--------|--------|--------|
B|--------|--------|--------|--------|--------|--------|--------|--------|--------|
G|--------|--------|--------|--------|--------|--------|--------|--------|--------|
D|--------|--------|--------|--------|--------|--------|--------|--------|--------|
A|--------|--------|--------|--------|--------|--------|--------|--------|--------|
E|--------|--------|--------|--------|--------|--------|--------|--------|--------|


E|--------|--------|--------|--------|--------|--------|--------|--------|--------|
B|--------|--------|--------|--------|--------|--------|--------|--------|--------|
G|--------|--------|--------|--------|--------|--------|--------|--------|--------|
D|--------|--------|--------|--------|--------|--------|--------|--------|--------|
A|--------|--------|--------|--------|--------|--------|--------|--------|--------|
E|--------|--------|--------|--------|--------|--------|--------|--------|--------|


E|--------|--------|--------|--------|--------|--------|--------|--------|--------|
B|--------|--------|--------|--------|--------|--------|--------|--------|--------|
G|--------|--------|--------|--------|--------|--------|--------|--------|--------|
D|--------|--------|--------|--------|--------|--------|--------|--------|--------|
A|--------|--------|--------|--------|--------|--------|--------|--------|--------|
E|--------|--------|--------|--------|--------|--------|--------|--------|--------|


E|--------|--------|--------|--------|--------|--------|--------|--------|-15--11--------------11--13--10--------------10--|
B|--------|--------|--------|--------|--------|--------|--------|--------|---------11------11--------------11------11------|
G|--------|--------|--------|--------|--------|--------|--------|--------|-------------12----------------------10----------|
D|--------|--------|--------|--------|--------|--------|--------|--------|-------------------------------------------------|
A|--------|--------|--------|--------|--------|--------|--------|--------|-------------------------------------------------|
E|--------|--------|--------|--------|--------|--------|--------|--------|-------------------------------------------------|


E|-11--8---------------8-------------|-15--11--------------11--13--10--------------10--|
B|---------10------10------8----11---|---------11------11--------------11------11------|
G|-------------8---------------------|-------------12----------------------10----------|
D|-----------------------------------|-------------------------------------------------|
A|-----------------------------------|-------------------------------------------------|
E|-----------------------------------|-------------------------------------------------|


E|-------------------------6---------|--------|--------|--------|--------|--------|
B|-------------6---8---10------------|--------|--------|--------|--------|--------|
G|-5---7---8-------------------------|--------|--------|--------|--------|--------|
D|-----------------------------------|--------|--------|--------|--------|--------|
A|-----------------------------------|--------|--------|--------|--------|--------|
E|-----------------------------------|--------|--------|--------|--------|--------|


E|--------|--------|--------|--------|--------|--------|--------|--------|--------|
B|--------|--------|--------|--------|--------|--------|--------|--------|--------|
G|--------|--------|--------|--------|--------|--------|--------|--------|--------|
D|--------|--------|--------|--------|--------|--------|--------|--------|--------|
A|--------|--------|--------|--------|--------|--------|--------|--------|--------|
E|--------|--------|--------|--------|--------|--------|--------|--------|--------|


E|--------|--------|--------|--------|--------|--------|--------|--------|--------|
B|--------|--------|--------|--------|--------|--------|--------|--------|--------|
G|--------|--------|--------|--------|--------|--------|--------|--------|--------|
D|--------|--------|--------|--------|--------|--------|--------|--------|--------|
A|--------|--------|--------|--------|--------|--------|--------|--------|--------|
E|--------|--------|--------|--------|--------|--------|--------|--------|--------|


E|--------|--------|--------|--------|--------|--------|--------|--------|--------|
B|--------|--------|--------|--------|--------|--------|--------|--------|--------|
G|--------|--------|--------|--------|--------|--------|--------|--------|--------|
D|--------|--------|--------|--------|--------|--------|--------|--------|--------|
A|--------|--------|--------|--------|--------|--------|--------|--------|--------|
E|--------|--------|--------|--------|--------|--------|--------|--------|--------|


E|--------|--------|--------|--------|--------|--------|--------|--------|--------|
B|--------|--------|--------|--------|--------|--------|--------|--------|--------|
G|--------|--------|--------|--------|--------|--------|--------|--------|--------|
D|--------|--------|--------|--------|--------|--------|--------|--------|--------|
A|--------|--------|--------|--------|--------|--------|--------|--------|--------|
E|--------|--------|--------|--------|--------|--------|--------|--------|--------|


E|--------|--------|--------|--------|--------|--------|--------|--------|--------|
B|--------|--------|--------|--------|--------|--------|--------|--------|--------|
G|--------|--------|--------|--------|--------|--------|--------|--------|--------|
D|--------|--------|--------|--------|--------|--------|--------|--------|--------|
A|--------|--------|--------|--------|--------|--------|--------|--------|--------|
E|--------|--------|--------|--------|--------|--------|--------|--------|--------|


E|--------|--------|--------|--------|--------|--------|--------|--------|--------|
B|--------|--------|--------|--------|--------|--------|--------|--------|--------|
G|--------|--------|--------|--------|--------|--------|--------|--------|--------|
D|--------|--------|--------|--------|--------|--------|--------|--------|--------|
A|--------|--------|--------|--------|--------|--------|--------|--------|--------|
E|--------|--------|--------|--------|--------|--------|--------|--------|--------|


E|-18--13--------------13--18---21---|-20----18--16----|---------13--16--13-----------------------|
B|---------14------14----------------|-----------------|-----14--------------14--13---11--13--11--|
G|-------------15--------------------|-----------------|-13---------------------------------------|
D|-----------------------------------|-----------------|------------------------------------------|
A|-----------------------------------|-----------------|------------------------------------------|
E|-----------------------------------|-----------------|------------------------------------------|


E|----------------|-------------------------------------------------|----------------------------|
B|-11---------11--|-14--13--14--16--14--16--18--16--18--19--18--19--|-18----16-------------------|
G|--------13------|-------------------------------------------------|-----------18--17--15-------|
D|----------------|-------------------------------------------------|-----------------------15---|
A|----------------|-------------------------------------------------|----------------------------|
E|----------------|-------------------------------------------------|----------------------------|


E|-------------------------------------------------|----------------16--|-19-15-12-15-19-15-12-15-20-15-12-15-19-15-12-15-|
B|-------------------------------------16--18--19--|-18-----16--18------|-------------------------------------------------|
G|-------------13--15--17--15--17--18--------------|--------------------|-------------------------------------------------|
D|-13--15--16--------------------------------------|--------------------|-------------------------------------------------|
A|-------------------------------------------------|--------------------|-------------------------------------------------|
E|-------------------------------------------------|--------------------|-------------------------------------------------|


E|-19-15-10-15-19-15-10-15-17-15-10-15-19-15-10-15-|-19-14-10-14-19-14-10-14-17-14-10-14-17-14-10-14-|
B|-------------------------------------------------|-------------------------------------------------|
G|-------------------------------------------------|-------------------------------------------------|
D|-------------------------------------------------|-------------------------------------------------|
A|-------------------------------------------------|-------------------------------------------------|
E|-------------------------------------------------|-------------------------------------------------|


E|-------------------------------------------------|-------------------------------------------------|
B|-20-17-12-17-20-17-12-17-19-15-12-15-20-15-12-15-|-20-17-13-17-20-17-13-17-22-17-13-17-20-17-13-17-|
G|-------------------------------------------------|-------------------------------------------------|
D|-------------------------------------------------|-------------------------------------------------|
A|-------------------------------------------------|-------------------------------------------------|
E|-------------------------------------------------|-------------------------------------------------|


E|-------------------------------------------------|-------------------------------------------------|
B|-19-15-12-15-19-15-12-15-20-15-12-15-19-15-12-15-|-20-17-13-17-20-17-13-17-20-15-12-15-20-15-12-15-|
G|-------------------------------------------------|-------------------------------------------------|
D|-------------------------------------------------|-------------------------------------------------|
A|-------------------------------------------------|-------------------------------------------------|
E|-------------------------------------------------|-------------------------------------------------|


E|-15--12--------------------|--------|--------|--------|--------|--------|--------|
B|---------12----------------|--------|--------|--------|--------|--------|--------|
G|-------------12------------|--------|--------|--------|--------|--------|--------|
D|-----------------14--------|--------|--------|--------|--------|--------|--------|
A|---------------------------|--------|--------|--------|--------|--------|--------|
E|---------------------------|--------|--------|--------|--------|--------|--------|


E|--------|--------|--------|--------|--------|--------|--------|--------|--------|
B|--------|--------|--------|--------|--------|--------|--------|--------|--------|
G|--------|--------|--------|--------|--------|--------|--------|--------|--------|
D|--------|--------|--------|--------|--------|--------|--------|--------|--------|
A|--------|--------|--------|--------|--------|--------|--------|--------|--------|
E|--------|--------|--------|--------|--------|--------|--------|--------|--------|


E|--------|--------|--------|--------|--------|--------|--------|--------|--------|
B|--------|--------|--------|--------|--------|--------|--------|--------|--------|
G|--------|--------|--------|--------|--------|--------|--------|--------|--------|
D|--------|--------|--------|--------|--------|--------|--------|--------|--------|
A|--------|--------|--------|--------|--------|--------|--------|--------|--------|
E|--------|--------|--------|--------|--------|--------|--------|--------|--------|


E|--------|--------|--------|--------|--------|--------|--------|--------|--------|
B|--------|--------|--------|--------|--------|--------|--------|--------|--------|
G|--------|--------|--------|--------|--------|--------|--------|--------|--------|
D|--------|--------|--------|--------|--------|--------|--------|--------|--------|
A|--------|--------|--------|--------|--------|--------|--------|--------|--------|
E|--------|--------|--------|--------|--------|--------|--------|--------|--------|


E|-15--11--------------11--13--10--------------10--|-11--8---------------8-------------|
B|---------11------11--------------11------11------|---------10------10------8----11---|
G|-------------12----------------------10----------|-------------8---------------------|
D|-------------------------------------------------|-----------------------------------|
A|-------------------------------------------------|-----------------------------------|
E|-------------------------------------------------|-----------------------------------|


E|-15--11--------------11--13--10--------------10--|-------------------------6---------|
B|---------11------11--------------11------11------|-------------6---8---10------------|
G|-------------12----------------------10----------|-5---7---8-------------------------|
D|-------------------------------------------------|-----------------------------------|
A|-------------------------------------------------|-----------------------------------|
E|-------------------------------------------------|-----------------------------------|


E|--------|--------|---------------------|-----------------|-------------|--------|
B|-9------|-10-----|-7-------------------|-5---------------|-9-----10----|-10-----|
G|--------|--------|------6---------6----|------6----------|-------------|--------|
D|--------|--------|-----------7---------|-----------6-----|-------------|--------|
A|--------|--------|---------------------|-----------------|-------------|--------|
E|--------|--------|---------------------|-----------------|-------------|--------|


E|---------------------|-7-------------------|--------|--------|--------|--------|
B|-7-------------------|------9--------------|--------|--------|--------|--------|
G|------6---------6----|----------9----------|--------|--------|--------|--------|
D|-----------7---------|---------------------|--------|--------|--------|--------|
A|---------------------|---------------------|--------|--------|--------|--------|
E|---------------------|---------------------|--------|--------|--------|--------|


E|--------|--------|--------|--------|--------|--------|--------|--------|--------|
B|--------|--------|--------|--------|--------|--------|--------|--------|--------|
G|--------|--------|--------|--------|--------|--------|--------|--------|--------|
D|--------|--------|--------|--------|--------|--------|--------|--------|--------|
A|--------|--------|--------|--------|--------|--------|--------|--------|--------|
E|--------|--------|--------|--------|--------|--------|--------|--------|--------|


E|--------|--------|--------|--------|--------|--------|--------|--------|--------|
B|--------|--------|--------|--------|--------|--------|--------|--------|--------|
G|--------|--------|--------|--------|--------|--------|--------|--------|--------|
D|--------|--------|--------|--------|--------|--------|--------|--------|--------|
A|--------|--------|--------|--------|--------|--------|--------|--------|--------|
E|--------|--------|--------|--------|--------|--------|--------|--------|--------|


E|--------|--------|--------|--------|--------|--------|--------|--------|--------|
B|--------|--------|--------|--------|--------|--------|--------|--------|--------|
G|--------|--------|--------|--------|--------|--------|--------|--------|--------|
D|--------|--------|--------|--------|--------|--------|--------|--------|--------|
A|--------|--------|--------|--------|--------|--------|--------|--------|--------|
E|--------|--------|--------|--------|--------|--------|--------|--------|--------|


E|--------|--------|--------|--------|--------|--------|--------|
B|--------|--------|--------|--------|--------|--------|--------|
G|--------|--------|--------|--------|--------|--------|--------|
D|--------|--------|--------|--------|--------|--------|--------|
A|--------|--------|--------|--------|--------|--------|--------|
E|--------|--------|--------|--------|--------|--------|--------|





Track 4: Distortion Guitar -Lead

E|--------|--------|--------|--------|--------|--------|--------|--------|--------|
B|--------|--------|--------|--------|--------|--------|--------|--------|--------|
G|--------|--------|--------|--------|--------|--------|--------|--------|--------|
D|--------|--------|--------|--------|--------|--------|--------|--------|--------|
A|--------|--------|--------|--------|--------|--------|--------|--------|--------|
E|--------|--------|--------|--------|--------|--------|--------|--------|--------|


E|--------|--------|--------|--------|--------|--------|--------|--------|--------|
B|--------|--------|--------|--------|--------|--------|--------|--------|--------|
G|--------|--------|--------|--------|--------|--------|--------|--------|--------|
D|--------|--------|--------|--------|--------|--------|--------|--------|--------|
A|--------|--------|--------|--------|--------|--------|--------|--------|--------|
E|--------|--------|--------|--------|--------|--------|--------|--------|--------|


E|--------|--------|--------|--------|--------|--------|--------|--------|--------|
B|--------|--------|--------|--------|--------|--------|--------|--------|--------|
G|--------|--------|--------|--------|--------|--------|--------|--------|--------|
D|--------|--------|--------|--------|--------|--------|--------|--------|--------|
A|--------|--------|--------|--------|--------|--------|--------|--------|--------|
E|--------|--------|--------|--------|--------|--------|--------|--------|--------|


E|--------|--------|--------|--------|--------|--------|--------|--------|--------|
B|--------|--------|--------|--------|--------|--------|--------|--------|--------|
G|--------|--------|--------|--------|--------|--------|--------|--------|--------|
D|--------|--------|--------|--------|--------|--------|--------|--------|--------|
A|--------|--------|--------|--------|--------|--------|--------|--------|--------|
E|--------|--------|--------|--------|--------|--------|--------|--------|--------|


E|--------|--------|--------|--------|--------|--------|--------|--------|--------|
B|--------|--------|--------|--------|--------|--------|--------|--------|--------|
G|--------|--------|--------|--------|--------|--------|--------|--------|--------|
D|--------|--------|--------|--------|--------|--------|--------|--------|--------|
A|--------|--------|--------|--------|--------|--------|--------|--------|--------|
E|--------|--------|--------|--------|--------|--------|--------|--------|--------|


E|--------|--------|--------|--------|--------|--------|--------|--------|--------|
B|--------|--------|--------|--------|--------|--------|--------|--------|--------|
G|--------|--------|--------|--------|--------|--------|--------|--------|--------|
D|--------|--------|--------|--------|--------|--------|--------|--------|--------|
A|--------|--------|--------|--------|--------|--------|--------|--------|--------|
E|--------|--------|--------|--------|--------|--------|--------|--------|--------|


E|--------|--------|--------|--------|--------|--------|--------|--------|--------|
B|--------|--------|--------|--------|--------|--------|--------|--------|--------|
G|--------|--------|--------|--------|--------|--------|--------|--------|--------|
D|--------|--------|--------|--------|--------|--------|--------|--------|--------|
A|--------|--------|--------|--------|--------|--------|--------|--------|--------|
E|--------|--------|--------|--------|--------|--------|--------|--------|--------|


E|--------|--------|--------|---------------------|-----------------|-------------|
B|--------|-9------|-10-----|-7-------------------|-5---------------|-9-----10----|
G|--------|--------|--------|------6---------6----|------6----------|-------------|
D|--------|--------|--------|-----------7---------|-----------6-----|-------------|
A|--------|--------|--------|---------------------|-----------------|-------------|
E|--------|--------|--------|---------------------|-----------------|-------------|


E|--------|---------------------|-7-------------------|--------|--------|--------|
B|-10-----|-7-------------------|------9--------------|--------|--------|--------|
G|--------|------6---------6----|----------9----------|--------|--------|--------|
D|--------|-----------7---------|---------------------|--------|--------|--------|
A|--------|---------------------|---------------------|--------|--------|--------|
E|--------|---------------------|---------------------|--------|--------|--------|


E|--------|--------|--------|--------|--------|--------|--------|--------|--------|
B|--------|--------|--------|--------|--------|--------|--------|--------|--------|
G|--------|--------|--------|--------|--------|--------|--------|--------|--------|
D|--------|--------|--------|--------|--------|--------|--------|--------|--------|
A|--------|--------|--------|--------|--------|--------|--------|--------|--------|
E|--------|--------|--------|--------|--------|--------|--------|--------|--------|


E|--------|--------|--------|--------|--------|--------|--------|--------|--------|
B|--------|--------|--------|--------|--------|--------|--------|--------|--------|
G|--------|--------|--------|--------|--------|--------|--------|--------|--------|
D|--------|--------|--------|--------|--------|--------|--------|--------|--------|
A|--------|--------|--------|--------|--------|--------|--------|--------|--------|
E|--------|--------|--------|--------|--------|--------|--------|--------|--------|


E|--------|--------|--------|--------|--------|--------|--------|--------|--------|
B|--------|--------|--------|--------|--------|--------|--------|--------|--------|
G|--------|--------|--------|--------|--------|--------|--------|--------|--------|
D|--------|--------|--------|--------|--------|--------|--------|--------|--------|
A|--------|--------|--------|--------|--------|--------|--------|--------|--------|
E|--------|--------|--------|--------|--------|--------|--------|--------|--------|


E|--------|--------|--------|--------|--------|--------|--------|--------|--------|
B|--------|--------|--------|--------|--------|--------|--------|--------|--------|
G|--------|--------|--------|--------|--------|--------|--------|--------|--------|
D|--------|--------|--------|--------|--------|--------|--------|--------|--------|
A|--------|--------|--------|--------|--------|--------|--------|--------|--------|
E|--------|--------|--------|--------|--------|--------|--------|--------|--------|


E|--------|--------|--------|--------|--------|--------|--------|--------|--------|
B|--------|--------|--------|--------|--------|--------|--------|--------|--------|
G|--------|--------|--------|--------|--------|--------|--------|--------|--------|
D|--------|--------|--------|--------|--------|--------|--------|--------|--------|
A|--------|--------|--------|--------|--------|--------|--------|--------|--------|
E|--------|--------|--------|--------|--------|--------|--------|--------|--------|


E|--------|--------|--------|--------|--------|--------|--------|--------|--------|
B|--------|--------|--------|--------|--------|--------|--------|--------|--------|
G|--------|--------|--------|--------|--------|--------|--------|--------|--------|
D|--------|--------|--------|--------|--------|--------|--------|--------|--------|
A|--------|--------|--------|--------|--------|--------|--------|--------|--------|
E|--------|--------|--------|--------|--------|--------|--------|--------|--------|


E|--------|--------|--------|--------|--------|--------|--------|--------|--------|
B|--------|--------|--------|--------|--------|--------|--------|--------|--------|
G|--------|--------|--------|--------|--------|--------|--------|--------|--------|
D|--------|--------|--------|--------|--------|--------|--------|--------|--------|
A|--------|--------|--------|--------|--------|--------|--------|--------|--------|
E|--------|--------|--------|--------|--------|--------|--------|--------|--------|


E|--------|--------|--------|--------|--------|--------|--------|--------|--------|
B|--------|--------|--------|--------|--------|--------|--------|--------|--------|
G|--------|--------|--------|--------|--------|--------|--------|--------|--------|
D|--------|--------|--------|--------|--------|--------|--------|--------|--------|
A|--------|--------|--------|--------|--------|--------|--------|--------|--------|
E|--------|--------|--------|--------|--------|--------|--------|--------|--------|


E|--------|--------|--------|--------|--------|--------|--------|--------|--------|
B|--------|--------|--------|--------|--------|--------|--------|--------|--------|
G|--------|--------|--------|--------|--------|--------|--------|--------|--------|
D|--------|--------|--------|--------|--------|--------|--------|--------|--------|
A|--------|--------|--------|--------|--------|--------|--------|--------|--------|
E|--------|--------|--------|--------|--------|--------|--------|--------|--------|


E|--------|--------|--------|--------|--------|--------|--------|--------|--------|
B|--------|--------|--------|--------|--------|--------|--------|--------|--------|
G|--------|--------|--------|--------|--------|--------|--------|--------|--------|
D|--------|--------|--------|--------|--------|--------|--------|--------|--------|
A|--------|--------|--------|--------|--------|--------|--------|--------|--------|
E|--------|--------|--------|--------|--------|--------|--------|--------|--------|


E|--------|--------|--------|--------|--------|--------|--------|--------|--------|
B|--------|--------|--------|--------|--------|--------|--------|--------|--------|
G|--------|--------|--------|--------|--------|--------|--------|--------|--------|
D|--------|--------|--------|--------|--------|--------|--------|--------|--------|
A|--------|--------|--------|--------|--------|--------|--------|--------|--------|
E|--------|--------|--------|--------|--------|--------|--------|--------|--------|


E|--------|--------|--------|--------|--------|--------|--------|--------|--------|
B|--------|--------|--------|--------|--------|--------|--------|--------|--------|
G|--------|--------|--------|--------|--------|--------|--------|--------|--------|
D|--------|--------|--------|--------|--------|--------|--------|--------|--------|
A|--------|--------|--------|--------|--------|--------|--------|--------|--------|
E|--------|--------|--------|--------|--------|--------|--------|--------|--------|


E|--------|--------|--------|--------|--------|--------|--------|--------|--------|
B|--------|--------|--------|--------|--------|--------|--------|--------|--------|
G|--------|--------|--------|--------|--------|--------|--------|--------|--------|
D|--------|--------|--------|--------|--------|--------|--------|--------|--------|
A|--------|--------|--------|--------|--------|--------|--------|--------|--------|
E|--------|--------|--------|--------|--------|--------|--------|--------|--------|


E|--------|--------|--------|--------|--------|
B|--------|--------|--------|--------|--------|
G|--------|--------|--------|--------|--------|
D|--------|--------|--------|--------|--------|
A|--------|--------|--------|--------|--------|
E|--------|--------|--------|--------|--------|





Track 5: Solo Harmonies

E|--------|--------|--------|--------|--------|--------|--------|--------|--------|
B|--------|--------|--------|--------|--------|--------|--------|--------|--------|
G|--------|--------|--------|--------|--------|--------|--------|--------|--------|
D|--------|--------|--------|--------|--------|--------|--------|--------|--------|
A|--------|--------|--------|--------|--------|--------|--------|--------|--------|
E|--------|--------|--------|--------|--------|--------|--------|--------|--------|


E|--------|--------|--------|--------|--------|--------|--------|--------|--------|
B|--------|--------|--------|--------|--------|--------|--------|--------|--------|
G|--------|--------|--------|--------|--------|--------|--------|--------|--------|
D|--------|--------|--------|--------|--------|--------|--------|--------|--------|
A|--------|--------|--------|--------|--------|--------|--------|--------|--------|
E|--------|--------|--------|--------|--------|--------|--------|--------|--------|


E|--------|--------|--------|--------|--------|--------|--------|--------|--------|
B|--------|--------|--------|--------|--------|--------|--------|--------|--------|
G|--------|--------|--------|--------|--------|--------|--------|--------|--------|
D|--------|--------|--------|--------|--------|--------|--------|--------|--------|
A|--------|--------|--------|--------|--------|--------|--------|--------|--------|
E|--------|--------|--------|--------|--------|--------|--------|--------|--------|


E|--------|--------|--------|--------|--------|--------|--------|--------|--------|
B|--------|--------|--------|--------|--------|--------|--------|--------|--------|
G|--------|--------|--------|--------|--------|--------|--------|--------|--------|
D|--------|--------|--------|--------|--------|--------|--------|--------|--------|
A|--------|--------|--------|--------|--------|--------|--------|--------|--------|
E|--------|--------|--------|--------|--------|--------|--------|--------|--------|


E|--------|--------|--------|--------|--------|--------|--------|--------|--------|
B|--------|--------|--------|--------|--------|--------|--------|--------|--------|
G|--------|--------|--------|--------|--------|--------|--------|--------|--------|
D|--------|--------|--------|--------|--------|--------|--------|--------|--------|
A|--------|--------|--------|--------|--------|--------|--------|--------|--------|
E|--------|--------|--------|--------|--------|--------|--------|--------|--------|


E|--------|--------|--------|--------|--------|--------|--------|--------|--------|
B|--------|--------|--------|--------|--------|--------|--------|--------|--------|
G|--------|--------|--------|--------|--------|--------|--------|--------|--------|
D|--------|--------|--------|--------|--------|--------|--------|--------|--------|
A|--------|--------|--------|--------|--------|--------|--------|--------|--------|
E|--------|--------|--------|--------|--------|--------|--------|--------|--------|


E|--------|--------|--------|--------|--------|--------|--------|--------|--------|
B|--------|--------|--------|--------|--------|--------|--------|--------|--------|
G|--------|--------|--------|--------|--------|--------|--------|--------|--------|
D|--------|--------|--------|--------|--------|--------|--------|--------|--------|
A|--------|--------|--------|--------|--------|--------|--------|--------|--------|
E|--------|--------|--------|--------|--------|--------|--------|--------|--------|


E|--------|--------|--------|--------|--------|--------|--------|--------|--------|
B|--------|--------|--------|--------|--------|--------|--------|--------|--------|
G|--------|--------|--------|--------|--------|--------|--------|--------|--------|
D|--------|--------|--------|--------|--------|--------|--------|--------|--------|
A|--------|--------|--------|--------|--------|--------|--------|--------|--------|
E|--------|--------|--------|--------|--------|--------|--------|--------|--------|


E|--------|--------|--------|--------|--------|--------|--------|--------|--------|
B|--------|--------|--------|--------|--------|--------|--------|--------|--------|
G|--------|--------|--------|--------|--------|--------|--------|--------|--------|
D|--------|--------|--------|--------|--------|--------|--------|--------|--------|
A|--------|--------|--------|--------|--------|--------|--------|--------|--------|
E|--------|--------|--------|--------|--------|--------|--------|--------|--------|


E|--------|--------|--------|--------|--------|--------|--------|--------|--------|
B|--------|--------|--------|--------|--------|--------|--------|--------|--------|
G|--------|--------|--------|--------|--------|--------|--------|--------|--------|
D|--------|--------|--------|--------|--------|--------|--------|--------|--------|
A|--------|--------|--------|--------|--------|--------|--------|--------|--------|
E|--------|--------|--------|--------|--------|--------|--------|--------|--------|


E|--------|--------|--------|--------|--------|--------|--------|--------|--------|
B|--------|--------|--------|--------|--------|--------|--------|--------|--------|
G|--------|--------|--------|--------|--------|--------|--------|--------|--------|
D|--------|--------|--------|--------|--------|--------|--------|--------|--------|
A|--------|--------|--------|--------|--------|--------|--------|--------|--------|
E|--------|--------|--------|--------|--------|--------|--------|--------|--------|


E|--------|--------|----------------|-13--11--13--14--13--14--16--14--16--18--16--18--|
B|--------|--------|--------11--14--|-------------------------------------------------|
G|--------|--------|----------------|-------------------------------------------------|
D|--------|--------|----------------|-------------------------------------------------|
A|--------|--------|----------------|-------------------------------------------------|
E|--------|--------|----------------|-------------------------------------------------|


E|-20----21--20--18--21---|--------|--------|--------|--------|--------|--------|-19-15-12-15-19-15-12-15-20-15-12-15-19-15-12-15-|
B|------------------------|--------|--------|--------|--------|--------|--------|-------------------------------------------------|
G|------------------------|--------|--------|--------|--------|--------|--------|-------------------------------------------------|
D|------------------------|--------|--------|--------|--------|--------|--------|-------------------------------------------------|
A|------------------------|--------|--------|--------|--------|--------|--------|-------------------------------------------------|
E|------------------------|--------|--------|--------|--------|--------|--------|-------------------------------------------------|


E|-17-14-10-14-17-14-10-14-19-14-10-14-17-14-10-14-|-19-15-12-15-19-15-12-15-19-14-10-14-19-14-10-14-|
B|-------------------------------------------------|-------------------------------------------------|
G|-------------------------------------------------|-------------------------------------------------|
D|-------------------------------------------------|-------------------------------------------------|
A|-------------------------------------------------|-------------------------------------------------|
E|-------------------------------------------------|-------------------------------------------------|


E|-19-17-15--14--15-17-19--------|--------|--------|--------|--------|--------|--------|
B|-------------------------------|--------|--------|--------|--------|--------|--------|
G|-------------------------------|--------|--------|--------|--------|--------|--------|
D|-------------------------------|--------|--------|--------|--------|--------|--------|
A|-------------------------------|--------|--------|--------|--------|--------|--------|
E|-------------------------------|--------|--------|--------|--------|--------|--------|


E|--------|--------|--------|--------|--------|--------|--------|--------|--------|
B|--------|--------|--------|--------|--------|--------|--------|--------|--------|
G|--------|--------|--------|--------|--------|--------|--------|--------|--------|
D|--------|--------|--------|--------|--------|--------|--------|--------|--------|
A|--------|--------|--------|--------|--------|--------|--------|--------|--------|
E|--------|--------|--------|--------|--------|--------|--------|--------|--------|


E|--------|--------|--------|--------|--------|--------|--------|--------|--------|
B|--------|--------|--------|--------|--------|--------|--------|--------|--------|
G|--------|--------|--------|--------|--------|--------|--------|--------|--------|
D|--------|--------|--------|--------|--------|--------|--------|--------|--------|
A|--------|--------|--------|--------|--------|--------|--------|--------|--------|
E|--------|--------|--------|--------|--------|--------|--------|--------|--------|


E|--------|--------|--------|--------|--------|--------|--------|--------|--------|
B|--------|--------|--------|--------|--------|--------|--------|--------|--------|
G|--------|--------|--------|--------|--------|--------|--------|--------|--------|
D|--------|--------|--------|--------|--------|--------|--------|--------|--------|
A|--------|--------|--------|--------|--------|--------|--------|--------|--------|
E|--------|--------|--------|--------|--------|--------|--------|--------|--------|


E|--------|--------|--------|--------|--------|--------|--------|--------|--------|
B|--------|--------|--------|--------|--------|--------|--------|--------|--------|
G|--------|--------|--------|--------|--------|--------|--------|--------|--------|
D|--------|--------|--------|--------|--------|--------|--------|--------|--------|
A|--------|--------|--------|--------|--------|--------|--------|--------|--------|
E|--------|--------|--------|--------|--------|--------|--------|--------|--------|


E|--------|--------|--------|--------|--------|--------|--------|--------|--------|
B|--------|--------|--------|--------|--------|--------|--------|--------|--------|
G|--------|--------|--------|--------|--------|--------|--------|--------|--------|
D|--------|--------|--------|--------|--------|--------|--------|--------|--------|
A|--------|--------|--------|--------|--------|--------|--------|--------|--------|
E|--------|--------|--------|--------|--------|--------|--------|--------|--------|


E|--------|--------|--------|--------|--------|--------|--------|--------|--------|
B|--------|--------|--------|--------|--------|--------|--------|--------|--------|
G|--------|--------|--------|--------|--------|--------|--------|--------|--------|
D|--------|--------|--------|--------|--------|--------|--------|--------|--------|
A|--------|--------|--------|--------|--------|--------|--------|--------|--------|
E|--------|--------|--------|--------|--------|--------|--------|--------|--------|


E|--------|--------|--------|--------|--------|--------|--------|--------|--------|
B|--------|--------|--------|--------|--------|--------|--------|--------|--------|
G|--------|--------|--------|--------|--------|--------|--------|--------|--------|
D|--------|--------|--------|--------|--------|--------|--------|--------|--------|
A|--------|--------|--------|--------|--------|--------|--------|--------|--------|
E|--------|--------|--------|--------|--------|--------|--------|--------|--------|


E|--------|--------|--------|--------|--------|--------|--------|--------|--------|
B|--------|--------|--------|--------|--------|--------|--------|--------|--------|
G|--------|--------|--------|--------|--------|--------|--------|--------|--------|
D|--------|--------|--------|--------|--------|--------|--------|--------|--------|
A|--------|--------|--------|--------|--------|--------|--------|--------|--------|
E|--------|--------|--------|--------|--------|--------|--------|--------|--------|


E|--------|--------|--------|--------|--------|
B|--------|--------|--------|--------|--------|
G|--------|--------|--------|--------|--------|
D|--------|--------|--------|--------|--------|
A|--------|--------|--------|--------|--------|
E|--------|--------|--------|--------|--------|





Track 6: Flute

E|-13--15--13------------|---------------------------|-----------------|-------------------------13--15--|
B|-------------15--15----|-15------15--16--18----16--|-15----13--------|-----13--15--13--15--16----------|
G|-----------------------|-----17--------------------|-----------15----|-15------------------------------|
D|-----------------------|---------------------------|-----------------|---------------------------------|
A|-----------------------|---------------------------|-----------------|---------------------------------|
E|-----------------------|---------------------------|-----------------|---------------------------------|


E|-16----15--13----|-17--15--17--18--20----17--|-18--17--15----17--15--|-13--------------|
B|-----------------|---------------------------|-----------------------|-------15---16---|
G|-----------------|---------------------------|-----------------------|-----------------|
D|-----------------|---------------------------|-----------------------|-----------------|
A|-----------------|---------------------------|-----------------------|-----------------|
E|-----------------|---------------------------|-----------------------|-----------------|


E|--------|-15-----|-13--15--13------------|---------------------------|-----------------|
B|-15-----|--------|-------------15--15----|-15------15--16--18----16--|-15----13--------|
G|--------|--------|-----------------------|-----17--------------------|-----------15----|
D|--------|--------|-----------------------|---------------------------|-----------------|
A|--------|--------|-----------------------|---------------------------|-----------------|
E|--------|--------|-----------------------|---------------------------|-----------------|


E|-------------------------13--15--|-16----15--13----|-17--15--17--18--20----17--|
B|-----13--15--13--15--16----------|-----------------|---------------------------|
G|-15------------------------------|-----------------|---------------------------|
D|---------------------------------|-----------------|---------------------------|
A|---------------------------------|-----------------|---------------------------|
E|---------------------------------|-----------------|---------------------------|


E|-18--17--15----17--15--|-13--------------|-------------|--------|--------|--------|
B|-----------------------|-------15---16---|-15----15----|--------|--------|--------|
G|-----------------------|-----------------|-------------|--------|--------|--------|
D|-----------------------|-----------------|-------------|--------|--------|--------|
A|-----------------------|-----------------|-------------|--------|--------|--------|
E|-----------------------|-----------------|-------------|--------|--------|--------|


E|--------|--------|--------|--------|--------|--------|--------|--------|--------|
B|--------|--------|--------|--------|--------|--------|--------|--------|--------|
G|--------|--------|--------|--------|--------|--------|--------|--------|--------|
D|--------|--------|--------|--------|--------|--------|--------|--------|--------|
A|--------|--------|--------|--------|--------|--------|--------|--------|--------|
E|--------|--------|--------|--------|--------|--------|--------|--------|--------|


E|--------|--------|--------|--------|--------|--------|--------|--------|--------|
B|--------|--------|--------|--------|--------|--------|--------|--------|--------|
G|--------|--------|--------|--------|--------|--------|--------|--------|--------|
D|--------|--------|--------|--------|--------|--------|--------|--------|--------|
A|--------|--------|--------|--------|--------|--------|--------|--------|--------|
E|--------|--------|--------|--------|--------|--------|--------|--------|--------|


E|--------|--------|--------|--------|--------|--------|--------|--------|--------|
B|--------|--------|--------|--------|--------|--------|--------|--------|--------|
G|--------|--------|--------|--------|--------|--------|--------|--------|--------|
D|--------|--------|--------|--------|--------|--------|--------|--------|--------|
A|--------|--------|--------|--------|--------|--------|--------|--------|--------|
E|--------|--------|--------|--------|--------|--------|--------|--------|--------|


E|--------|--------|--------|--------|--------|--------|--------|--------|--------|
B|--------|--------|--------|--------|--------|--------|--------|--------|--------|
G|--------|--------|--------|--------|--------|--------|--------|--------|--------|
D|--------|--------|--------|--------|--------|--------|--------|--------|--------|
A|--------|--------|--------|--------|--------|--------|--------|--------|--------|
E|--------|--------|--------|--------|--------|--------|--------|--------|--------|


E|--------|--------|--------|--------|--------|--------|--------|--------|--------|
B|--------|--------|--------|--------|--------|--------|--------|--------|--------|
G|--------|--------|--------|--------|--------|--------|--------|--------|--------|
D|--------|--------|--------|--------|--------|--------|--------|--------|--------|
A|--------|--------|--------|--------|--------|--------|--------|--------|--------|
E|--------|--------|--------|--------|--------|--------|--------|--------|--------|


E|--------|--------|--------|--------|--------|--------|--------|--------|--------|
B|--------|--------|--------|--------|--------|--------|--------|--------|--------|
G|--------|--------|--------|--------|--------|--------|--------|--------|--------|
D|--------|--------|--------|--------|--------|--------|--------|--------|--------|
A|--------|--------|--------|--------|--------|--------|--------|--------|--------|
E|--------|--------|--------|--------|--------|--------|--------|--------|--------|


E|--------|--------|--------|--------|--------|--------|--------|--------|--------|
B|--------|--------|--------|--------|--------|--------|--------|--------|--------|
G|--------|--------|--------|--------|--------|--------|--------|--------|--------|
D|--------|--------|--------|--------|--------|--------|--------|--------|--------|
A|--------|--------|--------|--------|--------|--------|--------|--------|--------|
E|--------|--------|--------|--------|--------|--------|--------|--------|--------|


E|--------|--------|--------|--------|--------|---------------17--18--20--17--20--|
B|--------|--------|--------|--------|--------|-18--17-18-20----------------------|
G|--------|--------|--------|--------|--------|-----------------------------------|
D|--------|--------|--------|--------|--------|-----------------------------------|
A|--------|--------|--------|--------|--------|-----------------------------------|
E|--------|--------|--------|--------|--------|-----------------------------------|


E|-18----22---18---|---------------18--20--22--18--22--|-20--17-18-17--------------------------|
B|-----------------|-20--18-20-22----------------------|---------------20--18--17-18-20--18-17-|
G|-----------------|-----------------------------------|---------------------------------------|
D|-----------------|-----------------------------------|---------------------------------------|
A|-----------------|-----------------------------------|---------------------------------------|
E|-----------------|-----------------------------------|---------------------------------------|


E|---------------17--18--20--17--20--|-18----22---18---|---------------18--20--22--18--22--|
B|-18--17-18-20----------------------|-----------------|-20--18-20-22----------------------|
G|-----------------------------------|-----------------|-----------------------------------|
D|-----------------------------------|-----------------|-----------------------------------|
A|-----------------------------------|-----------------|-----------------------------------|
E|-----------------------------------|-----------------|-----------------------------------|


E|-20--17-18-17-----------20---|-18----------|--------|--------|--------|--------|
B|---------------20--18--------|-------------|--------|--------|--------|--------|
G|-----------------------------|-------------|--------|--------|--------|--------|
D|-----------------------------|-------------|--------|--------|--------|--------|
A|-----------------------------|-------------|--------|--------|--------|--------|
E|-----------------------------|-------------|--------|--------|--------|--------|


E|--------|--------|--------|--------|--------|--------|--------|--------|--------|
B|--------|--------|--------|--------|--------|--------|--------|--------|--------|
G|--------|--------|--------|--------|--------|--------|--------|--------|--------|
D|--------|--------|--------|--------|--------|--------|--------|--------|--------|
A|--------|--------|--------|--------|--------|--------|--------|--------|--------|
E|--------|--------|--------|--------|--------|--------|--------|--------|--------|


E|--------|--------|----------------|-------14----|-12-----10--12--|-10-----|----------------|
B|--------|--------|-13-----12--13--|-16----------|----------------|--------|-13-----12--13--|
G|--------|--------|----------------|-------------|----------------|--------|----------------|
D|--------|--------|----------------|-------------|----------------|--------|----------------|
A|--------|--------|----------------|-------------|----------------|--------|----------------|
E|--------|--------|----------------|-------------|----------------|--------|----------------|


E|-------14----|-15-----14--15--|-14-----|-15----17--18----|-22--20--18----------------------|
B|-15----------|----------------|--------|-----------------|-------------22--20--18----------|
G|-------------|----------------|--------|-----------------|-------------------------20--19--|
D|-------------|----------------|--------|-----------------|---------------------------------|
A|-------------|----------------|--------|-----------------|---------------------------------|
E|-------------|----------------|--------|-----------------|---------------------------------|


E|-----------------|---------------------------------|---------------------|------18---20--------|
B|-----------18----|-18--20--18------18--------------|-18--------18----21--|-22-------------22---|
G|-------19--------|-------------20------20--19--17--|-------20------------|---------------------|
D|-20--------------|---------------------------------|---------------------|---------------------|
A|-----------------|---------------------------------|---------------------|---------------------|
E|-----------------|---------------------------------|---------------------|---------------------|


E|-18----17---15---|-------18---20---|--------|--------|--------|--------|--------|
B|-----------------|-18--------------|-20-----|--------|--------|--------|--------|
G|-----------------|-----------------|--------|--------|--------|--------|--------|
D|-----------------|-----------------|--------|--------|--------|--------|--------|
A|-----------------|-----------------|--------|--------|--------|--------|--------|
E|-----------------|-----------------|--------|--------|--------|--------|--------|


E|--------|--------|--------|--------|--------|--------|--------|--------|--------|
B|--------|--------|--------|--------|--------|--------|--------|--------|--------|
G|--------|--------|--------|--------|--------|--------|--------|--------|--------|
D|--------|--------|--------|--------|--------|--------|--------|--------|--------|
A|--------|--------|--------|--------|--------|--------|--------|--------|--------|
E|--------|--------|--------|--------|--------|--------|--------|--------|--------|


E|--------|--------|--------|--------|--------|--------|--------|--------|--------|
B|--------|--------|--------|--------|--------|--------|--------|--------|--------|
G|--------|--------|--------|--------|--------|--------|--------|--------|--------|
D|--------|--------|--------|--------|--------|--------|--------|--------|--------|
A|--------|--------|--------|--------|--------|--------|--------|--------|--------|
E|--------|--------|--------|--------|--------|--------|--------|--------|--------|


E|--------|--------|--------|--------|--------|--------|--------|--------|--------|
B|--------|--------|--------|--------|--------|--------|--------|--------|--------|
G|--------|--------|--------|--------|--------|--------|--------|--------|--------|
D|--------|--------|--------|--------|--------|--------|--------|--------|--------|
A|--------|--------|--------|--------|--------|--------|--------|--------|--------|
E|--------|--------|--------|--------|--------|--------|--------|--------|--------|


E|--------|--------|--------|--------|--------|--------|--------|--------|--------|
B|--------|--------|--------|--------|--------|--------|--------|--------|--------|
G|--------|--------|--------|--------|--------|--------|--------|--------|--------|
D|--------|--------|--------|--------|--------|--------|--------|--------|--------|
A|--------|--------|--------|--------|--------|--------|--------|--------|--------|
E|--------|--------|--------|--------|--------|--------|--------|--------|--------|


E|--------|--------|--------|--------|--------|--------|--------|--------|--------|
B|--------|--------|--------|--------|--------|--------|--------|--------|--------|
G|--------|--------|--------|--------|--------|--------|--------|--------|--------|
D|--------|--------|--------|--------|--------|--------|--------|--------|--------|
A|--------|--------|--------|--------|--------|--------|--------|--------|--------|
E|--------|--------|--------|--------|--------|--------|--------|--------|--------|


E|--------|--------|--------|--------|--------|--------|--------|--------|--------|
B|--------|--------|--------|--------|--------|--------|--------|--------|--------|
G|--------|--------|--------|--------|--------|--------|--------|--------|--------|
D|--------|--------|--------|--------|--------|--------|--------|--------|--------|
A|--------|--------|--------|--------|--------|--------|--------|--------|--------|
E|--------|--------|--------|--------|--------|--------|--------|--------|--------|


E|--------|--------|--------|--------|-13--15--13------------|---------------------------|
B|--------|--------|--------|--------|-------------15--15----|-15------15--16------------|
G|--------|--------|--------|--------|-----------------------|-----17----------17----15--|
D|--------|--------|--------|--------|-----------------------|---------------------------|
A|--------|--------|--------|--------|-----------------------|---------------------------|
E|--------|--------|--------|--------|-----------------------|---------------------------|


E|--------|-15-----|
B|--------|--------|
G|-12-----|-12-----|
D|--------|--------|
A|--------|--------|
E|--------|--------|





Track 7: Strings

E|-3------|-3------|-1------|-6------|-4-----4---4---4---4---|-5------|-3------|-6------|
B|--------|--------|--------|--------|-------------------6---|-6------|-4------|-6------|
G|-3------|-3------|-3------|-3------|-6-----6-------6---6---|-7------|--------|--------|
D|--------|--------|--------|--------|-----------6---6---6---|--------|--------|--------|
A|--------|--------|-1------|-1------|-4-----4---4---4---4---|-5------|-6------|-8------|
E|-3------|-3------|--------|--------|-----------------------|--------|--------|--------|


E|-10-----|-10-----|-15----17--18----|-22--20--18----------------------|-----------------|
B|-8------|-8------|-----------------|-------------22--20--18----------|-----------18----|
G|--------|--------|-----------------|-------------------------20--19--|-------19--------|
D|--------|--------|-----------------|---------------------------------|-20--------------|
A|-10-----|-10-----|-----------------|---------------------------------|-----------------|
E|--------|--------|-----------------|---------------------------------|-----------------|


E|---------------------------------|---------------------|------18---20--------|-18----17---15---|
B|-18--20--18------18--------------|-18--------18----21--|-22-------------22---|-----------------|
G|-------------20------20--19--17--|-------20------------|---------------------|-----------------|
D|---------------------------------|---------------------|---------------------|-----------------|
A|---------------------------------|---------------------|---------------------|-----------------|
E|---------------------------------|---------------------|---------------------|-----------------|


E|-------18---20---|--------|--------|--------|--------|--------|--------|--------|
B|-18--------------|-20-----|--------|--------|--------|--------|--------|--------|
G|-----------------|--------|--------|--------|--------|--------|--------|--------|
D|-----------------|--------|--------|--------|--------|--------|--------|--------|
A|-----------------|--------|--------|--------|--------|--------|--------|--------|
E|-----------------|--------|--------|--------|--------|--------|--------|--------|


E|--------|--------|--------|--------|-1------|-1--------------|--------1----|-5-----3----5----|
B|--------|--------|--------|-3------|--------|--------3---4---|-2-----------|-----------------|
G|--------|--------|-3------|--------|--------|----------------|-------------|-----------------|
D|--------|--------|--------|--------|--------|----------------|-------------|-----------------|
A|--------|--------|--------|--------|--------|----------------|-------------|-----------------|
E|--------|--------|--------|--------|--------|----------------|-------------|-----------------|


E|-6-----3-----|-1--------------|-6---------6---------|-5---------3---------|-3---------6---------|
B|-------------|--------4---6---|-8---------6---------|-4---------3---------|-4---------6---------|
G|-------------|--------5---7---|---------------------|---------------------|---------------------|
D|-------------|----------------|---------------------|---------------------|---------------------|
A|-------------|----------------|---------------------|---------------------|---------------------|
E|-------------|----------------|---------------------|---------------------|---------------------|


E|-5-------------------|-------------------------------------------------|-------------------------------------------------|
B|-6---------3---------|-------------------------------------------------|-------------------------------------------------|
G|-----------3---------|-------------------------------------------------|-5--5--5--5--3--3--3--3--------------------------|
D|---------------------|-3--3--3--3--6--6--6--6--5--5--5--5--6--6--6--6--|-------------------------6--6--6--6--5--5--5--5--|
A|---------------------|-------------------------------------------------|-------------------------------------------------|
E|---------------------|-------------------------------------------------|-------------------------------------------------|


E|-------------------------------------------------|-------------------------------------------------|
B|-------------------------------------3--3--3--3--|-------------3--3--3--3--1--1--1--1--------------|
G|-------------5--5--5--5--6--6--6--6--------------|-5--5--5--5--------------------------3--3--3--3--|
D|-6--6--6--6--------------------------------------|-------------------------------------------------|
A|-------------------------------------------------|-------------------------------------------------|
E|-------------------------------------------------|-------------------------------------------------|


E|-------------------------------------------------|-------------------------------------------------|
B|-------------3--3--3--3--6--6--6--6--------------|-7--7--7--7--3--3--3--3--------------3--3--3--3--|
G|-4--4--4--4--------------------------4--4--4--4--|-------------------------5--5--5--5--------------|
D|-------------------------------------------------|-------------------------------------------------|
A|-------------------------------------------------|-------------------------------------------------|
E|-------------------------------------------------|-------------------------------------------------|


E|-------------------------------------------------|-------------------------------------------------|
B|-------------5--5--5--5--8--8--8--8--7--7--7--7--|-8--8--8--8--------------------------------------|
G|-6--6--6--6--------------------------------------|-------------5--5--5--5--8--8--8--8--6--6--6--6--|
D|-------------------------------------------------|-------------------------------------------------|
A|-------------------------------------------------|-------------------------------------------------|
E|-------------------------------------------------|-------------------------------------------------|


E|-------------|------------|--------|--------|--------|--------|--------|--------|
B|-5-----------|------------|--------|--------|--------|--------|--------|--------|
G|-------------|--------5---|--------|--------|--------|--------|--------|--------|
D|-------------|-3----------|--------|--------|--------|--------|--------|--------|
A|-------------|------------|--------|--------|--------|--------|--------|--------|
E|-------------|------------|--------|--------|--------|--------|--------|--------|


E|--------|--------|--------|-1------|-1--------------|--------1----|-5-----3----5----|
B|--------|--------|-3------|--------|--------3---4---|-2-----------|-----------------|
G|--------|-3------|--------|--------|----------------|-------------|-----------------|
D|--------|--------|--------|--------|----------------|-------------|-----------------|
A|--------|--------|--------|--------|----------------|-------------|-----------------|
E|--------|--------|--------|--------|----------------|-------------|-----------------|


E|-6-----3-----|-1--------------|---------------------------------|---------------------------------|
B|-------------|--------4---6---|-------------------------9---12--|-10--14--------------------------|
G|-------------|--------5---7---|-9---13----------9---13----------|---------9---14----------9---14--|
D|-------------|----------------|---------9---14------------------|-----------------11--14----------|
A|-------------|----------------|---------------------------------|---------------------------------|
E|-------------|----------------|---------------------------------|---------------------------------|


E|-----------------|--------|---------------------------------|---------------------------------|
B|-7-----9----10---|-9------|-------------------------9---12--|-10--14--------------------------|
G|-----------------|--------|-9---13----------9---13----------|---------9---14----------9---14--|
D|-----------------|--------|---------9---14------------------|-----------------11--14----------|
A|-----------------|--------|---------------------------------|---------------------------------|
E|-----------------|--------|---------------------------------|---------------------------------|


E|-----------------|------------------------|-20-----|-22----23----|-23-----22--23--|
B|-7-----9----10---|-12---------9---10--12--|--------|-------------|----------------|
G|-----------------|-------9----------------|-17-----|-19----20----|-20-----19--20--|
D|-----------------|------------------------|--------|-------------|----------------|
A|-----------------|------------------------|--------|-------------|----------------|
E|-----------------|------------------------|--------|-------------|----------------|


E|-22----18----|-11----11--10--11--13--|-16----13----|-15-----|-15--13-13-15--16--19--16--18--22--|
B|-------------|-----------------------|-------------|--------|-----------------------------------|
G|-19----15----|-8-----8---7---8---10--|-13----10----|-12-----|-12--10-10-12--13--16--13--15--19--|
D|-------------|-----------------------|-------------|--------|-----------------------------------|
A|-------------|-----------------------|-------------|--------|-----------------------------------|
E|-------------|-----------------------|-------------|--------|-----------------------------------|


E|-23-----|-20----22---23---|-27-----25--23--|-22----15----|-20----20--15--16--18--|
B|--------|-----------------|----------------|-------------|-----------------------|
G|-20-----|-17----19---20---|-24-----22--20--|-19----12----|-17----17--12--13--15--|
D|--------|-----------------|----------------|-------------|-----------------------|
A|--------|-----------------|----------------|-------------|-----------------------|
E|--------|-----------------|----------------|-------------|-----------------------|


E|-16----20----|-19-----|-15----11----|-8------|-8-----------|--------|--------|--------|
B|-------------|--------|-------------|--------|-------------|--------|--------|--------|
G|-13----17----|-16-----|-12----8-----|-5------|-5-----------|--------|--------|--------|
D|-------------|--------|-------------|--------|-------------|--------|--------|--------|
A|-------------|--------|-------------|--------|-------------|--------|--------|--------|
E|-------------|--------|-------------|--------|-------------|--------|--------|--------|


E|--------|--------|--------|--------|--------|-13-----|-11-----|-------------|----------------|
B|--------|--------|--------|--------|--------|--------|--------|-14----13----|--------13--14--|
G|--------|--------|--------|--------|--------|--------|--------|-------------|-15-------------|
D|--------|--------|--------|--------|--------|--------|--------|-------------|----------------|
A|--------|--------|--------|--------|--------|--------|--------|-------------|----------------|
E|--------|--------|--------|--------|--------|--------|--------|-------------|----------------|


E|-13----16----|-17----18----|----------------20---|-18-----|-----------------|-------------|
B|-------------|-------------|-19---18---19--------|--------|-17----15--------|-------------|
G|-------------|-------------|---------------------|--------|-----------------|--------14---|
D|-------------|-------------|---------------------|--------|------------14---|-17----------|
A|-------------|-------------|---------------------|--------|-----------------|-------------|
E|-------------|-------------|---------------------|--------|-----------------|-------------|


E|-----------------|-------------|-20--20----------17--17--19--20--|-19--19----------15--15--17--19--|
B|-------15--------|-17----------|---------20--20------------------|---------19--19------------------|
G|-16---------14---|-------16----|-17--17--17--17--17--17--17--17--|-16--16--16--16--16--16--16--16--|
D|-----------------|-------------|---------------------------------|---------------------------------|
A|-----------------|-------------|---------------------------------|---------------------------------|
E|-----------------|-------------|---------------------------------|---------------------------------|


E|-20--20----------19--17--15--19--|-----------------12--------|---------------------|
B|---------20--20------------------|-------------12------------|-5-------------------|
G|-17--17--17--17--16--16--16--16--|-12------12----------------|-5-------------------|
D|---------------------------------|-----14--------------------|---------------------|
A|---------------------------------|---------------------------|-3---------3----7----|
E|---------------------------------|---------------------------|------3--------------|


E|-7-----------|-0-------------------|-------------|---------------------|-5-----------|
B|-------------|-0-------------------|-3-----3-----|-5-------------------|-------------|
G|-8-----------|----------------0----|-2-----4-----|-5-------------------|-7-----------|
D|-------------|-2---------2---------|-------------|---------------------|-------------|
A|-9-----------|------2--------------|-------------|-3---------3----7----|-9-----------|
E|-------7-----|---------------------|-2-----3-----|------3--------------|-------5-----|


E|-7---------12--------|-11-----|-------------------------------------------------|
B|-8---------12--------|-12-----|-------------------------------------------------|
G|---------------------|--------|-------------------------------------------------|
D|---------------------|--------|-3--3--3--3--6--6--6--6--5--5--5--5--6--6--6--6--|
A|-7--------------7----|--------|-------------------------------------------------|
E|------3----7---------|--------|-------------------------------------------------|


E|-------------------------------------------------|-------------------------------------------------|
B|-------------------------------------------------|-------------------------------------3--3--3--3--|
G|-5--5--5--5--3--3--3--3--------------------------|-------------5--5--5--5--6--6--6--6--------------|
D|-------------------------6--6--6--6--5--5--5--5--|-6--6--6--6--------------------------------------|
A|-------------------------------------------------|-------------------------------------------------|
E|-------------------------------------------------|-------------------------------------------------|


E|-------------------------------------------------|-------------------------------------------------|
B|-------------3--3--3--3--1--1--1--1--------------|-------------3--3--3--3--6--6--6--6--------------|
G|-5--5--5--5--------------------------3--3--3--3--|-4--4--4--4--------------------------4--4--4--4--|
D|-------------------------------------------------|-------------------------------------------------|
A|-------------------------------------------------|-------------------------------------------------|
E|-------------------------------------------------|-------------------------------------------------|


E|-------------------------------------------------|-------------------------------------------------|
B|-7--7--7--7--3--3--3--3--------------3--3--3--3--|-------------5--5--5--5--8--8--8--8--7--7--7--7--|
G|-------------------------5--5--5--5--------------|-6--6--6--6--------------------------------------|
D|-------------------------------------------------|-------------------------------------------------|
A|-------------------------------------------------|-------------------------------------------------|
E|-------------------------------------------------|-------------------------------------------------|


E|-------------------------------------------------|-------------|------------|--------|
B|-8--8--8--8--------------------------------------|-5-----------|------------|--------|
G|-------------5--5--5--5--8--8--8--8--6--6--6--6--|-------------|--------5---|--------|
D|-------------------------------------------------|-------------|-3----------|--------|
A|-------------------------------------------------|-------------|------------|--------|
E|-------------------------------------------------|-------------|------------|--------|


E|--------|--------|--------|--------|--------|--------|--------|--------|-1------|
B|--------|--------|--------|--------|--------|--------|--------|-3------|--------|
G|--------|--------|--------|--------|--------|--------|-3------|--------|--------|
D|--------|--------|--------|--------|--------|--------|--------|--------|--------|
A|--------|--------|--------|--------|--------|--------|--------|--------|--------|
E|--------|--------|--------|--------|--------|--------|--------|--------|--------|


E|-1--------------|--------1----|-5-----3----5----|-6-----3-----|-1--------------|
B|--------3---4---|-2-----------|-----------------|-------------|--------4---6---|
G|----------------|-------------|-----------------|-------------|--------5---7---|
D|----------------|-------------|-----------------|-------------|----------------|
A|----------------|-------------|-----------------|-------------|----------------|
E|----------------|-------------|-----------------|-------------|----------------|


E|-6---------6---------|-5---------3---------|-3---------6---------|-5-------------------|
B|-8---------6---------|-4---------3---------|-4---------6---------|-6---------3---------|
G|---------------------|---------------------|---------------------|-----------3---------|
D|---------------------|---------------------|---------------------|---------------------|
A|---------------------|---------------------|---------------------|---------------------|
E|---------------------|---------------------|---------------------|---------------------|


E|---------------------------------|---------------------------------|-----------------|
B|-------------------------9---12--|-10--14--------------------------|-7-----9----10---|
G|-9---13----------9---13----------|---------9---14----------9---14--|-----------------|
D|---------9---14------------------|-----------------11--14----------|-----------------|
A|---------------------------------|---------------------------------|-----------------|
E|---------------------------------|---------------------------------|-----------------|


E|--------|---------------------------------|---------------------------------|-----------------|
B|-9------|-------------------------9---12--|-10--14--------------------------|-7-----9----10---|
G|--------|-9---13----------9---13----------|---------9---14----------9---14--|-----------------|
D|--------|---------9---14------------------|-----------------11--14----------|-----------------|
A|--------|---------------------------------|---------------------------------|-----------------|
E|--------|---------------------------------|---------------------------------|-----------------|


E|------------------------|-20-----|-22----23----|-23-----22--23--|-22----18----|-11----11--10--11--13--|
B|-12---------9---10--12--|--------|-------------|----------------|-------------|-----------------------|
G|-------9----------------|-17-----|-19----20----|-20-----19--20--|-19----15----|-8-----8---7---8---10--|
D|------------------------|--------|-------------|----------------|-------------|-----------------------|
A|------------------------|--------|-------------|----------------|-------------|-----------------------|
E|------------------------|--------|-------------|----------------|-------------|-----------------------|


E|-16----13----|-15-----|-15--13-13-15--16--19--16--18--22--|-23-----|-20----22---23---|
B|-------------|--------|-----------------------------------|--------|-----------------|
G|-13----10----|-12-----|-12--10-10-12--13--16--13--15--19--|-20-----|-17----19---20---|
D|-------------|--------|-----------------------------------|--------|-----------------|
A|-------------|--------|-----------------------------------|--------|-----------------|
E|-------------|--------|-----------------------------------|--------|-----------------|


E|-27-----25--23--|-22----15----|-20----20--15--16--18--|-16----20----|-19-----|-15----11----|
B|----------------|-------------|-----------------------|-------------|--------|-------------|
G|-24-----22--20--|-19----12----|-17----17--12--13--15--|-13----17----|-16-----|-12----8-----|
D|----------------|-------------|-----------------------|-------------|--------|-------------|
A|----------------|-------------|-----------------------|-------------|--------|-------------|
E|----------------|-------------|-----------------------|-------------|--------|-------------|


E|-22-----|-24----25----|-25-----24--25--|-24----20----|-13----13--12--13--15--|-18----15----|
B|--------|-------------|----------------|-------------|-----------------------|-------------|
G|-19-----|-21----22----|-22-----21--22--|-21----17----|-10----10--9---10--12--|-15----12----|
D|--------|-------------|----------------|-------------|-----------------------|-------------|
A|--------|-------------|----------------|-------------|-----------------------|-------------|
E|--------|-------------|----------------|-------------|-----------------------|-------------|


E|-17-----|-17--15-15-17--18--21--18--20--24--|-25-----|-22----24---25---|-29-----27--25--|
B|--------|-----------------------------------|--------|-----------------|----------------|
G|-14-----|-14--12-12-14--15--18--15--17--21--|-22-----|-19----21---22---|-26-----24--22--|
D|--------|-----------------------------------|--------|-----------------|----------------|
A|--------|-----------------------------------|--------|-----------------|----------------|
E|--------|-----------------------------------|--------|-----------------|----------------|


E|-24----17----|-22----22--17--18--20--|-18----22----|-21-----|-17----13----|-10-----|
B|-------------|-----------------------|-------------|--------|-------------|--------|
G|-21----14----|-19----19--14--15--17--|-15----19----|-18-----|-14----10----|-7------|
D|-------------|-----------------------|-------------|--------|-------------|--------|
A|-------------|-----------------------|-------------|--------|-------------|--------|
E|-------------|-----------------------|-------------|--------|-------------|--------|


E|-10----------|-3------|-3------|-3------|-3------|
B|-------------|--------|--------|--------|--------|
G|-7-----------|-3------|-3------|-3------|-3------|
D|-------------|--------|--------|--------|--------|
A|-------------|--------|--------|--------|--------|
E|-------------|-3------|-3------|-3------|-3------|





Track 8: Bass

G|--------|--------|--------|--------|--------|--------|--------|--------|--------|
D|--------|--------|--------|--------|--------|--------|--------|--------|--------|
A|--------|--------|--------|--------|--------|--------|--------|--------|--------|
E|--------|--------|--------|--------|--------|--------|--------|--------|--------|


G|--------|-------------------------------------------------|-------------------------------------------------|
D|--------|-------------------------------------------------|-------------------------------------------------|
A|--------|-------------------------------------------------|-5--5--5--5--3--3--3--3--------------------------|
E|--------|-3--3--3--3--6--6--6--6--5--5--5--5--6--6--6--6--|-------------------------6--6--6--6--5--5--5--5--|


G|-------------------------------------------------|-------------------------------------------------|
D|-------------------------------------3--3--3--3--|-------------3--3--3--3--1--1--1--1--------------|
A|-------------5--5--5--5--6--6--6--6--------------|-5--5--5--5--------------------------3--3--3--3--|
E|-6--6--6--6--------------------------------------|-------------------------------------------------|


G|-------------------------------------------------|-------------------------------------------------|
D|-------------3--3--3--3--6--6--6--6--------------|-7--7--7--7--3--3--3--3--------------3--3--3--3--|
A|-4--4--4--4--------------------------4--4--4--4--|-------------------------5--5--5--5--------------|
E|-------------------------------------------------|-------------------------------------------------|


G|-------------------------------------------------|-------------------------------------------------|
D|-------------5--5--5--5--8--8--8--8--7--7--7--7--|-8--8--8--8--------------------------------------|
A|-6--6--6--6--------------------------------------|-------------5--5--5--5--8--8--8--8--6--6--6--6--|
E|-------------------------------------------------|-------------------------------------------------|


G|-------------|------------|------------|------------|------------|------------|-7----------|
D|-5-----------|------------|-5----------|------------|-3----------|--------6---|--------5---|
A|-------------|--------5---|--------5---|--------5---|--------5---|-4----------|------------|
E|-------------|-3----------|------------|-6----------|------------|------------|------------|


G|------------|------------|---------------------------------|---------------------------------|
D|--------5---|-8----------|---------------------5-----------|---------------------5-----------|
A|-6----------|--------5---|---------5-----------------------|---------5-----------------------|
E|------------|------------|-3---3-------3---3-------3---3---|-3---3-------3---3-------3---3---|


G|---------------------------------|---------------------------------|---------------------------------|
D|---------------------3-----------|---------------------3-----------|---------3-----------6-----------|
A|---------5-----------------------|---------5-----------------------|-4---4-------4---4-------4---4---|
E|-6---6-------6---6-------6---6---|-6---6-------6---6-------6---6---|---------------------------------|


G|---------------------------------|---------------------------------|---------------------------------|
D|---------3-----------7-----------|---------5-------8---------------|---------------------3-----------|
A|-5---5-------5---5-------5---5---|-6---6-------6-------------------|---------5---------------3---5---|
E|---------------------------------|---------------------1---3---5---|-6---6-------6---6---------------|


G|---------------------|---------------------|---------------------|---------------------|
D|---------------------|---------------------|---------------------|---------------------|
A|-6-------------------|---------------------|-6-------------------|-----------1---------|
E|-----------6---------|-5---------3---------|-----------6---------|-1-------------------|


G|-13--15--13------------|---------------------------|-----------------|-------------------------13--15--|
D|-------------15--15----|-15------15--16--18----16--|-15----13--------|-----13--15--13--15--16----------|
A|-----------------------|-----17--------------------|-----------15----|-15------------------------------|
E|-----------------------|---------------------------|-----------------|---------------------------------|


G|-16----15--13----|-17--15--17--18--20----17--|-18--17--15----17--15--|-13--------------|
D|-----------------|---------------------------|-----------------------|-------15---16---|
A|-----------------|---------------------------|-----------------------|-----------------|
E|-----------------|---------------------------|-----------------------|-----------------|


G|-------------|--------|------------|------------|------------|------------|-7----------|
D|-15----15----|--------|-5----------|------------|-3----------|--------6---|--------5---|
A|-------------|--------|--------5---|--------5---|--------5---|-4----------|------------|
E|-------------|--------|------------|-6----------|------------|------------|------------|


G|------------|------------|---------------------------------|---------------------------------|
D|--------5---|-8----------|---------------------5-----------|---------------------5-----------|
A|-6----------|--------5---|---------5-----------------------|---------5-----------------------|
E|------------|------------|-3---3-------3---3-------3---3---|-3---3-------3---3-------3---3---|


G|---------------------------------|---------------------------------|---------------------------------|
D|---------------------3-----------|---------------------3-----------|---------3-----------6-----------|
A|---------5-----------------------|---------5-----------------------|-4---4-------4---4-------4---4---|
E|-6---6-------6---6-------6---6---|-6---6-------6---6-------6---6---|---------------------------------|


G|---------------------------------|---------------------------------|---------------------------------|
D|---------3-----------7-----------|---------5-------8---------------|---------------------3-----------|
A|-5---5-------5---5-------5---5---|-6---6-------6-------------------|---------5---------------3---5---|
E|---------------------------------|---------------------1---3---5---|-6---6-------6---6---------------|


G|---------------------------------|---------------------------------|---------------------------------|
D|---------------------------------|---------------------------------|---------------------------------|
A|-7---7---7---7---7---7---7---7---|---------------------------------|---------------------------------|
E|---------------------------------|-5---5---5---5---5---5---5---5---|-2---2---2---2---2---2---2---2---|


G|---------------------------------|---------------------------------|---------------------------------|
D|---------------------------------|---------------------------------|---------------------------------|
A|-4---4---4---4---4---4---4---4---|-7---7---7---7---7---7---7---7---|---------------------------------|
E|---------------------------------|---------------------------------|-5---5---5---5---5---5---5---5---|


G|---------------------------------|------------------------|-------------------------------------------------|
D|---------------------------------|------------------------|-------------------------5--5--5--5--5--5--5--5--|
A|---------------------------------|------------------------|-3--3--3--3--3--3--3--3--------------------------|
E|-2---2---2---2---2---2---2---2---|-0---0---0---0----------|-------------------------------------------------|


G|-------------------------------------------------|-------------------------------------------------|
D|-------------------------5--5--5--5--5--5--5--5--|-------------------------8--8--8--8--8--8--8--8--|
A|-6--6--6--6--6--6--6--6--------------------------|-6--6--6--6--6--6--6--6--------------------------|
E|-------------------------------------------------|-------------------------------------------------|


G|-------------------------------------------------|-------------------------------------------------|
D|-5--5--5--5--5--5--5--5--------------------------|-------------------------------------------------|
A|-------------------------5--5--5--5--5--5--5--5--|-------------------------3--3--3--3--3--3--3--3--|
E|-------------------------------------------------|-4--4--4--4--4--4--4--4--------------------------|


G|-------------------------------------------------|-------------------------------------------------|
D|-------------------------------------------------|-------------------------------------------------|
A|-------------------------3--3--3--3--3--3--3--3--|-------------------------------------------------|
E|-1--1--1--1--1--1--1--1--------------------------|-3--3--3--3--3--3--3--3--6--6--6--6--6--6--6--6--|


G|-------------------------------------------------|-------------------------------------------------|
D|-------------------------5--5--5--5--5--5--5--5--|-------------------------5--5--5--5--5--5--5--5--|
A|-5--5--5--5--5--5--5--5--------------------------|-3--3--3--3--3--3--3--3--------------------------|
E|-------------------------------------------------|-------------------------------------------------|


G|-------------------------------------------------|-------------------------------------------------|
D|-------------------------5--5--5--5--5--5--5--5--|-------------------------8--8--8--8--8--8--8--8--|
A|-6--6--6--6--6--6--6--6--------------------------|-6--6--6--6--6--6--6--6--------------------------|
E|-------------------------------------------------|-------------------------------------------------|


G|-------------------------------------------------|-------------------------------------------------|
D|-5--5--5--5--5--5--5--5--------------------------|-------------------------------------------------|
A|-------------------------5--5--5--5--5--5--5--5--|-------------------------3--3--3--3--3--3--3--3--|
E|-------------------------------------------------|-4--4--4--4--4--4--4--4--------------------------|


G|-------------------------------------------------|-------------------------------------------------|
D|-------------------------------------------------|-------------------------------------------------|
A|-------------------------3--3--3--3--3--3--3--3--|-------------------------------------------------|
E|-1--1--1--1--1--1--1--1--------------------------|-3--3--3--3--3--3--3--3--7--7--7--7--7--7--7--7--|


G|-------------------------------------------------|-------------------------------------------------|
D|-------------------------5--5--5--5--5--5--5--5--|-------------------------------5--5--------------|
A|-5--5--5--5--5--5--5--5--------------------------|-3--3--3--3--3--3--3--3--3--3--------6--6--------|
E|-------------------------------------------------|-------------------------------------------6--6--|


G|---------------------------|---------------------|---------------------|---------------------|
D|---------------------------|------3--------------|---------------------|------5--------------|
A|-3---------3---6---5---6---|-----------3----0----|-1--------------0----|-----------5---------|
E|---------------------------|-1-------------------|------1----3---------|-3--------------6----|


G|---------------------|---------------------|---------------------|---------------------|
D|---------------------|------3--------------|---------------------|------5--------------|
A|-3--------------0----|-----------3----0----|-1--------------0----|-----------5---------|
E|------3----1---------|-1-------------------|------1----3---------|-3--------------6----|


G|---------------------|---------------------------------|---------------------------------|
D|---------------------|---------------------------------|---------------------------------|
A|-3-------------------|-1---1---1---1---1---1---1---1---|---------------------------------|
E|------3----1---------|---------------------------------|-4---4---4---4---4---4---4---4---|


G|---------------------------------|---------------------------------|-----------------------------------|
D|---------------------------------|---------------------------------|-----------------------------------|
A|-4---4---4---4-------------------|-1---1---1---1---1---1---1---1---|-4----4---4---4---4----4---4---4---|
E|-----------------1---1---1---1---|---------------------------------|-----------------------------------|


G|---------------------------------|-----------------------------------|---------------------------------|
D|---------------------------------|-----------------------------------|---------------------------------|
A|-----------------1---1---1---1---|-----------------------------------|-1---1---1---1---1---1---1---1---|
E|-1---1---1---1-------------------|-2----2---2---2---4----4---4---4---|---------------------------------|


G|---------------------------------|---------------------------------|---------------------------------|
D|---------------------------------|-----------------5---5-----------|-------------------------4---4---|
A|-----------------7---7---7---7---|-------------------------5---5---|-----------------5---5-----------|
E|-0---0---0---0-------------------|-3---3---3---3-------------------|-7---7---7---7-------------------|


G|---------------------------------|---------------------------------|---------------------------------|
D|---------------------------------|---------------------------------|---------------------------------|
A|-7---7---7---7-------------------|-3---3-----------0---0---2---3---|-2---2-------------------0---2---|
E|-----------------7---7---3---3---|---------3---3-------------------|---------2---2---3---3-----------|


G|---------------------------------|---------------------0---2---4---|-5------|-4------|
D|---------------------------------|-----------------2---------------|--------|--------|
A|-3---3-----------2---2-----------|---------2-----------------------|-3------|-2------|
E|---------3---3-----------3---3---|-0---0-------0-------------------|--------|--------|


G|------4----2---------|-------------|-5------|-7------|----------------9----|-8------|
D|-2--------------5----|-4-----5-----|--------|--------|-2----5----9---------|--------|
A|------2----0---------|-------------|-3------|-5------|----------------7----|--------|
E|-0--------------3----|-2-----3-----|--------|--------|-0----3----7---------|-7------|


G|-13--15--13------------|---------------------------|-----------------|-------------------------13--15--|
D|-------------15--15----|-15------15--16--18----16--|-15----13--------|-----13--15--13--15--16----------|
A|-----------------------|-----17--------------------|-----------15----|-15------------------------------|
E|-----------------------|---------------------------|-----------------|---------------------------------|


G|-16----15--13----|-17--15--17--18--20----17--|-18--17--15----17--15--|-13--------------|
D|-----------------|---------------------------|-----------------------|-------15---16---|
A|-----------------|---------------------------|-----------------------|-----------------|
E|-----------------|---------------------------|-----------------------|-----------------|


G|-------------|--------|------------|------------|------------|------------|-7----------|
D|-15----15----|--------|-5----------|------------|-3----------|--------6---|--------5---|
A|-------------|--------|--------5---|--------5---|--------5---|-4----------|------------|
E|-------------|--------|------------|-6----------|------------|------------|------------|


G|------------|------------|---------------------------------|---------------------------------|
D|--------5---|-8----------|---------------------5-----------|---------------------5-----------|
A|-6----------|--------5---|---------5-----------------------|---------5-----------------------|
E|------------|------------|-3---3-------3---3-------3---3---|-3---3-------3---3-------3---3---|


G|---------------------------------|---------------------------------|---------------------------------|
D|---------------------3-----------|---------------------3-----------|---------3-----------6-----------|
A|---------5-----------------------|---------5-----------------------|-4---4-------4---4-------4---4---|
E|-6---6-------6---6-------6---6---|-6---6-------6---6-------6---6---|---------------------------------|


G|---------------------------------|---------------------------------|---------------------------------|
D|---------3-----------7-----------|---------5-------8---------------|---------------------3-----------|
A|-5---5-------5---5-------5---5---|-6---6-------6-------------------|---------5---------------3---5---|
E|---------------------------------|---------------------1---3---5---|-6---6-------6---6---------------|


G|---------------------|---------------------|---------------------|---------------------|
D|---------------------|---------------------|---------------------|---------------------|
A|-6-------------------|---------------------|-6-------------------|-----------1---------|
E|-----------6---------|-5---------3---------|-----------6---------|-1-------------------|


G|---------------------------------|---------------------------------|---------------------------------|
D|---------------------------------|---------------------------------|---------------------------------|
A|-7---7---7---7---7---7---7---7---|---------------------------------|---------------------------------|
E|---------------------------------|-5---5---5---5---5---5---5---5---|-2---2---2---2---2---2---2---2---|


G|---------------------------------|---------------------------------|---------------------------------|
D|---------------------------------|---------------------------------|---------------------------------|
A|-4---4---4---4---4---4---4---4---|-7---7---7---7---7---7---7---7---|---------------------------------|
E|---------------------------------|---------------------------------|-5---5---5---5---5---5---5---5---|


G|---------------------------------|------------------------|-------------------------------------------------|
D|---------------------------------|------------------------|-------------------------5--5--5--5--5--5--5--5--|
A|---------------------------------|------------------------|-3--3--3--3--3--3--3--3--------------------------|
E|-2---2---2---2---2---2---2---2---|-0---0---0---0----------|-------------------------------------------------|


G|-------------------------------------------------|-------------------------------------------------|
D|-------------------------5--5--5--5--5--5--5--5--|-------------------------8--8--8--8--8--8--8--8--|
A|-6--6--6--6--6--6--6--6--------------------------|-6--6--6--6--6--6--6--6--------------------------|
E|-------------------------------------------------|-------------------------------------------------|


G|-------------------------------------------------|-------------------------------------------------|
D|-5--5--5--5--5--5--5--5--------------------------|-------------------------------------------------|
A|-------------------------5--5--5--5--5--5--5--5--|-------------------------3--3--3--3--3--3--3--3--|
E|-------------------------------------------------|-4--4--4--4--4--4--4--4--------------------------|


G|-------------------------------------------------|-------------------------------------------------|
D|-------------------------------------------------|-------------------------------------------------|
A|-------------------------3--3--3--3--3--3--3--3--|-------------------------------------------------|
E|-1--1--1--1--1--1--1--1--------------------------|-3--3--3--3--3--3--3--3--6--6--6--6--6--6--6--6--|


G|-------------------------------------------------|-------------------------------------------------|
D|-------------------------5--5--5--5--5--5--5--5--|-------------------------5--5--5--5--5--5--5--5--|
A|-5--5--5--5--5--5--5--5--------------------------|-3--3--3--3--3--3--3--3--------------------------|
E|-------------------------------------------------|-------------------------------------------------|


G|-------------------------------------------------|-------------------------------------------------|
D|-------------------------5--5--5--5--5--5--5--5--|-------------------------8--8--8--8--8--8--8--8--|
A|-6--6--6--6--6--6--6--6--------------------------|-6--6--6--6--6--6--6--6--------------------------|
E|-------------------------------------------------|-------------------------------------------------|


G|-------------------------------------------------|-------------------------------------------------|
D|-5--5--5--5--5--5--5--5--------------------------|-------------------------------------------------|
A|-------------------------5--5--5--5--5--5--5--5--|-------------------------3--3--3--3--3--3--3--3--|
E|-------------------------------------------------|-4--4--4--4--4--4--4--4--------------------------|


G|-------------------------------------------------|-------------------------------------------------|
D|-------------------------------------------------|-------------------------------------------------|
A|-------------------------3--3--3--3--3--3--3--3--|-------------------------------------------------|
E|-1--1--1--1--1--1--1--1--------------------------|-3--3--3--3--3--3--3--3--7--7--7--7--7--7--7--7--|


G|-------------------------------------------------|-------------------------------------------------|
D|-------------------------5--5--5--5--5--5--5--5--|-------------------------7--7--7--7--7--7--7--7--|
A|-5--5--5--5--5--5--5--5--------------------------|-5--5--5--5--5--5--5--5--------------------------|
E|-------------------------------------------------|-------------------------------------------------|


G|-------------------------------------------------|-------------------------------------------------|
D|-------------------------7--7--7--7--7--7--7--7--|-------------------------10-10-10-10-10-10-10-10-|
A|-8--8--8--8--8--8--8--8--------------------------|-8--8--8--8--8--8--8--8--------------------------|
E|-------------------------------------------------|-------------------------------------------------|


G|-------------------------------------------------|-------------------------------------------------|
D|-7--7--7--7--7--7--7--7--------------------------|-------------------------------------------------|
A|-------------------------7--7--7--7--7--7--7--7--|-------------------------5--5--5--5--5--5--5--5--|
E|-------------------------------------------------|-6--6--6--6--6--6--6--6--------------------------|


G|-------------------------------------------------|-------------------------------------------------|
D|-------------------------------------------------|-------------------------------------------------|
A|-------------------------5--5--5--5--5--5--5--5--|-------------------------------------------------|
E|-3--3--3--3--3--3--3--3--------------------------|-5--5--5--5--5--5--5--5--8--8--8--8--8--8--8--8--|


G|-------------------------------------------------|-------------------------------------------------|
D|-------------------------7--7--7--7--7--7--7--7--|-------------------------7--7--7--7--7--7--7--7--|
A|-7--7--7--7--7--7--7--7--------------------------|-5--5--5--5--5--5--5--5--------------------------|
E|-------------------------------------------------|-------------------------------------------------|


G|-------------------------------------------------|-------------------------------------------------|
D|-------------------------7--7--7--7--7--7--7--7--|-------------------------10-10-10-10-10-10-10-10-|
A|-8--8--8--8--8--8--8--8--------------------------|-8--8--8--8--8--8--8--8--------------------------|
E|-------------------------------------------------|-------------------------------------------------|


G|-------------------------------------------------|-------------------------------------------------|
D|-7--7--7--7--7--7--7--7--------------------------|-------------------------------------------------|
A|-------------------------7--7--7--7--7--7--7--7--|-------------------------5--5--5--5--5--5--5--5--|
E|-------------------------------------------------|-6--6--6--6--6--6--6--6--------------------------|


G|-------------------------------------------------|-------------------------------------------------|
D|-------------------------------------------------|-------------------------------------------------|
A|-------------------------5--5--5--5--5--5--5--5--|-------------------------------------------------|
E|-3--3--3--3--3--3--3--3--------------------------|-5--5--5--5--5--5--5--5--9--9--9--9--9--9--9--9--|


G|-------------------------------------------------|-------------------------------------------------|
D|-------------------------7--7--7--7--7--7--7--7--|-------------------------------7--7--------------|
A|-7--7--7--7--7--7--7--7--------------------------|-5--5--5--5--5--5--5--5--5--5--------8--8--------|
E|-------------------------------------------------|-------------------------------------------8--8--|


G|-------------|--------|--------|--------|--------|
D|-------------|--------|--------|--------|--------|
A|-5-----------|--------|--------|--------|--------|
E|-------------|--------|--------|--------|--------|





Track 9: Bass

G|--------|--------|--------|--------|--------|--------|--------|--------|--------|
D|--------|--------|--------|--------|--------|--------|--------|--------|--------|
A|--------|--------|--------|--------|--------|--------|--------|--------|--------|
E|--------|--------|--------|--------|--------|--------|--------|--------|--------|


G|--------|--------|--------|--------|--------|--------|--------|--------|--------|
D|--------|--------|--------|--------|--------|--------|--------|--------|--------|
A|--------|--------|--------|--------|--------|--------|--------|--------|--------|
E|--------|--------|--------|--------|--------|--------|--------|--------|--------|


G|--------|--------|--------|--------|--------|--------|--------|--------|--------|
D|--------|--------|--------|--------|--------|--------|--------|--------|--------|
A|--------|--------|--------|--------|--------|--------|--------|--------|--------|
E|--------|--------|--------|--------|--------|--------|--------|--------|--------|


G|--------|--------|--------|--------|--------|--------|--------|--------|--------|
D|--------|--------|--------|--------|--------|--------|--------|--------|--------|
A|--------|--------|--------|--------|--------|--------|--------|--------|--------|
E|--------|--------|--------|--------|--------|--------|--------|--------|--------|


G|--------|--------|--------|-15----17--18----|-22--20--18----------------------|-----------------|
D|--------|--------|--------|-----------------|-------------22--20--18----------|-----------18----|
A|--------|--------|--------|-----------------|-------------------------20--19--|-------19--------|
E|--------|--------|--------|-----------------|---------------------------------|-20--------------|


G|---------------------------------|---------------------|------18---20--------|-18----17---15---|
D|-18--20--18------18--------------|-18--------18----21--|-22-------------22---|-----------------|
A|-------------20------20--19--17--|-------20------------|---------------------|-----------------|
E|---------------------------------|---------------------|---------------------|-----------------|


G|-------18---20---|--------|--------|--------|--------|--------|--------|--------|
D|-18--------------|-20-----|--------|--------|--------|--------|--------|--------|
A|-----------------|--------|--------|--------|--------|--------|--------|--------|
E|-----------------|--------|--------|--------|--------|--------|--------|--------|


G|--------|--------|--------|--------|--------|--------|--------|--------|--------|
D|--------|--------|--------|--------|--------|--------|--------|--------|--------|
A|--------|--------|--------|--------|--------|--------|--------|--------|--------|
E|--------|--------|--------|--------|--------|--------|--------|--------|--------|


G|--------|--------|--------|--------|--------|--------|--------|--------|--------|
D|--------|--------|--------|--------|--------|--------|--------|--------|--------|
A|--------|--------|--------|--------|--------|--------|--------|--------|--------|
E|--------|--------|--------|--------|--------|--------|--------|--------|--------|


G|--------|--------|--------|--------|--------|--------|--------|--------|--------|
D|--------|--------|--------|--------|--------|--------|--------|--------|--------|
A|--------|--------|--------|--------|--------|--------|--------|--------|--------|
E|--------|--------|--------|--------|--------|--------|--------|--------|--------|


G|--------|--------|--------|--------|--------|--------|--------|--------|--------|
D|--------|--------|--------|--------|--------|--------|--------|--------|--------|
A|--------|--------|--------|--------|--------|--------|--------|--------|--------|
E|--------|--------|--------|--------|--------|--------|--------|--------|--------|


G|--------|--------|--------|--------|--------|--------|--------|--------|--------|
D|--------|--------|--------|--------|--------|--------|--------|--------|--------|
A|--------|--------|--------|--------|--------|--------|--------|--------|--------|
E|--------|--------|--------|--------|--------|--------|--------|--------|--------|


G|--------|--------|--------|--------|--------|--------|--------|--------|--------|
D|--------|--------|--------|--------|--------|--------|--------|--------|--------|
A|--------|--------|--------|--------|--------|--------|--------|--------|--------|
E|--------|--------|--------|--------|--------|--------|--------|--------|--------|


G|--------|--------|--------|--------|--------|--------|--------|--------|--------|
D|--------|--------|--------|--------|--------|--------|--------|--------|--------|
A|--------|--------|--------|--------|--------|--------|--------|--------|--------|
E|--------|--------|--------|--------|--------|--------|--------|--------|--------|


G|--------|--------|--------|--------|--------|--------|--------|--------|--------|
D|--------|--------|--------|--------|--------|--------|--------|--------|--------|
A|--------|--------|--------|--------|--------|--------|--------|--------|--------|
E|--------|--------|--------|--------|--------|--------|--------|--------|--------|


G|--------|--------|--------|--------|--------|--------|--------|--------|--------|
D|--------|--------|--------|--------|--------|--------|--------|--------|--------|
A|--------|--------|--------|--------|--------|--------|--------|--------|--------|
E|--------|--------|--------|--------|--------|--------|--------|--------|--------|


G|--------|--------|--------|--------|--------|--------|--------|--------|--------|
D|--------|--------|--------|--------|--------|--------|--------|--------|--------|
A|--------|--------|--------|--------|--------|--------|--------|--------|--------|
E|--------|--------|--------|--------|--------|--------|--------|--------|--------|


G|--------|--------|--------|--------|--------|--------|--------|--------|--------|
D|--------|--------|--------|--------|--------|--------|--------|--------|--------|
A|--------|--------|--------|--------|--------|--------|--------|--------|--------|
E|--------|--------|--------|--------|--------|--------|--------|--------|--------|


G|--------|--------|--------|--------|--------|--------|--------|--------|--------|
D|--------|--------|--------|--------|--------|--------|--------|--------|--------|
A|--------|--------|--------|--------|--------|--------|--------|--------|--------|
E|--------|--------|--------|--------|--------|--------|--------|--------|--------|


G|--------|--------|--------|--------|--------|--------|--------|--------|--------|
D|--------|--------|--------|--------|--------|--------|--------|--------|--------|
A|--------|--------|--------|--------|--------|--------|--------|--------|--------|
E|--------|--------|--------|--------|--------|--------|--------|--------|--------|


G|--------|--------|--------|--------|--------|--------|--------|--------|--------|
D|--------|--------|--------|--------|--------|--------|--------|--------|--------|
A|--------|--------|--------|--------|--------|--------|--------|--------|--------|
E|--------|--------|--------|--------|--------|--------|--------|--------|--------|


G|--------|--------|--------|--------|--------|--------|--------|--------|--------|
D|--------|--------|--------|--------|--------|--------|--------|--------|--------|
A|--------|--------|--------|--------|--------|--------|--------|--------|--------|
E|--------|--------|--------|--------|--------|--------|--------|--------|--------|


G|--------|--------|--------|--------|--------|--------|--------|--------|
D|--------|--------|--------|--------|--------|--------|--------|--------|
A|--------|--------|--------|--------|--------|--------|--------|--------|
E|--------|--------|--------|--------|--------|--------|--------|--------|