Menu:

 

Search:

 

sigbjørn ottar nydal - after before:

 



Title: After Before
Artist: 
Album: 
Author: Sigbjrn Ottar Nydal


Track 1: Piano (Right Hand)

E|-------------------3---|-----------6---4---3----|-1-----------------3---|-3-----8---10--11--13--|
B|-4-----3---4---6-------|-----------6---6---6----|-3-----3---4---6-------|-4---------------------|
G|-----------------------|-8---7-----7---7---7----|-----------------------|-----------------------|
D|-----------------------|------------------------|-----------------------|-----------------------|
A|-----------------------|------------------------|-----------------------|-----------------------|
E|-----------------------|------------------------|-----------------------|-----------------------|


E|-15------13------15------16--18--|-18--18----18--16--15------|-13----8---10--11--13--|
B|-----13------13------13----------|-----------------------15--|-----------------------|
G|---------------------------------|-8---7-----7---7---7---7---|-----------------------|
D|---------------------------------|---------------------------|-----------------------|
A|---------------------------------|---------------------------|-----------------------|
E|---------------------------------|---------------------------|-----------------------|


E|-13--15----------------3---|-3-----3---3-----|-11-----|-------------------3---|-----------6---4---3----|
B|-15--15----3---4---6-------|-6-----4---4-----|-13-----|-4-----3---4---6-------|-----------6---6---6----|
G|---------------------------|-5-----5---5-----|-12-----|-----------------------|-8---7-----7---7---7----|
D|---------------------------|-----------------|--------|-----------------------|------------------------|
A|---------------------------|-----------------|--------|-----------------------|------------------------|
E|---------------------------|-----------------|--------|-----------------------|------------------------|


E|-1-----------------3---|-3-----8---10--11--13--|-15------13------15------16--18--|
B|-3-----3---4---6-------|-4---------------------|-----13------13------13----------|
G|-----------------------|-----------------------|---------------------------------|
D|-----------------------|-----------------------|---------------------------------|
A|-----------------------|-----------------------|---------------------------------|
E|-----------------------|-----------------------|---------------------------------|


E|-18--18----18--16--15------|-13----8---10--11--13--|-13--15----------------3---|
B|-----------------------15--|-----------------------|-15--15----3---4---6-------|
G|-8---7-----7---7---7---7---|-----------------------|---------------------------|
D|---------------------------|-----------------------|---------------------------|
A|---------------------------|-----------------------|---------------------------|
E|---------------------------|-----------------------|---------------------------|


E|-------------------3---|-----------6---4---3----|-1-----------------3---|-3-----8---10--11--13--|
B|-4-----3---4---6-------|-----------6---6---6----|-3-----3---4---6-------|-4---------------------|
G|-----------------------|-8---7-----7---7---7----|-----------------------|-----------------------|
D|-----------------------|------------------------|-----------------------|-----------------------|
A|-----------------------|------------------------|-----------------------|-----------------------|
E|-----------------------|------------------------|-----------------------|-----------------------|


E|-15------13------15------16--18--|-18--18----18--16--15------|-13----8---10--11--13--|
B|-----13------13------13----------|-----------------------15--|-----------------------|
G|---------------------------------|-8---7-----7---7---7---7---|-----------------------|
D|---------------------------------|---------------------------|-----------------------|
A|---------------------------------|---------------------------|-----------------------|
E|---------------------------------|---------------------------|-----------------------|


E|-13--15----------------3---|----------------4---4---|-3-----11--10--8-------|---------8---10--8----11--11--|
B|-15--15----3---4---6-------|-4-----4---6--------6---|-------------------11--|-9---11-----------------------|
G|---------------------------|-------5----------------|-----------------------|-------------5----------------|
D|---------------------------|------------------------|-----------------------|--------------------------6---|
A|---------------------------|------------------------|-----------------------|------------------------------|
E|---------------------------|------------------------|-----------------------|------------------------------|


E|-11----8---------------|---------8---10--8----11--11--|-15----11--10--8-------|-----------6-------8---8---|
B|-----------11--9---8---|-9---11-----------------------|-------------------11--|-9-----9-------9-------6---|
G|-----------------------|-------------5------------10--|-----------------------|-------5-------------------|
D|-----------------------|------------------------------|-----------------------|---------------------------|
A|-----------------------|------------------------------|-----------------------|---------------------------|
E|-----------------------|------------------------------|-----------------------|---------------------------|


E|-10-----|-------------------3---|-----------6---4---3----|-1-----------------3---|
B|-12-----|-4-----3---4---6-------|-----------6---6---6----|-3-----3---4---6-------|
G|-12-----|-----------------------|-8---7-----7---7---7----|-----------------------|
D|--------|-----------------------|------------------------|-----------------------|
A|--------|-----------------------|------------------------|-----------------------|
E|--------|-----------------------|------------------------|-----------------------|


E|-3-----8---10--11--13--|-15------13------15------16--18--|-18--18----18--16--15------|
B|-4---------------------|-----13------13------13----------|-----------------------15--|
G|-----------------------|---------------------------------|-8---7-----7---7---7---7---|
D|-----------------------|---------------------------------|---------------------------|
A|-----------------------|---------------------------------|---------------------------|
E|-----------------------|---------------------------------|---------------------------|


E|-13----8---10--11--13--|-13--15----------------3---|----------------4---4---|-3-----11--10--8-------|
B|-----------------------|-15--15----3---4---6-------|-4-----4---6--------6---|-------------------11--|
G|-----------------------|---------------------------|-------5----------------|-----------------------|
D|-----------------------|---------------------------|------------------------|-----------------------|
A|-----------------------|---------------------------|------------------------|-----------------------|
E|-----------------------|---------------------------|------------------------|-----------------------|


E|---------8---10--8----11--11--|-11----8---------------|---------8---10--8----11--11--|
B|-9---11-----------------------|-----------11--9---8---|-9---11-----------------------|
G|-------------5----------------|-----------------------|-------------5------------10--|
D|--------------------------6---|-----------------------|------------------------------|
A|------------------------------|-----------------------|------------------------------|
E|------------------------------|-----------------------|------------------------------|


E|-15----11--10--8-------|-----------6-------8---8---|-10-----|-8-----8---6-------6---8---|
B|-------------------11--|-9-----9-------9-------6---|-12-----|---------------9-----------|
G|-----------------------|-------5-------------------|-12-----|-------5---5---5---5---5---|
D|-----------------------|---------------------------|--------|---------------------------|
A|-----------------------|---------------------------|--------|---------------------------|
E|-----------------------|---------------------------|--------|---------------------------|


E|-10----8---10--6---10--|-8---------------------|-8-------10--11--15--13--11------|
B|-----------------------|-------------------8---|-----8-----------------------15--|
G|-----------------------|-------7---8---10------|---------------------------------|
D|-----------------------|-----------------------|---------------------------------|
A|-----------------------|-----------------------|---------------------------------|
E|-----------------------|-----------------------|---------------------------------|


E|-8-----8---6-------6---8---|-10----8---10--6---10--|-8---------------------|-7-------10--11--15--13--11------|
B|---------------9-----------|-----------------------|-------------------8---|-----8-----------------------15--|
G|-------5---5---5---5---5---|-----------------------|-------7---8---10------|---------------------------------|
D|---------------------------|-----------------------|-----------------------|---------------------------------|
A|---------------------------|-----------------------|-----------------------|---------------------------------|
E|---------------------------|-----------------------|-----------------------|---------------------------------|


E|-8-----8---6-------6---8---|-10----8---10--6---10--|-8---------------------|-8-------10--11--15--13--11------|
B|---------------9-----------|-----------------------|-------------------8---|-----8-----------------------15--|
G|-------5---5---5---5---5---|-----------------------|-------7---8---10------|---------------------------------|
D|---------------------------|-----------------------|-----------------------|---------------------------------|
A|---------------------------|-----------------------|-----------------------|---------------------------------|
E|---------------------------|-----------------------|-----------------------|---------------------------------|


E|-8-----8---6-------6---8---|-10----8---10--6---10--|-13--------10--11--13--|-13--15--------------------|
B|---------------9-----------|-----------------------|-------13--------------|-15--15--------------------|
G|-------5---5---5---5---5---|-----------------------|-----------------------|-----------------------12--|
D|---------------------------|-----------------------|-----------------------|-----------12--13--15------|
A|---------------------------|-----------------------|-----------------------|---------------------------|
E|---------------------------|-----------------------|-----------------------|---------------------------|


E|-------------------3---|-----------6---4---3----|-1---------------------|-3------|
B|-4-----3---4---6-------|-----------6---6---6----|-3-----3---4---3-------|-4------|
G|-----------------------|-8---7-----7---7---7----|-------------------3---|--------|
D|-----------------------|------------------------|-----------------------|--------|
A|-----------------------|------------------------|-----------------------|--------|
E|-----------------------|------------------------|-----------------------|--------|


E|-20-----|
B|-20-----|
G|-20-----|
D|--------|
A|--------|
E|--------|





Track 2: Piano (Left Hand)

E|-----------------------|--------------------|-----------------------|-----------------------|
B|-----------------------|--------------------|-----------------------|-----------------------|
G|-----------------------|--------------------|-----------------------|-----------------------|
D|-5-----------5---5-----|------8---8---8-----|-0-----------0---0-----|-5-----------5---5-----|
A|-6-------6---6---6-----|----------8---8-----|-1-------1---1---1-----|-6-------6---6---6-----|
E|-8---8---8---8---8-----|-6----6---6---6-----|-3---3---3---3---3-----|-8---8---8---8---8-----|
B|-----------------------|--------------------|-----------------------|-----------------------|


E|-----------------------|-----------------------|-----------------------|-----------------------|
B|-----------------------|-----------------------|-----------------------|-----------------------|
G|-----------------------|-----------------------|-----------------------|-----------------------|
D|-5-----------5---5-----|---------8---8---8-----|-------------3---3-----|-0-----------0---0-----|
A|-6-------6---6---6-----|-6---5-------8---8-----|-3-------3---3---3-----|-2-------2---2---2-----|
E|-8---8---8---8---8-----|-6---6---6---6---6-----|-4---4---4---4---4-----|-3---3---3---3---3-----|
B|-----------------------|-----------------------|-6---6---6---6---6-----|-----------------------|


E|--------|--------|-----------------------|--------------------|-----------------------|
B|--------|--------|-----------------------|--------------------|-----------------------|
G|--------|--------|-----------------------|--------------------|-----------------------|
D|-5------|--------|-5-----------5---5-----|------8---8---8-----|-0-----------0---0-----|
A|-6------|--------|-6-------6---6---6-----|----------8---8-----|-1-------1---1---1-----|
E|-8------|--------|-8---8---8---8---8-----|-6----6---6---6-----|-3---3---3---3---3-----|
B|--------|--------|-----------------------|--------------------|-----------------------|


E|-----------------------|-----------------------|-----------------------|-----------------------|
B|-----------------------|-----------------------|-----------------------|-----------------------|
G|-----------------------|-----------------------|-----------------------|-----------------------|
D|-5-----------5---5-----|-5-----------5---5-----|---------8---8---8-----|-------------3---3-----|
A|-6-------6---6---6-----|-6-------6---6---6-----|-6---5-------8---8-----|-3-------3---3---3-----|
E|-8---8---8---8---8-----|-8---8---8---8---8-----|-6---6---6---6---6-----|-4---4---4---4---4-----|
B|-----------------------|-----------------------|-----------------------|-6---6---6---6---6-----|


E|-----------------------|-----------------------|--------------------|-----------------------|
B|-----------------------|-----------------------|--------------------|-----------------------|
G|-----------------------|-----------------------|--------------------|-----------------------|
D|-0-----------0---0-----|-5-----------5---5-----|------8---8---8-----|-0-----------0---0-----|
A|-2-------2---2---2-----|-6-------6---6---6-----|----------8---8-----|-1-------1---1---1-----|
E|-3---3---3---3---3-----|-8---8---8---8---8-----|-6----6---6---6-----|-3---3---3---3---3-----|
B|-----------------------|-----------------------|--------------------|-----------------------|


E|-----------------------|-----------------------|-----------------------|-----------------------|
B|-----------------------|-----------------------|-----------------------|-----------------------|
G|-----------------------|-----------------------|-----------------------|-----------------------|
D|-5-----------5---5-----|-5-----------5---5-----|---------8---8---8-----|-------------3---3-----|
A|-6-------6---6---6-----|-6-------6---6---6-----|-6---5-------8---8-----|-3-------3---3---3-----|
E|-8---8---8---8---8-----|-8---8---8---8---8-----|-6---6---6---6---6-----|-4---4---4---4---4-----|
B|-----------------------|-----------------------|-----------------------|-6---6---6---6---6-----|


E|-----------------------|---------------------------|-----------------------|---------------------------|
B|-----------------------|---------------------------|-----------------------|---------------------------|
G|-----------------------|----------------------5----|-5---5---5---5---5-----|---------------------------|
D|-0-----------0---0-----|---------6--------6---6----|-----5---5---5---5-----|---------6------------3----|
A|-2-------2---2---2-----|-----6---6----8---8---8----|---------6---6---6-----|-----6---6--------3---3----|
E|-3---3---3---3---3-----|-4---4---4-----------------|-------------8---8-----|-4---4---4-----------------|
B|-----------------------|---------------------------|-----------------------|--------------6---6---6----|


E|-----------------------|---------------------------|-----------------------|---------------------------|
B|-----------------------|---------------------------|-----------------------|---------------------------|
G|-5---5---5---5---5-----|----------------------5----|-5---5---5---5---5-----|----------------------5----|
D|-----5---5---5---5-----|---------6--------6---6----|-----5---5---5---5-----|---------6--------6---6----|
A|---------6---6---6-----|-----6---6----8---8---8----|---------6---6---6-----|-----6---6----8---8---8----|
E|-------------8---8-----|-4---4---4-----------------|-------------8---8-----|-4---4---4-----------------|
B|-----------------------|---------------------------|-----------------------|---------------------------|


E|--------|-----------------------|--------------------|-----------------------|-----------------------|
B|--------|-----------------------|--------------------|-----------------------|-----------------------|
G|--------|-----------------------|--------------------|-----------------------|-----------------------|
D|-0------|-5-----------5---5-----|------8---8---8-----|-0-----------0---0-----|-5-----------5---5-----|
A|-2------|-6-------6---6---6-----|----------8---8-----|-1-------1---1---1-----|-6-------6---6---6-----|
E|-3------|-8---8---8---8---8-----|-6----6---6---6-----|-3---3---3---3---3-----|-8---8---8---8---8-----|
B|--------|-----------------------|--------------------|-----------------------|-----------------------|


E|-----------------------|-----------------------|-----------------------|-----------------------|
B|-----------------------|-----------------------|-----------------------|-----------------------|
G|-----------------------|-----------------------|-----------------------|-----------------------|
D|-5-----------5---5-----|---------8---8---8-----|-------------3---3-----|-0-----------0---0-----|
A|-6-------6---6---6-----|-6---5-------8---8-----|-3-------3---3---3-----|-2-------2---2---2-----|
E|-8---8---8---8---8-----|-6---6---6---6---6-----|-4---4---4---4---4-----|-3---3---3---3---3-----|
B|-----------------------|-----------------------|-6---6---6---6---6-----|-----------------------|


E|---------------------------|-----------------------|---------------------------|
B|---------------------------|-----------------------|---------------------------|
G|----------------------5----|-5---5---5---5---5-----|---------------------------|
D|---------6--------6---6----|-----5---5---5---5-----|---------6------------3----|
A|-----6---6----8---8---8----|---------6---6---6-----|-----6---6--------3---3----|
E|-4---4---4-----------------|-------------8---8-----|-4---4---4-----------------|
B|---------------------------|-----------------------|--------------6---6---6----|


E|-----------------------|---------------------------|-----------------------|---------------------------|
B|-----------------------|---------------------------|-----------------------|---------------------------|
G|-5---5---5---5---5-----|----------------------5----|-5---5---5---5---5-----|----------------------5----|
D|-----5---5---5---5-----|---------6--------6---6----|-----5---5---5---5-----|---------6--------6---6----|
A|---------6---6---6-----|-----6---6----8---8---8----|---------6---6---6-----|-----6---6----8---8---8----|
E|-------------8---8-----|-4---4---4-----------------|-------------8---8-----|-4---4---4-----------------|
B|-----------------------|---------------------------|-----------------------|---------------------------|


E|--------|----------------|-----------------------|-----------------------|-----------------------|
B|--------|----------------|-----------------------|-----------------------|-----------------------|
G|--------|----------------|-------------3---3-----|-----------------------|-----------------------|
D|-0------|---------6------|---------3---3---3-----|-5-----------5---5-----|-5-----5---5---5---5---|
A|-2------|-----6---6------|-----5---5---5---5-----|-6-------6---6---6-----|-6---------6---6---6---|
E|-3------|-4---4---4------|-6---6---6---6---6-----|-8---8---8---8---8-----|-8-------------8---8---|
B|--------|----------------|-----------------------|-----------------------|-----------------------|


E|----------------|-----------------------|-----------------------|-----------------------|
B|----------------|-----------------------|-----------------------|-----------------------|
G|----------------|-------------3---3-----|-----------------------|-------0---0---0---0---|
D|---------6------|---------3---3---3-----|-5-----------5---5-----|-0---------0---0---0---|
A|-----6---6------|-----5---5---5---5-----|-6-------6---6---6-----|-2-------------2---2---|
E|-4---4---4------|-6---6---6---6---6-----|-8---8---8---8---8-----|-3-----3---3---3---3---|
B|----------------|-----------------------|-----------------------|-----------------------|


E|----------------|-----------------------|-----------------------|-----------------------|
B|----------------|-----------------------|-----------------------|-----------------------|
G|----------------|-------------3---3-----|-----------------------|-----------------------|
D|---------6------|---------3---3---3-----|-5-----------5---5-----|-5-----5---5---5---5---|
A|-----6---6------|-----5---5---5---5-----|-6-------6---6---6-----|-6---------6---6---6---|
E|-4---4---4------|-6---6---6---6---6-----|-8---8---8---8---8-----|-8-------------8---8---|
B|----------------|-----------------------|-----------------------|-----------------------|


E|----------------|-----------------------|-----------------------|--------------------|
B|----------------|-----------------------|-----------------------|--------------------|
G|----------------|-------------3---3-----|-----------------------|--------------------|
D|---------6------|---------3---3---3-----|-------------3---3-----|-0--------0---0-----|
A|-----6---6------|-----5---5---5---5-----|-3-------3---3---3-----|-2----2---2---2-----|
E|-4---4---4------|-6---6---6---6---6-----|-4---4---4---4---4-----|-3----3---3---3-----|
B|----------------|-----------------------|-6---6---6---6---6-----|--------------------|


E|-----------------------|--------------------|-----------------------|--------|--------|
B|-----------------------|--------------------|-----------------------|--------|--------|
G|-----------------------|--------------------|-----------------------|--------|--------|
D|-5-----------5---5-----|------8---8---8-----|-0-----------0---0-----|-5------|--------|
A|-6-------6---6---6-----|----------8---8-----|-1-------1---1---1-----|-6------|--------|
E|-8---8---8---8---8-----|-6----6---6---6-----|-3---3---3---3---3-----|-8------|-3------|
B|-----------------------|--------------------|-----------------------|--------|-1------|





Track 3: Flute

E|--------|--------|--------|--------|--------|--------|--------|--------|--------|
B|--------|--------|--------|--------|--------|--------|--------|--------|--------|
G|--------|--------|--------|--------|--------|--------|--------|--------|--------|
D|--------|--------|--------|--------|--------|--------|--------|--------|--------|
A|--------|--------|--------|--------|--------|--------|--------|--------|--------|
E|--------|--------|--------|--------|--------|--------|--------|--------|--------|


E|--------|-------15--15--13-------|--------------------|---------13------16--16---15--|
B|--------|-------------------16---|-16--15--15---------|-15--16------15---------------|
G|--------|-------12--12--10-------|--------------------|---------10------13--13---12--|
D|--------|-------------------13---|-13--12--12---------|-12--13------12---------------|
A|--------|------------------------|--------------------|------------------------------|
E|--------|------------------------|--------------------|------------------------------|


E|-15----------|-------15---13------13--|-13--18---------|-16--18--16--13-------13---|
B|-------------|----------------16------|----------------|-----------------15--------|
G|-12----------|-------12---10------10--|-10--15---------|-13--15--13--10-------10---|
D|-------------|----------------13------|----------------|-----------------12--------|
A|-------------|------------------------|----------------|---------------------------|
E|-------------|------------------------|----------------|---------------------------|


E|-15----------|-------15--15--13-------|--------------------|---------13------16--16---15--|
B|-------------|-------------------16---|-16--15--15---------|-15--16------15---------------|
G|-12----------|-------12--12--10-------|--------------------|---------10------13--13---12--|
D|-------------|-------------------13---|-13--12--12---------|-12--13------12---------------|
A|-------------|------------------------|--------------------|------------------------------|
E|-------------|------------------------|--------------------|------------------------------|


E|-15----------|-------15---13------13--|-13--18---------|-16--18--16--13-------13---|
B|-------------|----------------16------|----------------|-----------------15--------|
G|-12----------|-------12---10------10--|-10--15---------|-13--15--13--10-------10---|
D|-------------|----------------13------|----------------|-----------------12--------|
A|-------------|------------------------|----------------|---------------------------|
E|-------------|------------------------|----------------|---------------------------|


E|-15----------|-16--15--16--18--16---16---|-15--------------|-16--15--16--18--16---16---|
B|-------------|---------------------------|------16---------|---------------------------|
G|-12----------|-13--12--13--15--13---13---|-12--------------|-13--12--13--15--13---13---|
D|-------------|---------------------------|------13---------|---------------------------|
A|-------------|---------------------------|-----------------|---------------------------|
E|-------------|---------------------------|-----------------|---------------------------|


E|-15----------|-16--15--16--18--20---20---|-20--------------|-16--15--16--18--20---16---|
B|-------------|---------------------------|------20---------|---------------------------|
G|-12----------|-13--12--13--15--17---17---|-17--------------|-13--12--13--15--17---13---|
D|-------------|---------------------------|------17---------|---------------------------|
A|-------------|---------------------------|-----------------|---------------------------|
E|-------------|---------------------------|-----------------|---------------------------|


E|-15----------|-------15--15--13-------|--------------------|---------13------16--16---15--|
B|-------------|-------------------16---|-16--15--15---------|-15--16------15---------------|
G|-12----------|-------12--12--10-------|--------------------|---------10------13--13---12--|
D|-------------|-------------------13---|-13--12--12---------|-12--13------12---------------|
A|-------------|------------------------|--------------------|------------------------------|
E|-------------|------------------------|--------------------|------------------------------|


E|-15----------|-------15---13------13--|-13--18---------|-16--18--16--13-------13---|
B|-------------|----------------16------|----------------|-----------------15--------|
G|-12----------|-------12---10------10--|-10--15---------|-13--15--13--10-------10---|
D|-------------|----------------13------|----------------|-----------------12--------|
A|-------------|------------------------|----------------|---------------------------|
E|-------------|------------------------|----------------|---------------------------|


E|-15----------|-16--15--16--18--16---16---|-15--------------|-16--15--16--18--16---16---|
B|-------------|---------------------------|------16---------|---------------------------|
G|-12----------|-13--12--13--15--13---13---|-12--------------|-13--12--13--15--13---13---|
D|-------------|---------------------------|------13---------|---------------------------|
A|-------------|---------------------------|-----------------|---------------------------|
E|-------------|---------------------------|-----------------|---------------------------|


E|-15----------|-16--15--16--18--20---20---|-20--------------|-16--15--16--18--20---16---|
B|-------------|---------------------------|------20---------|---------------------------|
G|-12----------|-13--12--13--15--17---17---|-17--------------|-13--12--13--15--17---13---|
D|-------------|---------------------------|------17---------|---------------------------|
A|-------------|---------------------------|-----------------|---------------------------|
E|-------------|---------------------------|-----------------|---------------------------|


E|-15----------|-16----16--------|-13----15----16--|-15----15--------|-15-----15------|
B|-------------|-------------16--|-----------------|-------------16--|----------------|
G|-12----------|-13----13--------|-10----12----13--|-12----12--------|-12-----12------|
D|-------------|-------------13--|-----------------|-------------13--|----------------|
A|-------------|-----------------|-----------------|-----------------|----------------|
E|-------------|-----------------|-----------------|-----------------|----------------|


E|-16----16--------|-13----15----16--|--------|----------------|-16----16--------|
B|-------------16--|-----------------|-16-----|-15-----15------|-------------16--|
G|-13----13--------|-10----12----13--|--------|----------------|-13----13--------|
D|-------------13--|-----------------|-13-----|-12-----12------|-------------13--|
A|-----------------|-----------------|--------|----------------|-----------------|
E|-----------------|-----------------|--------|----------------|-----------------|


E|-13----15----16--|-15----15--------|-15-----15------|-16----16--------|-13----15----16--|
B|-----------------|-------------16--|----------------|-------------16--|-----------------|
G|-10----12----13--|-12----12--------|-12-----12------|-13----13--------|-10----12----13--|
D|-----------------|-------------13--|----------------|-------------13--|-----------------|
A|-----------------|-----------------|----------------|-----------------|-----------------|
E|-----------------|-----------------|----------------|-----------------|-----------------|


E|-------------|-15-----15------|--------|--------|--------|--------|--------|
B|-13----16----|----------------|--------|--------|--------|--------|--------|
G|-------------|-12-----12------|--------|--------|--------|--------|--------|
D|-10----13----|----------------|--------|--------|--------|--------|--------|
A|-------------|----------------|--------|--------|--------|--------|--------|
E|-------------|----------------|--------|--------|--------|--------|--------|





Track 4: Strings

E|--------|--------|--------|--------|--------|--------|--------|--------|--------|
B|--------|--------|--------|--------|--------|--------|--------|--------|--------|
G|--------|--------|--------|--------|--------|--------|--------|--------|--------|
D|--------|--------|--------|--------|--------|--------|--------|--------|--------|
A|--------|--------|--------|--------|--------|--------|--------|--------|--------|
E|--------|--------|--------|--------|--------|--------|--------|--------|--------|


E|--------|--------|--------|--------|--------|--------|--------|--------|--------|
B|--------|--------|--------|--------|--------|--------|--------|--------|--------|
G|--------|--------|--------|--------|--------|--------|--------|--------|--------|
D|--------|--------|--------|--------|--------|--------|--------|--------|--------|
A|--------|--------|--------|--------|--------|--------|--------|--------|--------|
E|--------|--------|--------|--------|--------|--------|--------|--------|--------|


E|--------|----------------|--------|--------|--------|----------------|--------|--------|
B|--------|----------------|--------|--------|--------|----------------|--------|--------|
G|--------|----------------|--------|--------|-0------|-3---3---3------|-1------|-0------|
D|-5------|-3---3---3------|-3------|-1------|-1------|-1---0---0------|-3------|-3------|
A|-6------|-6---5---5------|-5------|-3------|-3------|-1---1---1------|-3------|-2------|
E|--------|----------------|--------|--------|--------|----------------|--------|--------|


E|-------------|--------|-------------|--------|-------------|--------|-------1-----|
B|-------------|--------|-------------|--------|-1-----1-----|-1------|-1-----1-----|
G|-1-----1-----|-0------|-1-----1-----|-0------|-1-----1-----|-0------|-1-----1-----|
D|-------3-----|-1------|-------3-----|-1------|-------3-----|-1------|-------3-----|
A|-3-----3-----|-3------|-3-----3-----|-3------|-3-----------|-3------|-3-----------|
E|-------------|--------|-------------|--------|-------1-----|--------|-------------|


E|-3------|--------|--------|--------|--------|--------|--------|--------|--------|
B|-3------|--------|--------|--------|--------|--------|--------|--------|--------|
G|-4------|--------|--------|--------|--------|--------|--------|--------|--------|
D|-5------|--------|--------|--------|--------|--------|--------|--------|--------|
A|--------|--------|--------|--------|--------|--------|--------|--------|--------|
E|--------|--------|--------|--------|--------|--------|--------|--------|--------|


E|--------|--------|--------|--------|--------|--------|--------|-3------|-16----11----|
B|--------|--------|--------|--------|--------|--------|--------|-3------|-------------|
G|--------|--------|--------|--------|--------|--------|--------|-4------|-17----15----|
D|--------|--------|--------|--------|--------|--------|--------|-5------|-------------|
A|--------|--------|--------|--------|--------|--------|--------|--------|-11----11----|
E|--------|--------|--------|--------|--------|--------|--------|--------|-------------|


E|-13----18----|-20-----18---|-23-----|-16----18----|-18----16----|-15-----|-15----16---19---|
B|-------------|-------------|--------|-------------|-------------|--------|-----------------|
G|-19----22----|-20-----19---|-17-----|-17----15----|-19----15----|-17-----|-16----17---19---|
D|-------------|-------------|--------|-------------|-------------|--------|-----------------|
A|-13----13----|-15-----15---|-15-----|-11----11----|-13----13----|-15-----|-15----15---15---|
E|-------------|-------------|--------|-------------|-------------|--------|-----------------|


E|-16----18----|-20----18----|-20----23---22---|-20-----|-20----18----|-16----18----|
B|-------------|-------------|-----------------|--------|-------------|-------------|
G|-17----20----|-19----22----|-20----22---24---|-20-----|-20----20----|-19----13----|
D|-------------|-------------|-----------------|--------|-------------|-------------|
A|-11----11----|-13----13----|-15----15---15---|-15-----|-11----11----|-13----13----|
E|-------------|-------------|-----------------|--------|-------------|-------------|


E|-16-----|-15-----|--------|--------|--------|--------|--------|
B|--------|--------|--------|--------|--------|--------|--------|
G|-17-----|-16-----|--------|--------|--------|--------|--------|
D|--------|--------|--------|--------|--------|--------|--------|
A|-11-----|-10-----|-3------|-1------|--------|-3------|--------|
E|--------|--------|--------|--------|-3------|--------|--------|





Track 5: Bass

G|--------|--------|--------|--------|--------|--------|--------|--------|--------|
D|--------|--------|--------|--------|--------|--------|--------|--------|--------|
A|--------|--------|--------|--------|--------|--------|--------|--------|--------|
E|--------|--------|--------|--------|--------|--------|--------|--------|--------|


G|--------|--------|--------|--------|--------|--------|--------|--------|--------|
D|--------|--------|--------|--------|--------|--------|--------|--------|--------|
A|--------|--------|--------|--------|--------|--------|--------|--------|--------|
E|--------|--------|--------|--------|--------|--------|--------|--------|--------|


G|--------|--------|--------|--------|--------|--------|--------|--------|--------|
D|--------|--------|--------|--------|--------|--------|--------|--------|--------|
A|--------|--------|--------|--------|--------|--------|--------|--------|--------|
E|--------|--------|--------|--------|--------|--------|--------|--------|--------|


G|--------|--------|--------|--------|--------|--------|--------|--------|----------------|
D|--------|--------|--------|--------|--------|--------|--------|--------|----------------|
A|--------|--------|--------|--------|--------|--------|--------|--------|----------------|
E|--------|--------|--------|--------|--------|--------|--------|-5------|-3---3---3------|


G|--------|--------|--------|----------------|--------|--------|-------------|--------|
D|--------|--------|--------|----------------|--------|--------|-------------|--------|
A|--------|--------|-0------|-3---3---3------|-1------|-0------|-1-----1-----|-0------|
E|-3------|-1------|-1------|-1---0---0------|-3------|-3------|-------3-----|-1------|


G|-------------|--------|-------------|--------|-------1-----|--------|-----------------|
D|-------------|--------|-1-----1-----|-1------|-1-----1-----|--------|-------6---------|
A|-1-----1-----|-0------|-1-----1-----|-0------|-1-----1-----|--------|-------------6---|
E|-------3-----|-1------|-------3-----|-1------|-------3-----|--------|-4---------------|


G|-----------------|-----------------|-----------------|-----------------|-----------------|
D|-------8---------|-------5---------|-------------5---|-------6---------|-------8---------|
A|-------------8---|-------------6---|-------6---------|-------------6---|-------------8---|
E|-6---------------|-8---------------|-8---------------|-4---------------|-6---------------|


G|-----------------|-----------------|-----------------|-----------------|-----------------|
D|-------5---------|-------------5---|-------6---------|-------8---------|-------5---------|
A|-------------6---|-------5---------|-------------6---|-------------8---|-------------6---|
E|-8---------------|-7---------------|-4---------------|-6---------------|-8---------------|


G|-----------------|-----------------|-----------------|-----------------|-----------------|
D|-------------5---|-------6---------|-------8---------|-------3---------|-------5---5-----|
A|-------6---------|-------------6---|-------------8---|-------------3---|-----------------|
E|-8---------------|-4---------------|-6---------------|-1---------------|-3---------------|


G|-5------|-3------|--------|--------|--------|
D|--------|--------|-5------|--------|--------|
A|--------|--------|--------|-3------|--------|
E|--------|--------|--------|--------|--------|