Menu:

 

Search:

 

sguo - on descend de la montagne à cheval:

 



Title: On Descend de la Montagne  Cheval
Artist: 
Album: 
Author: 


Track 1: Voice

E|---------------------------------|---------------------------|-----0---2----2--2---2---5---5---|
B|---------3----3--3---3---3---3---|---------3----3-------3----|-3-------------------------------|
G|-2---4---------------------------|-4---2---------------------|---------------------------------|
D|---------0---------------0-------|---------0----0-------0----|---------0---------------0-------|
A|-0-------------------------------|-0-------------------------|-0-------------------------------|
E|---------------------------------|---------------------------|---------------------------------|


E|-2-------0----0-------0----|-2---0---------------------------|---------------------------------|
B|-----3--------3-------3----|---------3----3--3---3---3---3---|---------3----3--3---3---3---3---|
G|---------------------------|---------------------------------|-2---4---------------------------|
D|---------0----0-------0----|---------0---------------0-------|---------0---------------0-------|
A|-0-------------------------|-0-------------------------------|-0-------------------------------|
E|---------------------------|---------------------------------|---------------------------------|


E|-2---0-------------------2---2---|-0---0---------------------|--------|--------|
B|---------3----3--3---3-----------|---------3----3-------3----|--------|--------|
G|---------------------------------|---------------------------|--------|--------|
D|---------0-----------------------|---------0----0-------0----|--------|--------|
A|-0-----------------------0-------|-0-------------------------|--------|--------|
E|---------------------------------|---------------------------|--------|--------|


E|--------|--------|--------|--------|--------|--------|---------------------------------|
B|--------|--------|--------|--------|--------|--------|---------3----3--3---3---3---3---|
G|--------|--------|--------|--------|--------|--------|-2---4---------------------------|
D|--------|--------|--------|--------|--------|--------|---------0---------------0-------|
A|--------|--------|--------|--------|--------|--------|-0-------------------------------|
E|--------|--------|--------|--------|--------|--------|---------------------------------|


E|---------------------------|-----0---2----2--2---2---5---5---|-2-------0----0-------0----|
B|---------3----3-------3----|-3-------------------------------|-----3--------3-------3----|
G|-4---2---------------------|---------------------------------|---------------------------|
D|---------0----0-------0----|---------0---------------0-------|---------0----0-------0----|
A|-0-------------------------|-0-------------------------------|-0-------------------------|
E|---------------------------|---------------------------------|---------------------------|


E|-2---0---------------------------|---------------------------------|-2---0-------------------2---2---|
B|---------3----3--3---3---3---3---|---------3----3--3---3---3---3---|---------3----3--3---3-----------|
G|---------------------------------|-2---4---------------------------|---------------------------------|
D|---------0---------------0-------|---------0---------------0-------|---------0-----------------------|
A|-0-------------------------------|-0-------------------------------|-0-----------------------0-------|
E|---------------------------------|---------------------------------|---------------------------------|


E|-0---0---------------------|--------|--------|--------|--------|--------|--------|
B|---------3----3-------3----|--------|--------|--------|--------|--------|--------|
G|---------------------------|--------|--------|--------|--------|--------|--------|
D|---------0----0-------0----|--------|--------|--------|--------|--------|--------|
A|-0-------------------------|--------|--------|--------|--------|--------|--------|
E|---------------------------|--------|--------|--------|--------|--------|--------|


E|--------|--------|--------|--------|--------|--------|--------|--------|--------|
B|--------|--------|--------|--------|--------|--------|--------|--------|--------|
G|--------|--------|--------|--------|--------|--------|--------|--------|--------|
D|--------|--------|--------|--------|--------|--------|--------|--------|--------|
A|--------|--------|--------|--------|--------|--------|--------|--------|--------|
E|--------|--------|--------|--------|--------|--------|--------|--------|--------|


E|--------|--------|--------|--------|--------|--------|--------|--------|--------|
B|--------|--------|--------|--------|--------|--------|--------|--------|--------|
G|--------|--------|--------|--------|--------|--------|--------|--------|--------|
D|--------|--------|--------|--------|--------|--------|--------|--------|--------|
A|--------|--------|--------|--------|--------|--------|--------|--------|--------|
E|--------|--------|--------|--------|--------|--------|--------|--------|--------|


E|--------|--------|--------|--------|--------|--------|--------|--------|--------|
B|--------|--------|--------|--------|--------|--------|--------|--------|--------|
G|--------|--------|--------|--------|--------|--------|--------|--------|--------|
D|--------|--------|--------|--------|--------|--------|--------|--------|--------|
A|--------|--------|--------|--------|--------|--------|--------|--------|--------|
E|--------|--------|--------|--------|--------|--------|--------|--------|--------|


E|--------|--------|--------|--------|--------|--------|--------|--------|--------|
B|--------|--------|--------|--------|--------|--------|--------|--------|--------|
G|--------|--------|--------|--------|--------|--------|--------|--------|--------|
D|--------|--------|--------|--------|--------|--------|--------|--------|--------|
A|--------|--------|--------|--------|--------|--------|--------|--------|--------|
E|--------|--------|--------|--------|--------|--------|--------|--------|--------|





Track 2: Acoustic Guitar

E|--------|--------|--------|--------|--------|--------|--------|--------|---------------------------------|
B|--------|--------|--------|--------|--------|--------|--------|--------|---------3----3--3---3---3---3---|
G|--------|--------|--------|--------|--------|--------|--------|--------|-2---4---------------------------|
D|--------|--------|--------|--------|--------|--------|--------|--------|---------0---------------0-------|
A|--------|--------|--------|--------|--------|--------|--------|--------|-0-------------------------------|
E|--------|--------|--------|--------|--------|--------|--------|--------|---------------------------------|


E|---------------------------|-----0---2----2--2---2---5---5---|-2-------0----0-------0----|
B|---------3----3-------3----|-3-------------------------------|-----3--------3-------3----|
G|-4---2---------------------|---------------------------------|---------------------------|
D|---------0----0-------0----|---------0---------------0-------|---------0----0-------0----|
A|-0-------------------------|-0-------------------------------|-0-------------------------|
E|---------------------------|---------------------------------|---------------------------|


E|-2---0---------------------------|---------------------------------|-2---0-------------------2---2---|
B|---------3----3--3---3---3---3---|---------3----3--3---3---3---3---|---------3----3--3---3-----------|
G|---------------------------------|-2---4---------------------------|---------------------------------|
D|---------0---------------0-------|---------0---------------0-------|---------0-----------------------|
A|-0-------------------------------|-0-------------------------------|-0-----------------------0-------|
E|---------------------------------|---------------------------------|---------------------------------|


E|-0---0------------------|--------|--------|--------|--------|--------|--------|--------|
B|---------3----3----3----|--------|--------|--------|--------|--------|--------|--------|
G|------------------------|--------|--------|--------|--------|--------|--------|--------|
D|---------0----0----0----|--------|--------|--------|--------|--------|--------|--------|
A|-0----------------------|--------|--------|--------|--------|--------|--------|--------|
E|------------------------|--------|--------|--------|--------|--------|--------|--------|


E|--------|--------|--------|--------|--------|--------|--------|--------|--------|
B|--------|--------|--------|--------|--------|--------|--------|--------|--------|
G|--------|--------|--------|--------|--------|--------|--------|--------|--------|
D|--------|--------|--------|--------|--------|--------|--------|--------|--------|
A|--------|--------|--------|--------|--------|--------|--------|--------|--------|
E|--------|--------|--------|--------|--------|--------|--------|--------|--------|


E|---------------------------------|---------------------------|-----0---2----2--2---2---5---5---|
B|---------3----3--3---3---3---3---|---------3----3-------3----|-3-------------------------------|
G|-2---4---------------------------|-4---2---------------------|---------------------------------|
D|---------0---------------0-------|---------0----0-------0----|---------0---------------0-------|
A|-0-------------------------------|-0-------------------------|-0-------------------------------|
E|---------------------------------|---------------------------|---------------------------------|


E|-2-------0----0-------0----|-2---0---------------------------|---------------------------------|
B|-----3--------3-------3----|---------3----3--3---3---3---3---|---------3----3--3---3---3---3---|
G|---------------------------|---------------------------------|-2---4---------------------------|
D|---------0----0-------0----|---------0---------------0-------|---------0---------------0-------|
A|-0-------------------------|-0-------------------------------|-0-------------------------------|
E|---------------------------|---------------------------------|---------------------------------|


E|-2---0-------------------2---2---|-0---0---------------------|---------------------------------------|
B|---------3----3--3---3-----------|---------3----3-------3----|---------3---3--3--3---3--3--3---3--3--|
G|---------------------------------|---------2-----------------|-2---4---------------------------------|
D|---------0-----------------------|---------0----0-------0----|---------0-------------------0---------|
A|-0-----------------------0-------|-0-------------------------|-0-------------------------------------|
E|---------------------------------|---------------------------|---------------------------------------|


E|----------------------------------|-----0---2---2--2--2---2--2--5---5--5--|-2-------0---0--0--0---0--0--0----|
B|---------3---3--3--3---3--3--3----|-3-------------------------------------|-----3-------------3---3--3--3----|
G|-4---2----------------------------|---------------------------------------|----------------------------------|
D|---------0---------0---------0----|---------0-------------------0---------|---------0---------0---------0----|
A|-0--------------------------------|-0-------------------------------------|-0--------------------------------|
E|----------------------------------|---------------------------------------|----------------------------------|


E|-2---0---------------------------------|---------------------------------------|
B|---------3---3--3--3---3--3--3---3--3--|---------3---3--3--3---3--3--3---3--3--|
G|---------------------------------------|-2---4---------------------------------|
D|---------0-------------------0---------|---------0-------------------0---------|
A|-0-------------------------------------|-0-------------------------------------|
E|---------------------------------------|---------------------------------------|


E|-2---0-----------------------2---2--2--|-0---0--0---------------------------|---------------------------------------|
B|---------3---3--3--3---3--3------------|-----------3---3--3--3---3--3--3----|---------3---3--3--3---3--3--3---3--3--|
G|---------------------------------------|-----------2---2--2--2---2--2-------|-2---4---------------------------------|
D|---------0-----------------------------|-----------0---0--0--0---0--0--0----|---------0-------------------0---------|
A|-0---------------------------0---------|-0----------------------------------|-0-------------------------------------|
E|---------------------------------------|------------------------------------|---------------------------------------|


E|----------------------------------|-----0---2---2--2--2---2--2--5---5--5--|-2-------0---0--0--0---0--0--0----|
B|---------3---3--3--3---3--3--3----|-3-------------------------------------|-----3-------------3---3--3--3----|
G|-4---2----------------------------|---------------------------------------|----------------------------------|
D|---------0---------0---------0----|---------0-------------------0---------|---------0---------0---------0----|
A|-0--------------------------------|-0-------------------------------------|-0--------------------------------|
E|----------------------------------|---------------------------------------|----------------------------------|


E|-2---0---------------------------------|---------------------------------------|
B|---------3---3--3--3---3--3--3---3--3--|---------3---3--3--3---3--3--3---3--3--|
G|---------------------------------------|-2---4---------------------------------|
D|---------0-------------------0---------|---------0-------------------0---------|
A|-0-------------------------------------|-0-------------------------------------|
E|---------------------------------------|---------------------------------------|


E|-2---0-----------------------2---2--2--|-0---0--0---------------------------|--------|
B|---------3---3--3--3---3--3------------|-----------3---3--3--3---3--3--3----|--------|
G|---------------------------------------|-----------2---2--2--2---2--2-------|--------|
D|---------0-----------------------------|-----------0---0--0--0---0--0--0----|--------|
A|-0---------------------------0---------|-0----------------------------------|--------|
E|---------------------------------------|------------------------------------|--------|


E|--------|--------|--------|--------|--------|--------|--------|--------|--------|
B|--------|--------|--------|--------|--------|--------|--------|--------|--------|
G|--------|--------|--------|--------|--------|--------|--------|--------|--------|
D|--------|--------|--------|--------|--------|--------|--------|--------|--------|
A|--------|--------|--------|--------|--------|--------|--------|--------|--------|
E|--------|--------|--------|--------|--------|--------|--------|--------|--------|





Track 3: Sax

E|--------|--------|--------|--------|--------|--------|--------|--------|--------|
B|--------|--------|--------|--------|--------|--------|--------|--------|--------|
G|--------|--------|--------|--------|--------|--------|--------|--------|--------|
D|--------|--------|--------|--------|--------|--------|--------|--------|--------|
A|--------|--------|--------|--------|--------|--------|--------|--------|--------|
E|--------|--------|--------|--------|--------|--------|--------|--------|--------|


E|-------5-------5----|--------|-------5-------5----|--------|-------------|-------------|
B|--------------------|--------|--------------------|--------|-------------|-------------|
G|-------7-------7----|--------|-------7-------7----|--------|------7------|------7------|
D|-------7-------7----|--------|-------7-------7----|--------|------7------|------7------|
A|-------5-------5----|--------|-------5-------5----|--------|------5------|------5------|
E|--------------------|--------|--------------------|--------|-------------|-------------|


E|-------5-------5----|--------|--------|--------|--------|--------|--------|--------|
B|--------------------|--------|--------|--------|--------|--------|--------|--------|
G|-------7-------7----|--------|--------|--------|--------|--------|--------|--------|
D|-------7-------7----|--------|--------|--------|--------|--------|--------|--------|
A|-------5-------5----|--------|--------|--------|--------|--------|--------|--------|
E|--------------------|--------|--------|--------|--------|--------|--------|--------|


E|--------|--------|--------|--------|--------|--------|--------|--------|--------|
B|--------|--------|--------|--------|--------|--------|--------|--------|--------|
G|--------|--------|--------|--------|--------|--------|--------|--------|--------|
D|--------|--------|--------|--------|--------|--------|--------|--------|--------|
A|--------|--------|--------|--------|--------|--------|--------|--------|--------|
E|--------|--------|--------|--------|--------|--------|--------|--------|--------|


E|--------|--------|--------|--------|--------|--------|--------|--------|--------|
B|--------|--------|--------|--------|--------|--------|--------|--------|--------|
G|--------|--------|--------|--------|--------|--------|--------|--------|--------|
D|--------|--------|--------|--------|--------|--------|--------|--------|--------|
A|--------|--------|--------|--------|--------|--------|--------|--------|--------|
E|--------|--------|--------|--------|--------|--------|--------|--------|--------|


E|-------5-------5----|--------|-------5-------5----|--------|-------------|-------------|
B|--------------------|--------|--------------------|--------|-------------|-------------|
G|-------7-------7----|--------|-------7-------7----|--------|------7------|------7------|
D|-------7-------7----|--------|-------7-------7----|--------|------7------|------7------|
A|-------5-------5----|--------|-------5-------5----|--------|------5------|------5------|
E|--------------------|--------|--------------------|--------|-------------|-------------|


E|-------5-------5----|--------|-------5-------5----|--------|-------5-------5----|
B|--------------------|--------|--------------------|--------|--------------------|
G|-------7-------7----|--------|-------7-------7----|--------|-------7-------7----|
D|-------7-------7----|--------|-------7-------7----|--------|-------7-------7----|
A|-------5-------5----|--------|-------5-------5----|--------|-------5-------5----|
E|--------------------|--------|--------------------|--------|--------------------|


E|--------|-------------|-------------|-------5-------5----|--------|--------|--------|
B|--------|-------------|-------------|--------------------|--------|--------|--------|
G|--------|------7------|------7------|-------7-------7----|--------|--------|--------|
D|--------|------7------|------7------|-------7-------7----|--------|--------|--------|
A|--------|------5------|------5------|-------5-------5----|--------|--------|--------|
E|--------|-------------|-------------|--------------------|--------|--------|--------|


E|--------|--------|--------|--------|--------|-5------|-5-----5---------|
B|--------|--------|--------|--------|--------|--------|-----------------|
G|--------|--------|--------|--------|--------|-7------|-7-----7---------|
D|--------|--------|--------|--------|--------|-7------|-7-----7---------|
A|--------|--------|--------|--------|--------|-5------|-5-----5---------|
E|--------|--------|--------|--------|--------|--------|-----------------|





Track 4: Electric Clean

E|--------|--------|--------|--------|--------|--------|--------|--------|--------|
B|--------|--------|--------|--------|--------|--------|--------|--------|--------|
G|--------|--------|--------|--------|--------|--------|--------|--------|--------|
D|--------|--------|--------|--------|--------|--------|--------|--------|--------|
A|--------|--------|--------|--------|--------|--------|--------|--------|--------|
E|--------|--------|--------|--------|--------|--------|--------|--------|--------|


E|--------|--------|--------|--------|--------|--------|--------|---------------------------------|
B|--------|--------|--------|--------|--------|--------|--------|---------3----3--3---3---3---3---|
G|--------|--------|--------|--------|--------|--------|--------|---------2----2--2---2---2---2---|
D|--------|--------|--------|--------|--------|--------|--------|---------0----0--0---0---0---0---|
A|--------|--------|--------|--------|--------|--------|--------|-0---2---------------------------|
E|--------|--------|--------|--------|--------|--------|--------|---------------------------------|


E|---------------------------|---------2----2--2---2---5---5---|-2-------0----0-------0----|
B|---------3----3-------3----|---------3----3--3---3---3---3---|-3---3---3----3-------3----|
G|---------2----2-------2----|---------2----2--2---2---2---2---|-2---2---2----2-------2----|
D|---------0----0-------0----|-0---2---0----0--0---0---0---0---|-0---0---0----0-------0----|
A|-2---0---------------------|---------------------------------|---------------------------|
E|---------------------------|---------------------------------|---------------------------|


E|---------------------------------|---------------------------------|-------------------------2---2---|
B|---------3----3--3---3---3---3---|---------3----3--3---3---3---3---|---------3----3--3---3---3---3---|
G|---------2----2--2---2---2---2---|---------2----2--2---2---2---2---|---------2----2--2---2---2---2---|
D|-4---2---0----0--0---0---0---0---|---------0----0--0---0---0---0---|-4---2---0----0--0---0---0---0---|
A|---------------------------------|-0---2---------------------------|---------------------------------|
E|---------------------------------|---------------------------------|---------------------------------|


E|-0---0---------------------|---------------------------------|---------------------------|
B|-3---3---3----3-------3----|---------3----3--3---3---3---3---|---------3----3-------3----|
G|-2---2---2----2-------2----|---------2----2--2---2---2---2---|---------2-----------------|
D|-0---0---0----0-------0----|---------0----0--0---0---0---0---|---------0-----------------|
A|---------------------------|-0---2---------------------------|-2---0---------------------|
E|---------------------------|---------------------------------|---------------------------|


E|---------2----2--2---2---5---5---|-2-------0----0-------0----|---------------------------------|
B|---------3----3--3---3---3---3---|-3---3---3----3-------3----|---------3----3--3---3---3---3---|
G|---------2----2--2---2---2---2---|-2---2---2-----------------|---------2----2--2---2---2---2---|
D|-0---2---0----0--0---0---0---0---|-0---0---0-----------------|-4---2---0----0--0---0---0---0---|
A|---------------------------------|---------------------------|---------------------------------|
E|---------------------------------|---------------------------|---------------------------------|


E|---------------------------------|-------------------------2---2---|-0---0---------------------|
B|---------3----3--3---3---3---3---|---------3----3--3---3---3---3---|-3---3---3----3-------3----|
G|---------2----2--2---2---2---2---|---------2----2--2---2---2---2---|-2---2---2----2-------2----|
D|---------0----0--0---0---0---0---|-4---2---0----0--0---0---0---0---|-0---0---0----0-------0----|
A|-0---2---------------------------|---------------------------------|---------------------------|
E|---------------------------------|---------------------------------|---------------------------|


E|--------|--------|--------|--------|--------|--------|--------|--------|---------------------------------------|
B|--------|--------|--------|--------|--------|--------|--------|--------|---------3---3--3--3---3--3--3---3--3--|
G|--------|--------|--------|--------|--------|--------|--------|--------|---------2---2--2--2---2--2--2---2--2--|
D|--------|--------|--------|--------|--------|--------|--------|--------|---------0---0--0--0---0--0--0---0--0--|
A|--------|--------|--------|--------|--------|--------|--------|--------|-0---2---------------------------------|
E|--------|--------|--------|--------|--------|--------|--------|--------|---------------------------------------|


E|----------------------------------|---------2---2--2--2---2--2--5---5--5--|-2-------0---0--0--0---0--0--0----|
B|---------3---3--3--3---3--3--3----|---------3---3--3--3---3--3--3---3--3--|-3---3---3---3--3--3---3--3--3----|
G|----------------------------------|---------2---2--2--2---2--2--2---2--2--|-2---2---2---2--2--2---2--2--2----|
D|---------0---------0---------0----|-0---2---0---0--0--0---0--0--0---0--0--|-0---0---0---0--0--0---0--0--0----|
A|-2---0----------------------------|---------------------------------------|----------------------------------|
E|----------------------------------|---------------------------------------|----------------------------------|


E|---------------------------------------|---------------------------------------|
B|---------3---3--3--3---3--3--3---3--3--|---------3---3--3--3---3--3--3---3--3--|
G|---------2---2--2--2---2--2--2---2--2--|---------2---2--2--2---2--2--2---2--2--|
D|-4---2---0---0--0--0---0--0--0---0--0--|---------0---0--0--0---0--0--0---0--0--|
A|---------------------------------------|-0---2---------------------------------|
E|---------------------------------------|---------------------------------------|


E|-----------------------------2---2--2--|-0---0--0---------------------------|---------------------------------------|
B|---------3---3--3--3---3--3--3---3--3--|-3---3--3--3---3--3--3---3--3--3----|---------3---3--3--3---3--3--3---3--3--|
G|---------2---2--2--2---2--2--2---2--2--|-2---2--2--2---2--2--2---2--2--2----|---------2---2--2--2---2--2--2---2--2--|
D|-4---2---0---0--0--0---0--0--0---0--0--|-0---0--0--0---0--0--0---0--0--0----|---------0---0--0--0---0--0--0---0--0--|
A|---------------------------------------|------------------------------------|-0---2---------------------------------|
E|---------------------------------------|------------------------------------|---------------------------------------|


E|----------------------------------|---------2---2--2--2---2--2--5---5--5--|-2-------0---0--0--0---0--0--0----|
B|---------3---3--3--3---3--3--3----|---------3---3--3--3---3--3--3---3--3--|-3---3---3---3--3--3---3--3--3----|
G|----------------------------------|---------2---2--2--2---2--2--2---2--2--|-2---2---2---2--2--2---2--2--2----|
D|---------0---------0---------0----|-0---2---0---0--0--0---0--0--0---0--0--|-0---0---0---0--0--0---0--0--0----|
A|-2---0----------------------------|---------------------------------------|----------------------------------|
E|----------------------------------|---------------------------------------|----------------------------------|


E|---------------------------------------|---------------------------------------|
B|---------3---3--3--3---3--3--3---3--3--|---------3---3--3--3---3--3--3---3--3--|
G|---------2---2--2--2---2--2--2---2--2--|---------2---2--2--2---2--2--2---2--2--|
D|-4---2---0---0--0--0---0--0--0---0--0--|---------0---0--0--0---0--0--0---0--0--|
A|---------------------------------------|-0---2---------------------------------|
E|---------------------------------------|---------------------------------------|


E|-----------------------------2---2--2--|-0---0--0---------------------------|--------|
B|---------3---3--3--3---3--3--3---3--3--|-3---3--3--3---3--3--3---3--3--3----|--------|
G|---------2---2--2--2---2--2--2---2--2--|-2---2--2--2---2--2--2---2--2--2----|--------|
D|-4---2---0---0--0--0---0--0--0---0--0--|-0---0--0--0---0--0--0---0--0--0----|--------|
A|---------------------------------------|------------------------------------|--------|
E|---------------------------------------|------------------------------------|--------|


E|--------|--------|--------|--------|--------|--------|--------|--------|--------|
B|--------|--------|--------|--------|--------|--------|--------|--------|--------|
G|--------|--------|--------|--------|--------|--------|--------|--------|--------|
D|--------|--------|--------|--------|--------|--------|--------|--------|--------|
A|--------|--------|--------|--------|--------|--------|--------|--------|--------|
E|--------|--------|--------|--------|--------|--------|--------|--------|--------|





Track 5: Overdriven Guitar

E|--------|--------|--------|--------|--------|--------|--------|--------|--------|
B|--------|--------|--------|--------|--------|--------|--------|--------|--------|
G|--------|--------|--------|--------|--------|--------|--------|--------|--------|
D|--------|--------|--------|--------|--------|--------|--------|--------|--------|
A|--------|--------|--------|--------|--------|--------|--------|--------|--------|
E|--------|--------|--------|--------|--------|--------|--------|--------|--------|


E|--------|--------|--------|--------|--------|--------|--------|--------|--------|
B|--------|--------|--------|--------|--------|--------|--------|--------|--------|
G|--------|--------|--------|--------|--------|--------|--------|--------|--------|
D|--------|--------|--------|--------|--------|--------|--------|--------|--------|
A|--------|--------|--------|--------|--------|--------|--------|--------|--------|
E|--------|--------|--------|--------|--------|--------|--------|--------|--------|


E|--------|--------|--------|--------|--------|--------|----------------|---------------------------|
B|--------|--------|--------|--------|--------|--------|---------15-----|---------15---15------15---|
G|--------|--------|--------|--------|--------|--------|-14--16---------|-14--14--------------------|
D|--------|--------|--------|--------|--------|--------|----------------|---------------------------|
A|--------|--------|--------|--------|--------|--------|----------------|---------------------------|
E|--------|--------|--------|--------|--------|--------|----------------|---------------------------|


E|---------14--------17--17--|-14--------------------|-14--12--10-----|---------10----10------|
B|-15--17--------------------|-----15--17----17------|----------------|-10--12----------------|
G|---------------------------|-----------------------|----------------|-----------------------|
D|---------------------------|-----------------------|----------------|-----------------------|
A|---------------------------|-----------------------|----------------|-----------------------|
E|---------------------------|-----------------------|----------------|-----------------------|


E|-12--12--10----------14--14--|-12--12--------------------|--------------------|---------------------------|
B|---------------15-15-15--15--|-15--15--15---15------15---|---------3----------|---------3----3-------3----|
G|-----------------------------|---------14---14------14---|-2---4---2----------|-4---2---2----2-------2----|
D|-----------------------------|---------------------------|---------0----------|---------0----0-------0----|
A|-----------------------------|---------------------------|--------------------|---------------------------|
E|-----------------------------|---------------------------|--------------------|---------------------------|


E|-----0---2----2--2---2---5---5---|-2-------0----0-------0----|-2---0----------|----------------|
B|-3-------3----3--3---3---3---3---|-----3---3----3-------3----|-3---3---3------|---------3------|
G|---------------------------------|---------------------------|---------2------|-2---4---2------|
D|---------------------------------|---------------------------|---------0------|---------0------|
A|---------------------------------|---------------------------|----------------|----------------|
E|---------------------------------|---------------------------|----------------|----------------|


E|-2---0---------2--2--2---2---|-0---0---------------------|--------|--------|--------|
B|-3---3---3-----3--3--3---3---|-3---3---3----3-------3----|--------|--------|--------|
G|---------2-----2--2--2---2---|-2---2---2----2-------2----|--------|--------|--------|
D|---------0-------------------|---------0----0-------0----|--------|--------|--------|
A|-----------------------------|---------------------------|--------|--------|--------|
E|-----------------------------|---------------------------|--------|--------|--------|


E|--------|--------|--------|--------|--------|--------|--------|--------|--------|
B|--------|--------|--------|--------|--------|--------|--------|--------|--------|
G|--------|--------|--------|--------|--------|--------|--------|--------|--------|
D|--------|--------|--------|--------|--------|--------|--------|--------|--------|
A|--------|--------|--------|--------|--------|--------|--------|--------|--------|
E|--------|--------|--------|--------|--------|--------|--------|--------|--------|


E|--------|--------|--------|--------|--------|--------|--------|--------|--------|
B|--------|--------|--------|--------|--------|--------|--------|--------|--------|
G|--------|--------|--------|--------|--------|--------|--------|--------|--------|
D|--------|--------|--------|--------|--------|--------|--------|--------|--------|
A|--------|--------|--------|--------|--------|--------|--------|--------|--------|
E|--------|--------|--------|--------|--------|--------|--------|--------|--------|


E|--------|--------|--------|--------|--------|
B|--------|--------|--------|--------|--------|
G|--------|--------|--------|--------|--------|
D|--------|--------|--------|--------|--------|
A|--------|--------|--------|--------|--------|
E|--------|--------|--------|--------|--------|





Track 6: Bass

G|--------|--------|--------|--------|--------|--------|--------|--------|---------------------------------|
D|--------|--------|--------|--------|--------|--------|--------|--------|---------0----0--0---0---0---0---|
A|--------|--------|--------|--------|--------|--------|--------|--------|-0---2---------------------------|
E|--------|--------|--------|--------|--------|--------|--------|--------|---------------------------------|


G|------------------------|-------------------------2---2---|------------------------|
D|---------0----0----0----|-0---2---4----4--4---4-----------|-4---0---2----0----0----|
A|-2---0------------------|---------------------------------|------------------------|
E|------------------------|---------------------------------|------------------------|


G|------------------------------|---------------------------------|------------------------------|
D|-4----0----0--0---0---0---0---|---------------------------------|-4----0----0--0---0---4---4---|
A|------------------------------|---------5----5--5---5---5---5---|------------------------------|
E|------------------------------|-5---7---------------------------|------------------------------|


G|------------------------|---------------------------------|------------------------|
D|-2---2---0----0----0----|---------0----0--0---0---0---0---|---------0----0----0----|
A|------------------------|-0---2---------------------------|-2---0------------------|
E|------------------------|---------------------------------|------------------------|


G|-------------------------2---2---|------------------------|------------------------------|
D|-0---2---4----4--4---4-----------|-4---0---2----0----0----|-4----0----0--0---0---0---0---|
A|---------------------------------|------------------------|------------------------------|
E|---------------------------------|------------------------|------------------------------|


G|---------------------------------|------------------------------|------------------------|
D|---------------------------------|-4----0----0--0---0---4---4---|-2---2---0----0----0----|
A|---------5----5--5---5---5---5---|------------------------------|------------------------|
E|-5---7---------------------------|------------------------------|------------------------|


G|---------------------------------|------------------------|-------------------------2---2---|
D|---------0----0--0---0---0---0---|---------0----0----0----|-0---2---4----4--4---4-----------|
A|-0---2---------------------------|-2---0------------------|---------------------------------|
E|---------------------------------|------------------------|---------------------------------|


G|------------------------|------------------------------|---------------------------------|
D|-4---0---2----0----0----|-4----0----0--0---0---0---0---|---------------------------------|
A|------------------------|------------------------------|---------5----5--5---5---5---5---|
E|------------------------|------------------------------|-5---7---------------------------|


G|------------------------------|------------------------|---------------------------------|
D|-4----0----0--0---0---4---4---|-2---2---0----0---------|---------0----0--0---0---0---0---|
A|------------------------------|-------------------5----|-0---2---------------------------|
E|------------------------------|------------------------|---------------------------------|


G|------------------------|-------------------------2---2---|------------------------|
D|---------0----0----0----|-0---2---4----4--4---4-----------|-4---0---2----0----0----|
A|-2---0------------------|---------------------------------|------------------------|
E|------------------------|---------------------------------|------------------------|


G|------------------------------|---------------------------------|------------------------------|
D|-4----0----0--0---0---0---0---|---------------------------------|-4----0----0--0---0---4---4---|
A|------------------------------|---------5----5--5---5---5---5---|------------------------------|
E|------------------------------|-5---7---------------------------|------------------------------|


G|------------------------|---------------------------------------|----------------------------------|
D|-2---2---0----0----0----|---------0---0--0--0---0--0--0---0--0--|---------0---0--0--0---0--0--0----|
A|------------------------|-0---2---------------------------------|-2---0----------------------------|
E|------------------------|---------------------------------------|----------------------------------|


G|-----------------------------2---2--2--|----------------------------------|------------------------------------|
D|-0---2---4---4--4--4---4--4------------|-4---0---2---2--2--0---0--0--0----|-4----0---0--0--0---0--0--0---0--0--|
A|---------------------------------------|----------------------------------|------------------------------------|
E|---------------------------------------|----------------------------------|------------------------------------|


G|---------------------------------------|------------------------------------|----------------------------------|
D|---------------------------------------|-4----0---0--0--0---0--0--4---4--4--|-2---2---0---0--0--0---0--0--0----|
A|---------5---5--5--5---5--5--5---5--5--|------------------------------------|----------------------------------|
E|-5---7---------------------------------|------------------------------------|----------------------------------|


G|---------------------------------------|----------------------------------|-----------------------------2---2--2--|
D|---------0---0--0--0---0--0--0---0--0--|---------0---0--0--0---0--0--0----|-0---2---4---4--4--4---4--4------------|
A|-0---2---------------------------------|-2---0----------------------------|---------------------------------------|
E|---------------------------------------|----------------------------------|---------------------------------------|


G|----------------------------------|------------------------------------|---------------------------------------|
D|-4---0---2---2--2--0---0--0--0----|-4----0---0--0--0---0--0--0---0--0--|---------------------------------------|
A|----------------------------------|------------------------------------|---------5---5--5--5---5--5--5---5--5--|
E|----------------------------------|------------------------------------|-5---7---------------------------------|


G|------------------------------------|----------------------------------|---------------------------------|
D|-4----0---0--0--0---0--0--4---4--4--|-2---2---0---0--0--0---0--0--0----|---------0----0--0---0---0---0---|
A|------------------------------------|----------------------------------|-0---2---------------------------|
E|------------------------------------|----------------------------------|---------------------------------|


G|------------------------|-------------------------2---2---|------------------------|
D|---------0----0----0----|-0---2---4----4--4---4-----------|-4---0---2----2----2----|
A|-2---0------------------|---------------------------------|------------------------|
E|------------------------|---------------------------------|------------------------|


G|------------------------------|---------------------------------|------------------------------|
D|-4----0----0--0---0---0---0---|---------------------------------|-4----0----0--0---0---4---4---|
A|------------------------------|---------5----5--5---5---5---5---|------------------------------|
E|------------------------------|-5---7---------------------------|------------------------------|


G|------------------------|--------|-----------------|
D|-2---2---0--------------|--------|-----------------|
A|--------------5----5----|-5------|-5-----5---------|
E|------------------------|--------|-----------------|





Track 7: Drums

G|--------|--------|--------|--------|--------|--------|--------|--------|--------|
D|--------|--------|--------|--------|--------|--------|--------|--------|--------|
A|--------|--------|--------|--------|--------|--------|--------|--------|--------|
E|--------|--------|--------|--------|--------|--------|--------|--------|--------|


G|--------|--------|--------|--------|--------|--------|--------|---------------------|
D|--------|--------|--------|--------|--------|--------|--------|-6----6----6----6----|
A|--------|--------|--------|--------|--------|--------|--------|---------------------|
E|--------|--------|--------|--------|--------|--------|--------|---------------------|


G|---------------------|---------------------|---------------------|---------------------|
D|-6----6----6----6----|-6----6----6----6----|-6----6----6----6----|-6----6----6----6----|
A|---------------------|---------------------|---------------------|---------------------|
E|---------------------|---------------------|---------------------|---------------------|


G|---------------------|---------------------|---------------------|---------------------|
D|-6----6----6----6----|-6----6----6----6----|-6----6----6----6----|-6----6----6----6----|
A|---------------------|---------------------|---------------------|---------------------|
E|---------------------|---------------------|---------------------|---------------------|


G|---------------------|---------------------|---------------------|---------------------|
D|-6----6----6----6----|-6----6----6----6----|-6----6----6----6----|-6----6----6----6----|
A|---------------------|---------------------|---------------------|---------------------|
E|---------------------|---------------------|---------------------|---------------------|


G|---------------------|---------------------|---------------------|-6----6----6----6----|
D|-6----6----6----6----|-6----6----6----6----|-6----6----6----6----|-7----7----7----7----|
A|---------------------|---------------------|---------------------|---------------------|
E|---------------------|---------------------|---------------------|---------------------|


G|-6----6----6----6----|-6----6----6----6----|-6----6----6----6----|-6----6----6----6----|
D|-7----7----7----7----|-7----7----7----7----|-7----7----7----7----|-7----7----7----7----|
A|---------------------|---------------------|---------------------|---------------------|
E|---------------------|---------------------|---------------------|---------------------|


G|-6----6----6----6----|-6----6----6----6----|-6----6----6----6----|-6----6----6----6----|
D|-7----7----7----7----|-7----7----7----7----|-7----7----7----7----|-7----7----7----7----|
A|---------------------|---------------------|---------------------|---------------------|
E|---------------------|---------------------|---------------------|---------------------|


G|-6----6----6----6----|-6----6----6----6----|-6----6----6----6----|-6----6----6----6----|
D|-7----7----7----7----|-7----7----7----7----|-7----7----7----7----|-7----7----7----7----|
A|---------------------|---------------------|---------------------|---------------------|
E|---------------------|---------------------|---------------------|---------------------|


G|-6----6----6----6----|-6----6----6----6----|-6----6----6----6----|-6----6----6----6----|
D|-7----7----7----7----|-7----7----7----7----|-7----7----7----7----|-7----7----7----7----|
A|---------------------|---------------------|---------------------|---------------------|
E|---------------------|---------------------|---------------------|---------------------|


G|-6----6----6----6----|-6----6----6----6----|-6----6----6----6----|-6----6----6----6----|
D|-7----7----7----7----|-7----7----7----7----|-7----7----7----7----|-7----7----7----7----|
A|---------------------|---------------------|---------------------|---------------------|
E|---------------------|---------------------|---------------------|---------------------|


G|-6----6----6----6----|-6----6----6----6----|-6----6----6----6----|--------|--------|
D|-7----7----7----7----|-7----7----7----7----|-7----7----7----7----|--------|--------|
A|---------------------|---------------------|---------------------|--------|--------|
E|---------------------|---------------------|---------------------|--------|--------|


G|--------|--------|--------|--------|--------|--------|--------|--------|
D|--------|--------|--------|--------|--------|--------|--------|--------|
A|--------|--------|--------|--------|--------|--------|--------|--------|
E|--------|--------|--------|--------|--------|--------|--------|--------|