Menu:

 

Search:

 

sguo - 18:

 



Title: 18
Artist: 
Album: 
Author: S-GUO


Track 1: Acoustic Guitar

E|------------|----------------------------------|----------------------------------|
B|------------|----------------------------------|----------------------------------|
G|------------|----------------------------------|----------------------------------|
D|------------|----------------------------------|----------------------------------|
A|--------2---|-9----9---9--9--9--9---9--9---9---|-2----2---2--2--2--2---2--2---2---|
E|--------3---|-10---10--10-10-10-10--10-10--10--|-3----3---3--3--3--3---3--3---3---|


E|----------------------------------|--------------------------------|----------------------------------|
B|----------------------------------|--------------------------------|----------------------------------|
G|----------------------------------|--------------------------------|----------------------------------|
D|----------------------------------|--------------------------------|----------------------------------|
A|-7----7---7--7---7---7--7---7--9--|-5----5---5--5---5---5--5---5---|-9----9---9--9--9--9---9--9---9---|
E|-5----5---5--5---5---5--5---5--7--|-3----3---3--3---3---3--3---3---|-10---10--10-10-10-10--10-10--10--|


E|--------------------------------|--------------------------------|-------------------------0--0--|
B|--------------------------------|--------------------------------|-------------------------3-----|
G|--------------------------------|--------------------------------|-------------------------2-----|
D|--------------------------------|--------------------------------|-------------------------0-----|
A|-9----9---9--9---9---9--9---9---|-5----5---5--5---5---5--5---5---|-7---7--7---7---7--7-----------|
E|-7----7---7--7---7---7--7---7---|-3----3---3--3---3---3--3---3---|-5---5--5---5---5--5-----------|


E|-0--2--2-----2--2--0--0--0--2--2-----2---2--2--|-2-----------2--2--2--2--2-----------2---2--2--|
B|-3-----------3--3--3--3--3-----------3---3--3--|-2--3-----3--3--3--2--2--2--3-----3--3---3--3--|
G|-2--------2--2-----2--2--2--------2--2---2--2--|-2--------2--2-----2--2--2--------2--2---2-----|
D|-0--------0--0-----0-----0--------0--0---------|-4-----4-----4-----4-----4-----4-----4---4-----|
A|-----------------------------------------------|-2-----2-----2-----2-----2-----2-----2---2-----|
E|-----------------------------------------------|-----------------------------------------------|


E|--------------------------------3-----3--|-3--0--0--0--0---0--0---0---0--0---0--0--|
B|--------3---3--3-----0---0--3---3-----3--|-3--3--3--3--3---3--3---3---3--3---3--3--|
G|-0---0--0---0--0-----0---0--0---0--0--0--|-2--2--2--2--2---2--2---2---2--2---2--2--|
D|-0---0--0---0--0--0--0---0--0------0-----|-2-----2------------2---2------2---2-----|
A|-2---2--2---------2------2---------2-----|-0-----0------------0---0------0---0-----|
E|-3---3--3---------3------3---------3-----|-----------------------------------------|


E|-0--2--2-----2--2--0--0--0--2--2-----2---2--2--|-2-----------2--2--2--2--2-----------2---2--2--|
B|-3-----------3--3--3--3--3-----------3---3--3--|-2--3-----3--3--3--2--2--2--3-----3--3---3--3--|
G|-2--------2--2-----2--2--2--------2--2---2--2--|-2--------2--2-----2--2--2--------2--2---2-----|
D|-0--------0--0-----0-----0--------0--0---------|-4-----4-----4-----4-----4-----4-----4---4-----|
A|-----------------------------------------------|-2-----2-----2-----2-----2-----2-----2---2-----|
E|-----------------------------------------------|-----------------------------------------------|


E|--------------------------------3-----3--|-3--0--0--0---0--0--0--0--0--0--0--0----|
B|--------3---3--3-----0---0--3---3-----3--|-3--3--3--3---3--3--3--3--3--3--3--3----|
G|-0---0--0---0--0-----0---0--0---0--0--0--|-2--2--2--2---2--2--2--2--2--2--2--2----|
D|-0---0--0---0--0--0--0---0--0------0-----|-2-----2---------2-----2-----2----------|
A|-2---2--2---------2------2---------2-----|-0-----0---------0-----0-----0----------|
E|-3---3--3---------3------3---------3-----|----------------------------------------|


E|------------------------------------|--------------------------------|--------------------------------|
B|------------------------------------|--------------------------------|--------------------------------|
G|------------------------------------|--------------------------------|--------------------------------|
D|------------------------------------|--------------------------------|--------------------------------|
A|-9----9---9--9--9--9-----9--9---9---|-9----9---9--9---9---9--9---9---|-5----5---5--5---5---5--5---5---|
E|-10---10--10-10-10-10-10----10--10--|-7----7---7--7---7---7--7---7---|-3----3---3--3---3---3--3---3---|


E|-------------------------0--0--|-0--2--2-----2--2--0--0--0--2--2-----2---2--2--|
B|-------------------------3-----|-3-----------3--3--3--3--3-----------3---3--3--|
G|-------------------------2-----|-2--------2--2-----2--2--2--------2--2---2--2--|
D|-------------------------0-----|-0--------0--0-----0-----0--------0--0---------|
A|-7---7--7---7---7--7-----------|-----------------------------------------------|
E|-5---5--5---5---5--5-----------|-----------------------------------------------|


E|-2-----------2--2--2--2--2-----------2---2--2--|--------------------------------3-----3--|
B|-2--3-----3--3--3--2--2--2--3-----3--3---3--3--|--------3---3--3-----0---0--3---3-----3--|
G|-2--------2--2-----2--2--2--------2--2---2-----|-0---0--0---0--0-----0---0--0---0--0--0--|
D|-4-----4-----4-----4-----4-----4-----4---4-----|-0---0--0---0--0--0--0---0--0------0-----|
A|-2-----2-----2-----2-----2-----2-----2---2-----|-2---2--2---------2------2---------2-----|
E|-----------------------------------------------|-3---3--3---------3------3---------3-----|


E|-3--0--0--0--0---0--0---0---0--0---0--0--|-0--2--2-----2--2--0--0--0--2--2-----2---2--2--|
B|-3--3--3--3--3---3--3---3---3--3---3--3--|-3-----------3--3--3--3--3-----------3---3--3--|
G|-2--2--2--2--2---2--2---2---2--2---2--2--|-2--------2--2-----2--2--2--------2--2---2--2--|
D|-2-----2------------2---2------2---2-----|-0--------0--0-----0-----0--------0--0---------|
A|-0-----0------------0---0------0---0-----|-----------------------------------------------|
E|-----------------------------------------|-----------------------------------------------|


E|-2-----------2--2--2--2--2-----------2---2--2--|--------------------------------3-----3--|
B|-2--3-----3--3--3--2--2--2--3-----3--3---3--3--|--------3---3--3-----0---0--3---3-----3--|
G|-2--------2--2-----2--2--2--------2--2---2-----|-0---0--0---0--0-----0---0--0---0--0--0--|
D|-4-----4-----4-----4-----4-----4-----4---4-----|-0---0--0---0--0--0--0---0--0------0-----|
A|-2-----2-----2-----2-----2-----2-----2---2-----|-2---2--2---------2------2---------2-----|
E|-----------------------------------------------|-3---3--3---------3------3---------3-----|


E|-3--0--0--0---0--0--0--0--0--0--0--0----|-2-----2-----2----|-2-----2-----2----|------------------|
B|-3--3--3--3---3--3--3--3--3--3--3--3----|-3-----3-----3----|-3-----3-----3----|------------------|
G|-2--2--2--2---2--2--2--2--2--2--2--2----|-2-----2-----2----|-2-----2-----2----|-0-----0-----0----|
D|-2-----2---------2-----2-----2----------|-0-----0-----0----|-4-----4-----4----|-0-----0-----0----|
A|-0-----0---------0-----0-----0----------|------------------|-2-----2-----2----|-2-----2-----2----|
E|----------------------------------------|------------------|------------------|-3-----3-----3----|


E|-0-----0-----0----|-0--2--2-----2--2--0--0--0--2--2-----2---2--2--|-2-----------2--2--2--2--2-----------2---2--2--|
B|-3-----3-----3----|-3-----------3--3--3--3--3-----------3---3--3--|-2--3-----3--3--3--2--2--2--3-----3--3---3--3--|
G|-2-----2-----2----|-2--------2--2-----2--2--2--------2--2---2--2--|-2--------2--2-----2--2--2--------2--2---2-----|
D|-2-----2-----2----|-0--------0--0-----0-----0--------0--0---------|-4-----4-----4-----4-----4-----4-----4---4-----|
A|-0-----0-----0----|-----------------------------------------------|-2-----2-----2-----2-----2-----2-----2---2-----|
E|------------------|-----------------------------------------------|-----------------------------------------------|


E|--------------------------------3-----3--|-3---0--0---0---0---0---0---0---0--|-3----3---2--2--2-----2--2--|
B|--------3---3--3-----0---0--3---3-----3--|-3---3--3---3---3---3---3---3---3--|-3----3---3--3--3-----3--3--|
G|-0---0--0---0--0-----0---0--0---0--0--0--|-2---2--2---2---2---2---2---2---2--|-2----2---2--2--2-----2--2--|
D|-0---0--0---0--0--0--0---0--0------0-----|-2------2-----------2---2---2---2--|-0----0---0--0--0-----------|
A|-2---2--2---------2------2---------2-----|-0------0-----------0---0---0------|----------------------------|
E|-3---3--3---------3------3---------3-----|-----------------------------------|----------------------------|


E|-3----3---2--2--2-----2--2--|-3----3---2--2--2-----2--2--|-3----3---2--2--2-----2--2--|
B|-3----3---3--3--3-----3--3--|-3----3---3--3--3-----3--3--|-3----3---3--3--3-----3--3--|
G|-2----2---2--2--2-----2--2--|-2----2---2--2--2-----2--2--|-2----2---2--2--2-----2--2--|
D|-0----0---0--0--0-----------|-0----0---0--0--0-----------|-0----0---0--0--0-----------|
A|----------------------------|----------------------------|----------------------------|
E|-3----3---3--3--3-----------|----------------------------|-3----3---3--3--3-----------|


E|-7---7--7---7--7--7--7--------7---7--7--7--|-9---9--9---9--9--9--9--------9---9--9--9--|
B|-7---7--7---7--7--7--7-----7--7---7--7--7--|-10--10-10--10-10-10-10----10-10--10-10-10-|
G|-7---7--7---7--7--7--7-----7--7---7--7--7--|-9---9--9---9--9--9--9-----9--9---9--9--9--|
D|-7---7--7---7--7--7--7--7--7------7--7--7--|-11--11-11--11-11-11-11-11-11-----11-11-11-|
A|-9---9--9---9--9--9--9--9---------9-----9--|-9---9--9---9--9--9--9--9---------9-----9--|
E|-7---7--7---7--7--7--7--7---------7-----7--|-------------------------------------------|


E|-10---10--10-10--10--10-10--10-10-|-10--10-10-10--10-10--10--10-10--10-10-|------------------------------------|
B|-10---10--10-10--10--10-10--10-10-|-10--10-10-10--10-10--10--10-10--10-10-|-13---13--12-12--12-12--12-12-12-12-|
G|-12---12--12-12--12--12-12--12-12-|-12--12-12-12--12-12--12--12-12--12-12-|-12---12--12-12--12-12--12-12-12-12-|
D|-12---12--12-12--12--12-12--12----|-12--12----12--12-12--12--12-12--12----|-12---12--12-12--12-12--12----12----|
A|-10---10--10-10--10--10-10--10----|-10--10----10--10-10--10--10-10--10----|-10---10--10-10--10-10--10----10----|
E|-10---10--10-10--10--10-10--10----|-10--10----10--10-10--10--10-10--10----|------------------------------------|


E|------------------------------------|------------------------------------|------------------------------------|
B|-13---13--12-12--12-12--12-12-12-12-|-13---13--12-12--12-12--12-12-12-12-|-13---13--12-12--12-12--12-12-12-12-|
G|-12---12--12-12--12-12--12-12-12-12-|-12---12--12-12--12-12--12-12-12-12-|-12---12--12-12--12-12--12-12-12-12-|
D|-12---12--12-12--12-12--12----12----|-12---12--12-12--12-12--12----12----|-12---12--12-12--12-12--12----12----|
A|-10---10--10-10--10-10--10----10----|-10---10--10-10--10-10--10----10----|-10---10--10-10--10-10--10----10----|
E|-0----0---0--0---0--0---0-----0-----|-10---10--10-10--10-10--10----10----|-0----0---0--0---0--0---0-----0-----|


E|------------------------------------|------------------------------------|------------------------------------|
B|-13---13--13-13--12-12--12-12-12-12-|-13---13--13-13--12-12--12-12-12-12-|-13---13--13-13--12-12--12-12-12-12-|
G|-12---12--12-12--12-12--12-12-12-12-|-12---12--12-12--12-12--12-12-12-12-|-12---12--12-12--12-12--12-12-12-12-|
D|-10---10--10-10--10-10--10----10----|-12---12--12-12--12-12--12----12----|-12---12--12-12--12-12--12----12----|
A|-0----0---0--0---0--0---0-----0-----|-10---10--10-10--10-10--10----10----|-9----9---9--9---9--9---9-----9-----|
E|-0----0---0--0---0--0---0-----0-----|-0----0---0--0---0--0---0-----0-----|-0----0---0--0---0--0---0-----0-----|


E|------------------------------------|------------------------------------|------------------------------------|
B|-13---13--13-13--12-12--12-12-12-12-|-13---13--13-13--12-12--12-12-12-12-|-13---13--13-13--12-12--12-12-12-12-|
G|-12---12--12-12--12-12--12-12-12-12-|-12---12--12-12--12-12--12-12-12-12-|-12---12--12-12--12-12--12-12-12-12-|
D|-12---12--12-12--12-12--12----12----|-10---10--10-10--10-10--10----10----|-12---12--12-12--12-12--12----12----|
A|-10---10--10-10--10-10--10----10----|-0----0---0--0---0--0---0-----0-----|-10---10--10-10--10-10--10----10----|
E|-10---10--10-10--10-10--10----10----|-0----0---0--0---0--0---0-----0-----|-0----0---0--0---0--0---0-----0-----|


E|------------------------------------|--------------------------------------|-----------------------------------------|
B|-13---13--13-13--12-12--12-12-12-12-|-13---13--13-12-12--------------------|-----------------------------------------|
G|-12---12--12-12--12-12--12-12-12-12-|-12---12--12-12-12-12-12-12-12--11-12-|-12-12-12--12-12--12-12-12-12--12--11-12-|
D|-12---12--12-12--12-12--12----12----|-12---12--12-12-12-12-12-12-12--12-12-|-12-12-12--12-12--12-12-12-12--12--12-12-|
A|-9----9---9--9---9--9---9-----9-----|-10---10--10-10-10-10-10-10-10--10-10-|-10-10-10--10-10--10-10-10-10--10--10-10-|
E|-0----0---0--0---0--0---0-----0-----|-0----0---0--0--0--10-10-10-10--10-10-|-10-10-10--10-10--10-10-10-10--10--10-10-|


E|-----------------------------------------|-----------------------------------------|
B|-----------------------------------------|-----------------------------------------|
G|-12-12-12--12-12--12-12-12-12--12--11-12-|-12-12-12--12-12--12-12-12-12--12--11-12-|
D|-12-12-12--12-12--12-12-10-10--10--10-10-|-10-10-10--10-10--10-10-12-12--12--12-12-|
A|-10-10-10--10-10--10-10-10-10--10--10-10-|-10-10-10--10-10--10-10-10-10--10--10-10-|
E|-10-10-10--10-10--10-10-10-10--10--10-10-|-10-10-10--10-10--10-10-0--0---0---0--0--|


E|-----------------------------------------|---------------------------------------------|
B|-----------------------------------------|---------------------------------------------|
G|-12-12-12--12-12--12-12-12-12--12--11-12-|-12-12-12-12-12-12-12-12-12-12-12--12--11-12-|
D|-12-12-12--12-12--12-12-12-12--12--12-12-|-12-12-12-12-12-12-12-12-12-12-12--12--12-12-|
A|-10-10-10--10-10--10-10-10-10--10--10-10-|-10-10-10-10-10-10-10-10-10-10-10--10--10-10-|
E|-0--0--0---0--0---0--0--10-10--10--10-10-|-10-10-10-10-10-10-10-10-10-10-10--10--10-10-|


E|--------|
B|--------|
G|-12-----|
D|-12-----|
A|-10-----|
E|-10-----|





Track 2: Acoustic Guitar

E|--------|--------|--------|--------|--------|--------|--------|--------|--------|
B|--------|--------|--------|--------|--------|--------|--------|--------|--------|
G|--------|--------|--------|--------|--------|--------|--------|--------|--------|
D|--------|--------|--------|--------|--------|--------|--------|--------|--------|
A|--------|--------|--------|--------|--------|--------|--------|--------|--------|
E|--------|--------|--------|--------|--------|--------|--------|--------|--------|


E|--------|--------|--------|--------|--------|--------|--------|--------|--------|
B|--------|--------|--------|--------|--------|--------|--------|--------|--------|
G|--------|--------|--------|--------|--------|--------|--------|--------|--------|
D|--------|--------|--------|--------|--------|--------|--------|--------|--------|
A|--------|--------|--------|--------|--------|--------|--------|--------|--------|
E|--------|--------|--------|--------|--------|--------|--------|--------|--------|


E|--------|--------|--------|--------|--------|--------|--------|--------|--------|
B|--------|--------|--------|--------|--------|--------|--------|--------|--------|
G|--------|--------|--------|--------|--------|--------|--------|--------|--------|
D|--------|--------|--------|--------|--------|--------|--------|--------|--------|
A|--------|--------|--------|--------|--------|--------|--------|--------|--------|
E|--------|--------|--------|--------|--------|--------|--------|--------|--------|


E|--------|--------|--------|--------|--------|--------|--------|--------|--------|
B|--------|--------|--------|--------|--------|--------|--------|--------|--------|
G|--------|--------|--------|--------|--------|--------|--------|--------|--------|
D|--------|--------|--------|--------|--------|--------|--------|--------|--------|
A|--------|--------|--------|--------|--------|--------|--------|--------|--------|
E|--------|--------|--------|--------|--------|--------|--------|--------|--------|


E|--------|--------|--------|--------|--------|--------|--------|--------|--------|
B|--------|--------|--------|--------|--------|--------|--------|--------|--------|
G|--------|--------|--------|--------|--------|--------|--------|--------|--------|
D|--------|--------|--------|--------|--------|--------|--------|--------|--------|
A|--------|--------|--------|--------|--------|--------|--------|--------|--------|
E|--------|--------|--------|--------|--------|--------|--------|--------|--------|


E|--------|--------|--------|--------|--------|--------|--------|--------|--------|
B|--------|--------|--------|--------|--------|--------|--------|--------|--------|
G|--------|--------|--------|--------|--------|--------|--------|--------|--------|
D|--------|--------|--------|--------|--------|--------|--------|--------|--------|
A|--------|--------|--------|--------|--------|--------|--------|--------|--------|
E|--------|--------|--------|--------|--------|--------|--------|--------|--------|


E|--------|--------|--------|--------|--------|--------|--------|--------|--------|
B|--------|--------|--------|--------|--------|--------|--------|--------|--------|
G|--------|--------|--------|--------|--------|--------|--------|--------|--------|
D|--------|--------|--------|--------|--------|--------|--------|--------|--------|
A|--------|--------|--------|--------|--------|--------|--------|--------|--------|
E|--------|--------|--------|--------|--------|--------|--------|--------|--------|





Track 3: Vocal

E|--------|--------|--------|--------|--------|------------------------------------|
B|--------|--------|--------|--------|--------|-3--3--3----3--2--5---3-----3-------|
G|--------|--------|--------|--------|--------|-------------------------2-------2--|
D|--------|--------|--------|--------|--------|------------------------------------|
A|--------|--------|--------|--------|--------|------------------------------------|
E|--------|--------|--------|--------|--------|------------------------------------|


E|---------------------------------2--|-2---------------2--2--2-------------2--|-2-------------2--2--2-----------------|
B|------------------------------3-----|----3--2--3---3-----------3--3--3-------|-----3--2---3-----------3---3--3-------|
G|-4--2-----2--2----2------2----------|----------------------------------------|-----------------------------------2---|
D|-------4-------------4--------------|----------------------------------------|---------------------------------------|
A|------------------------------------|----------------------------------------|---------------------------------------|
E|------------------------------------|----------------------------------------|---------------------------------------|


E|-------------------------------|--------------------------------------|----------------------------------|
B|-2--3---3----2--2--3---3-------|--------------------------------------|-3---2-------------3--2-----------|
G|-------------------------------|-2--2--------2---------2--2---2--2----|--------2---2---2---------2--2----|
D|----------------------------4--|-------4--4------4--4-----------------|----------------------------------|
A|-------------------------------|--------------------------------------|----------------------------------|
E|-------------------------------|--------------------------------------|----------------------------------|


E|----------------------------------|--------|--------|--------|--------------|-------------------------------|
B|-3--3--2------2---3--3---3---3----|--------|--------|--------|-----------2--|-2---3--3----2--2---3--3-------|
G|----------2-----------------------|--------|--------|--------|--------------|----------------------------2--|
D|----------------------------------|--------|--------|--------|--------------|-------------------------------|
A|----------------------------------|--------|--------|--------|--------------|-------------------------------|
E|----------------------------------|--------|--------|--------|--------------|-------------------------------|


E|------------------------------------2--|-2--------------2--2--------------|-2-------------2---2-----------------|
B|---------------------------------3-----|-----3--2---3---------3---3--3----|----3--3--3-----------3---3--3-------|
G|-2---2--2---2---------2--2--2----------|----------------------------------|---------------------------------2---|
D|----------------2--4-------------------|----------------------------------|-------------------------------------|
A|---------------------------------------|----------------------------------|-------------------------------------|
E|---------------------------------------|----------------------------------|-------------------------------------|


E|-------------------------------|--------------------------------------|----------------------------------|
B|-2--3---3----2--2--3---3-------|--------------------------------------|-3---2-------------3--2-----------|
G|-------------------------------|-2--2--------2---------2--2---2--2----|--------2---2---2---------2--2----|
D|----------------------------4--|-------4--4------4--4-----------------|----------------------------------|
A|-------------------------------|--------------------------------------|----------------------------------|
E|-------------------------------|--------------------------------------|----------------------------------|


E|----------------------------------|--------|--------|--------|--------|---------------------------------|
B|-3--3--2------2---3--3---3---3----|--------|--------|--------|--------|-2---3--3-------2--2--3--3--3----|
G|----------2-----------------------|--------|--------|--------|--------|-------------2-------------------|
D|----------------------------------|--------|--------|--------|--------|---------------------------------|
A|----------------------------------|--------|--------|--------|--------|---------------------------------|
E|----------------------------------|--------|--------|--------|--------|---------------------------------|


E|-------------------------------|---------------------------------------0--|-2--------------0--2----------------|
B|-------------------------------|-2---3--2---3--2------2---3--3--3---3-----|-----3--2---3---------3--3--3----2--|
G|-2------2----------2---2--2----|------------------2-2---------------------|------------------------------------|
D|-----4-------2--4--------------|------------------------------------------|------------------------------------|
A|-------------------------------|------------------------------------------|------------------------------------|
E|-------------------------------|------------------------------------------|------------------------------------|


E|------------------------------------|-----------------------2----------------2--|
B|-3--3--3---3--2------2--3---3----0--|-3--3--2--3------2--3-----3--3--3----3-----|
G|-----------------2------------------|--------------2----------------------------|
D|------------------------------------|-------------------------------------------|
A|------------------------------------|-------------------------------------------|
E|------------------------------------|-------------------------------------------|


E|-2---2---------------------2--|-2---------------------------------|-3----3----2---2-----|
B|--------3----3----3---3-------|-----3--3---3---3---3---3----------|---------------------|
G|------------------------------|-----------------------------------|---------------------|
D|------------------------------|----------------------------7--7---|---------------------|
A|------------------------------|-----------------------------------|---------------------|
E|------------------------------|-----------------------------------|---------------------|


E|-3---3---3---2--2--2-----|-3----3----2---2-----|-3---3---3---2--2--2-----|--------|
B|-------------------------|---------------------|-------------------------|--------|
G|-------------------------|---------------------|-------------------------|--------|
D|-------------------------|---------------------|-------------------------|--------|
A|-------------------------|---------------------|-------------------------|--------|
E|-------------------------|---------------------|-------------------------|--------|


E|--------|--------|--------|-8----8----7---7-----|-8---8---8---7--7--7-----|-8----8----7---7-----|
B|--------|--------|--------|---------------------|-------------------------|---------------------|
G|--------|--------|--------|---------------------|-------------------------|---------------------|
D|--------|--------|--------|---------------------|-------------------------|---------------------|
A|--------|--------|--------|---------------------|-------------------------|---------------------|
E|--------|--------|--------|---------------------|-------------------------|---------------------|


E|-8---8---8---7--7---------|-8----------|-7----8--8---8---------|-7-----------|--------------------|
B|----------------------8---|------------|-----------------------|-------------|-7----8--8----------|
G|----------------------7---|--------7---|-------------------7---|--------7----|---------------7----|
D|--------------------------|------------|-----------------------|-------------|--------------------|
A|--------------------------|------------|-----------------------|-------------|--------------------|
E|--------------------------|------------|-----------------------|-------------|--------------------|


E|-8----------|-7----8--8---8---------|------------|-7---------------------------------|
B|------------|-----------------------|-8----------|-----8---8---7--7----8---8---7--8--|
G|--------7---|-------------------7---|--------7---|-----------------------------------|
D|------------|-----------------------|------------|-----------------------------------|
A|------------|-----------------------|------------|-----------------------------------|
E|------------|-----------------------|------------|-----------------------------------|


E|--------------------------|--------------------------|--------------------------|
B|-8----8-----8---8---7--8--|-8----8-----8---8---7--8--|-8----8-----8---8---7--8--|
G|--------------------------|--------------------------|--------------------------|
D|--------------------------|--------------------------|--------------------------|
A|--------------------------|--------------------------|--------------------------|
E|--------------------------|--------------------------|--------------------------|


E|--------------------------|--------|--------|
B|-8----8-----8---8---7--8--|-8------|--------|
G|--------------------------|--------|--------|
D|--------------------------|--------|--------|
A|--------------------------|--------|--------|
E|--------------------------|--------|--------|





Track 4: Untitled

G|--------|--------|--------|--------|--------|--------|--------|--------|--------|
D|--------|--------|--------|--------|--------|--------|--------|--------|--------|
A|--------|--------|--------|--------|--------|--------|--------|--------|--------|
E|--------|--------|--------|--------|--------|--------|--------|--------|--------|


G|--------|--------|--------|--------|--------|--------|--------|--------|--------|
D|--------|--------|--------|--------|--------|--------|--------|--------|--------|
A|--------|--------|--------|--------|--------|--------|--------|--------|--------|
E|--------|--------|--------|--------|--------|--------|--------|--------|--------|


G|--------|--------|--------|--------|--------|--------|--------|--------|--------|
D|--------|--------|--------|--------|--------|--------|--------|--------|--------|
A|--------|--------|--------|--------|--------|--------|--------|--------|--------|
E|--------|--------|--------|--------|--------|--------|--------|--------|--------|


G|--------|--------|--------|--------|--------|--------|--------|--------|--------|
D|--------|--------|--------|--------|--------|--------|--------|--------|--------|
A|--------|--------|--------|--------|--------|--------|--------|--------|--------|
E|--------|--------|--------|--------|--------|--------|--------|--------|--------|


G|--------|--------|--------|--------|--------|--------|--------|--------|--------|
D|--------|--------|--------|--------|--------|--------|--------|--------|--------|
A|--------|--------|--------|--------|--------|--------|--------|--------|--------|
E|--------|--------|--------|--------|--------|--------|--------|--------|--------|


G|--------|--------|--------|--------|--------|--------|--------|--------|--------|
D|--------|--------|--------|--------|--------|--------|--------|--------|--------|
A|--------|--------|--------|--------|--------|--------|--------|--------|--------|
E|--------|--------|--------|--------|--------|--------|--------|--------|--------|


G|--------|--------|--------|--------|--------|--------|--------|--------|--------|
D|--------|--------|--------|--------|--------|--------|--------|--------|--------|
A|--------|--------|--------|--------|--------|--------|--------|--------|--------|
E|--------|--------|--------|--------|--------|--------|--------|--------|--------|