Menu:

 

Search:

 

red warszawa - tror du det for sjov jeg drikker:

 



Title: Tro Du Det' For Sjov Jeg Drikker
Artist: 
Album: Tysk Hudindustri
Author: Hævi Henning


Track 1: Hævi Henning

E|---------------------------------|---------------------------------|---------------------------------|
B|---------------------------------|---------------------------------|---------------------------------|
G|---------------------------------|---------------------------------|---------------------------------|
D|---------------------------------|-5---5---5---5---5---5---5---5---|---------------------------------|
A|---------------------------------|-3---3---3---3---3---3---3---3---|---------------------------------|
E|-0---0---0---0---0---0---0---0---|---------------------------------|-0---0---0---0---0---0---0---0---|


E|---------------------------------|---------------------------------|---------------------------------|
B|---------------------------------|---------------------------------|---------------------------------|
G|---------------------------------|---------------------------------|---------------------------------|
D|-5---5---5---5---5---5---5---5---|---------------------------------|-5---5---5---5---5---5---5---5---|
A|-3---3---3---3---3---3---3---3---|---------------------------------|-3---3---3---3---3---3---3---3---|
E|---------------------------------|-0---0---0---0---0---0---0---0---|---------------------------------|


E|---------------------------------|---------------------------------|---------------------------------|
B|---------------------------------|---------------------------------|---------------------------------|
G|---------------------------------|---------------------------------|---------------------------------|
D|---------------------------------|-5---5---5---5---5---5---5---5---|---------------------------------|
A|---------------------------------|-3---3---3---3---3---3---3---3---|---------------------------------|
E|-0---0---0---0---0---0---0---0---|---------------------------------|-0---0---0---0---0---0---0---0---|


E|---------------------------------|---------------------------------|---------------------------------|
B|---------------------------------|---------------------------------|---------------------------------|
G|---------------------------------|---------------------------------|---------------------------------|
D|-5---5---5---5---5---5---5---5---|---------------------------------|-7---7---7---7---7---7---7---7---|
A|-3---3---3---3---3---3---3---3---|---------------------------------|-5---5---5---5---5---5---5---5---|
E|---------------------------------|-0---0---0---0---0---0---0---0---|---------------------------------|


E|---------------------------------|------------------------------|---------------------------------|
B|---------------------------------|------------------------------|---------------------------------|
G|---------------------------------|------------------------------|---------------------------------|
D|---------0---2-----------0---2---|---------0---2-----------5----|---------0---2-----------0---2---|
A|---------0---2-----------0---2---|---------0---2-----------3----|---------0---2-----------0---2---|
E|-0---0-----------0---0-----------|-0---0-----------0---0--------|-0---0-----------0---0-----------|


E|------------------------------|---------------------------------|------------------------------|
B|------------------------------|---------------------------------|------------------------------|
G|------------------------------|---------------------------------|------------------------------|
D|---------0---2-----------7----|---------0---2-----------0---2---|---------0---2-----------5----|
A|---------0---2-----------5----|---------0---2-----------0---2---|---------0---2-----------3----|
E|-0---0-----------0---0--------|-0---0-----------0---0-----------|-0---0-----------0---0--------|


E|---------------------------------|---------------------------------|---------------------------------|
B|---------------------------------|---------------------------------|---------------------------------|
G|---------------------------------|---------------------------------|---------------------------------|
D|---------0---2-----------0---2---|---------------------------------|---------0---2-----------0---2---|
A|---------0---2-----------0---2---|-7---5-------5-------------------|---------0---2-----------0---2---|
E|-0---0-----------0---0-----------|---------7-------7---6---5---3---|-0---0-----------0---0-----------|


E|------------------------------|---------------------------------|------------------------------|
B|------------------------------|---------------------------------|------------------------------|
G|------------------------------|---------------------------------|------------------------------|
D|---------0---2-----------5----|---------0---2-----------0---2---|---------0---2-----------7----|
A|---------0---2-----------3----|---------0---2-----------0---2---|---------0---2-----------5----|
E|-0---0-----------0---0--------|-0---0-----------0---0-----------|-0---0-----------0---0--------|


E|---------------------------------|------------------------------|---------------------------------|
B|---------------------------------|------------------------------|---------------------------------|
G|---------------------------------|------------------------------|---------------------------------|
D|---------0---2-----------0---2---|---------0---2-----------5----|---------0---2-----------0---2---|
A|---------0---2-----------0---2---|---------0---2-----------3----|---------0---2-----------0---2---|
E|-0---0-----------0---0-----------|-0---0-----------0---0--------|-0---0-----------0---0-----------|


E|------------------------------|-------------|-------------|--------|-----------------|
B|------------------------------|-------------|-------------|--------|-----------------|
G|------------------------------|-------------|-------------|--------|-----------------|
D|---------0---2-----------7----|-5------5----|-4------4----|-2------|-2-----4----5----|
A|---------0---2-----------5----|-7------7----|-5------5----|-0------|-0-----0----0----|
E|-0---0-----------0---0--------|-------------|-------------|--------|-----------------|


E|-------------|-------------|--------|-----------------|---------------------------------|
B|-------------|-------------|--------|-----------------|---------------------------------|
G|-------------|-------------|--------|-----------------|---------------------------------|
D|-5------9----|-4------9----|-2------|-2-----4----5----|---------------------------------|
A|-7------7----|-5------5----|-0------|-0-----0----0----|---------------------------------|
E|-------------|-------------|--------|-----------------|-0---0---0---0---0---0---0---0---|


E|---------------------------------|---------------------------------|---------------------------------|
B|---------------------------------|---------------------------------|---------------------------------|
G|---------------------------------|---------------------------------|---------------------------------|
D|-5---5---5---5---5---5---5---5---|---------------------------------|-7---7---7---7---7---7---7---7---|
A|-3---3---3---3---3---3---3---3---|---------------------------------|-5---5---5---5---5---5---5---5---|
E|---------------------------------|-0---0---0---0---0---0---0---0---|---------------------------------|


E|---------------------------------|---------------------------------|---------------------------------|
B|---------------------------------|---------------------------------|---------------------------------|
G|---------------------------------|---------------------------------|---------------------------------|
D|---------------------------------|-5---5---5---5---5---5---5---5---|---------------------------------|
A|---------------------------------|-3---3---3---3---3---3---3---3---|---------------------------------|
E|-0---0---0---0---0---0---0---0---|---------------------------------|-0---0---0---0---0---0---0---0---|


E|---------------------------------|---------------------------------|------------------------------|
B|---------------------------------|---------------------------------|------------------------------|
G|---------------------------------|---------------------------------|------------------------------|
D|-7---7---7---7---7---7---7---7---|---------0---2-----------0---2---|---------0---2-----------5----|
A|-5---5---5---5---5---5---5---5---|---------0---2-----------0---2---|---------0---2-----------3----|
E|---------------------------------|-0---0-----------0---0-----------|-0---0-----------0---0--------|


E|---------------------------------|------------------------------|---------------------------------|
B|---------------------------------|------------------------------|---------------------------------|
G|---------------------------------|------------------------------|---------------------------------|
D|---------0---2-----------0---2---|---------0---2-----------7----|---------0---2-----------0---2---|
A|---------0---2-----------0---2---|---------0---2-----------5----|---------0---2-----------0---2---|
E|-0---0-----------0---0-----------|-0---0-----------0---0--------|-0---0-----------0---0-----------|


E|------------------------------|---------------------------------|---------------------------------|
B|------------------------------|---------------------------------|---------------------------------|
G|------------------------------|---------------------------------|---------------------------------|
D|---------0---2-----------5----|---------0---2-----------0---2---|---------------------------------|
A|---------0---2-----------3----|---------0---2-----------0---2---|-7---5-------5-------------------|
E|-0---0-----------0---0--------|-0---0-----------0---0-----------|---------7-------7---6---5---3---|


E|---------------------------------|------------------------------|---------------------------------|
B|---------------------------------|------------------------------|---------------------------------|
G|---------------------------------|------------------------------|---------------------------------|
D|---------0---2-----------0---2---|---------0---2-----------5----|---------0---2-----------0---2---|
A|---------0---2-----------0---2---|---------0---2-----------3----|---------0---2-----------0---2---|
E|-0---0-----------0---0-----------|-0---0-----------0---0--------|-0---0-----------0---0-----------|


E|------------------------------|---------------------------------|------------------------------|
B|------------------------------|---------------------------------|------------------------------|
G|------------------------------|---------------------------------|------------------------------|
D|---------0---2-----------7----|---------0---2-----------0---2---|---------0---2-----------5----|
A|---------0---2-----------5----|---------0---2-----------0---2---|---------0---2-----------3----|
E|-0---0-----------0---0--------|-0---0-----------0---0-----------|-0---0-----------0---0--------|


E|---------------------------------|------------------------------|-------------|-------------|
B|---------------------------------|------------------------------|-------------|-------------|
G|---------------------------------|------------------------------|-------------|-------------|
D|---------0---2-----------0---2---|---------0---2-----------7----|-5------5----|-4------4----|
A|---------0---2-----------0---2---|---------0---2-----------5----|-7------7----|-5------5----|
E|-0---0-----------0---0-----------|-0---0-----------0---0--------|-------------|-------------|


E|--------|-----------------|-------------|-------------|--------|-----------------|
B|--------|-----------------|-------------|-------------|--------|-----------------|
G|--------|-----------------|-------------|-------------|--------|-----------------|
D|-2------|-2-----4----5----|-5------9----|-4------9----|-2------|-2-----4----5----|
A|-0------|-0-----0----0----|-7------7----|-5------5----|-0------|-0-----0----0----|
E|--------|-----------------|-------------|-------------|--------|-----------------|


E|---------------------------------|---------------------------------|---------------------------------|
B|---------------------------------|---------------------------------|---------------------------------|
G|---------------------------------|---------------------------------|---------------------------------|
D|---------------------------------|-5---5---5---5---5---5---5---5---|---------------------------------|
A|---------------------------------|-3---3---3---3---3---3---3---3---|---------------------------------|
E|-0---0---0---0---0---0---0---0---|---------------------------------|-0---0---0---0---0---0---0---0---|


E|---------------------------------|---------------------------------|---------------------------------|
B|---------------------------------|---------------------------------|---------------------------------|
G|---------------------------------|---------------------------------|---------------------------------|
D|-7---7---7---7---7---7---7---7---|---------------------------------|-5---5---5---5---5---5---5---5---|
A|-5---5---5---5---5---5---5---5---|---------------------------------|-3---3---3---3---3---3---3---3---|
E|---------------------------------|-0---0---0---0---0---0---0---0---|---------------------------------|


E|---------------------------------|---------------------------------|---------------------------------|
B|---------------------------------|---------------------------------|---------------------------------|
G|---------------------------------|---------------------------------|---------------------------------|
D|---------------------------------|-7---7---7---7---7---7---7---7---|---------0---2-----------0---2---|
A|---------------------------------|-5---5---5---5---5---5---5---5---|---------0---2-----------0---2---|
E|-0---0---0---0---0---0---0---0---|---------------------------------|-0---0-----------0---0-----------|


E|------------------------------|---------------------------------|------------------------------|
B|------------------------------|---------------------------------|------------------------------|
G|------------------------------|---------------------------------|------------------------------|
D|---------0---2-----------5----|---------0---2-----------0---2---|---------0---2-----------7----|
A|---------0---2-----------3----|---------0---2-----------0---2---|---------0---2-----------5----|
E|-0---0-----------0---0--------|-0---0-----------0---0-----------|-0---0-----------0---0--------|


E|---------------------------------|------------------------------|---------------------------------|
B|---------------------------------|------------------------------|---------------------------------|
G|---------------------------------|------------------------------|---------------------------------|
D|---------0---2-----------0---2---|---------0---2-----------5----|---------0---2-----------0---2---|
A|---------0---2-----------0---2---|---------0---2-----------3----|---------0---2-----------0---2---|
E|-0---0-----------0---0-----------|-0---0-----------0---0--------|-0---0-----------0---0-----------|


E|------------------------------|---------------------------------|------------------------------|
B|------------------------------|---------------------------------|------------------------------|
G|------------------------------|---------------------------------|------------------------------|
D|---------0---2-----------7----|---------------------------------|------------------------------|
A|---------0---2-----------5----|-4---4---4---4---4---4---4---4---|-4---4---4---4---5---7---7----|
E|-0---0-----------0---0--------|-2---2---2---2---2---2---2---2---|-2---2---2---2---3---5---5----|


E|---------------------------------|------------------------------|---------------------------------|
B|---------------------------------|------------------------------|---------------------------------|
G|---------------------------------|------------------------------|---------------------------------|
D|---------------------------------|------------------------------|---------------------------------|
A|-4---4---4---4---4---4---4---4---|-4---4---4---4---5---7---7----|-4---4---4---4---4---4---4---4---|
E|-2---2---2---2---2---2---2---2---|-2---2---2---2---3---5---5----|-2---2---2---2---2---2---2---2---|


E|------------------------------|---------------------------------|------------------------------|
B|------------------------------|---------------------------------|------------------------------|
G|------------------------------|---------------------------------|------------------------------|
D|------------------------------|---------------------------------|------------------------------|
A|-4---4---4---4---5---7---7----|-4---4---4---4---4---4---4---4---|-4---4---4---4---5---7---7----|
E|-2---2---2---2---3---5---5----|-2---2---2---2---2---2---2---2---|-2---2---2---2---3---5---5----|


E|---------------------------------|------------------------------|---------------------------------|
B|---------------------------------|------------------------------|---------------------------------|
G|---------------------------------|------------------------------|---------------------------------|
D|---------------------------------|------------------------------|---------------------------------|
A|-4---4---4---4---4---4---4---4---|-4---4---4---4---5---7---7----|-4---4---4---4---4---4---4---4---|
E|-2---2---2---2---2---2---2---2---|-2---2---2---2---3---5---5----|-2---2---2---2---2---2---2---2---|


E|------------------------------|---------------------------------|------------------------------|
B|------------------------------|---------------------------------|------------------------------|
G|------------------------------|---------------------------------|------------------------------|
D|------------------------------|---------------------------------|------------------------------|
A|-4---4---4---4---5---7---7----|-4---4---4---4---4---4---4---4---|-4---4---4---4---5---7---7----|
E|-2---2---2---2---3---5---5----|-2---2---2---2---2---2---2---2---|-2---2---2---2---3---5---5----|


E|---------------------------------|------------------------------|--------|--------|
B|---------------------------------|------------------------------|--------|--------|
G|---------------------------------|------------------------------|--------|--------|
D|---------------------------------|------------------------------|--------|--------|
A|-4---4---4---4---4---4---4---4---|-4---4---4---4---5---7---7----|-2------|-2------|
E|-2---2---2---2---2---2---2---2---|-2---2---2---2---3---5---5----|-0------|-0------|


E|--------|--------|--------|--------|--------|--------|---------------------------------|
B|--------|--------|--------|--------|--------|--------|---------------------------------|
G|--------|--------|--------|--------|--------|--------|---------------------------------|
D|--------|--------|--------|--------|--------|--------|---------0---2-----------0---2---|
A|-2------|-2------|-2------|-2------|-2------|-2------|---------0---2-----------0---2---|
E|-0------|-0------|-0------|-0------|-0------|-0------|-0---0-----------0---0-----------|


E|------------------------------|---------------------------------|------------------------------|
B|------------------------------|---------------------------------|------------------------------|
G|------------------------------|---------------------------------|------------------------------|
D|---------0---2-----------5----|---------0---2-----------0---2---|---------0---2-----------7----|
A|---------0---2-----------3----|---------0---2-----------0---2---|---------0---2-----------5----|
E|-0---0-----------0---0--------|-0---0-----------0---0-----------|-0---0-----------0---0--------|


E|---------------------------------|------------------------------|---------------------------------|
B|---------------------------------|------------------------------|---------------------------------|
G|---------------------------------|------------------------------|---------------------------------|
D|---------0---2-----------0---2---|---------0---2-----------5----|---------0---2-----------0---2---|
A|---------0---2-----------0---2---|---------0---2-----------3----|---------0---2-----------0---2---|
E|-0---0-----------0---0-----------|-0---0-----------0---0--------|-0---0-----------0---0-----------|


E|---------------------------------|---------------------------------|------------------------------|
B|---------------------------------|---------------------------------|------------------------------|
G|---------------------------------|---------------------------------|------------------------------|
D|---------------------------------|---------0---2-----------0---2---|---------0---2-----------5----|
A|-7---5-------5-------------------|---------0---2-----------0---2---|---------0---2-----------3----|
E|---------7-------7---6---5---3---|-0---0-----------0---0-----------|-0---0-----------0---0--------|


E|---------------------------------|------------------------------|---------------------------------|
B|---------------------------------|------------------------------|---------------------------------|
G|---------------------------------|------------------------------|---------------------------------|
D|---------0---2-----------0---2---|---------0---2-----------7----|---------0---2-----------0---2---|
A|---------0---2-----------0---2---|---------0---2-----------5----|---------0---2-----------0---2---|
E|-0---0-----------0---0-----------|-0---0-----------0---0--------|-0---0-----------0---0-----------|


E|------------------------------|---------------------------------|------------------------------|
B|------------------------------|---------------------------------|------------------------------|
G|------------------------------|---------------------------------|------------------------------|
D|---------0---2-----------5----|---------0---2-----------0---2---|---------0---2-----------7----|
A|---------0---2-----------3----|---------0---2-----------0---2---|---------0---2-----------5----|
E|-0---0-----------0---0--------|-0---0-----------0---0-----------|-0---0-----------0---0--------|


E|-------------|-------------|--------|-----------------|-------------|-------------|
B|-------------|-------------|--------|-----------------|-------------|-------------|
G|-------------|-------------|--------|-----------------|-------------|-------------|
D|-5------5----|-4------4----|-2------|-2-----4----5----|-5------9----|-4------9----|
A|-7------7----|-5------5----|-0------|-0-----0----0----|-7------7----|-5------5----|
E|-------------|-------------|--------|-----------------|-------------|-------------|


E|--------|-----------------|---------------------------------|---------------------------------|
B|--------|-----------------|---------------------------------|---------------------------------|
G|--------|-----------------|---------------------------------|---------------------------------|
D|-2------|-2-----4----5----|---------------------------------|-5---5---5---5---5---5---5---5---|
A|-0------|-0-----0----0----|---------------------------------|-3---3---3---3---3---3---3---3---|
E|--------|-----------------|-0---0---0---0---0---0---0---0---|---------------------------------|


E|---------------------------------|---------------------------------|---------------------------------|
B|---------------------------------|---------------------------------|---------------------------------|
G|---------------------------------|---------------------------------|---------------------------------|
D|---------------------------------|-7---7---7---7---7---7---7---7---|---------------------------------|
A|---------------------------------|-5---5---5---5---5---5---5---5---|---------------------------------|
E|-0---0---0---0---0---0---0---0---|---------------------------------|-0---0---0---0---0---0---0---0---|


E|---------------------------------|---------------------------------|---------------------------------|
B|---------------------------------|---------------------------------|---------------------------------|
G|---------------------------------|---------------------------------|---------------------------------|
D|-5---5---5---5---5---5---5---5---|---------------------------------|-7---7---7---7---7---7---7---7---|
A|-3---3---3---3---3---3---3---3---|---------------------------------|-5---5---5---5---5---5---5---5---|
E|---------------------------------|-0---0---0---0---0---0---0---0---|---------------------------------|





Track 2: Hævi Henning Solo

E|--------|--------|--------|--------|--------|--------|--------|--------|--------|
B|--------|--------|--------|--------|--------|--------|--------|--------|--------|
G|--------|--------|--------|--------|--------|--------|--------|--------|--------|
D|--------|--------|--------|--------|--------|--------|--------|--------|--------|
A|--------|--------|--------|--------|--------|--------|--------|--------|--------|
E|--------|--------|--------|--------|--------|--------|--------|--------|--------|


E|--------|--------|--------|--------|--------|--------|--------|--------|--------|
B|--------|--------|--------|--------|--------|--------|--------|--------|--------|
G|--------|--------|--------|--------|--------|--------|--------|--------|--------|
D|--------|--------|--------|--------|--------|--------|--------|--------|--------|
A|--------|--------|--------|--------|--------|--------|--------|--------|--------|
E|--------|--------|--------|--------|--------|--------|--------|--------|--------|


E|--------|--------|--------|--------|--------|--------|--------|--------|--------|
B|--------|--------|--------|--------|--------|--------|--------|--------|--------|
G|--------|--------|--------|--------|--------|--------|--------|--------|--------|
D|--------|--------|--------|--------|--------|--------|--------|--------|--------|
A|--------|--------|--------|--------|--------|--------|--------|--------|--------|
E|--------|--------|--------|--------|--------|--------|--------|--------|--------|


E|--------|--------|--------|--------|--------|--------|--------|--------|--------|
B|--------|--------|--------|--------|--------|--------|--------|--------|--------|
G|--------|--------|--------|--------|--------|--------|--------|--------|--------|
D|--------|--------|--------|--------|--------|--------|--------|--------|--------|
A|--------|--------|--------|--------|--------|--------|--------|--------|--------|
E|--------|--------|--------|--------|--------|--------|--------|--------|--------|


E|--------|--------|--------|--------|--------|--------|--------|--------|--------|
B|--------|--------|--------|--------|--------|--------|--------|--------|--------|
G|--------|--------|--------|--------|--------|--------|--------|--------|--------|
D|--------|--------|--------|--------|--------|--------|--------|--------|--------|
A|--------|--------|--------|--------|--------|--------|--------|--------|--------|
E|--------|--------|--------|--------|--------|--------|--------|--------|--------|


E|--------|--------|--------|--------|--------|--------|--------|--------|--------|
B|--------|--------|--------|--------|--------|--------|--------|--------|--------|
G|--------|--------|--------|--------|--------|--------|--------|--------|--------|
D|--------|--------|--------|--------|--------|--------|--------|--------|--------|
A|--------|--------|--------|--------|--------|--------|--------|--------|--------|
E|--------|--------|--------|--------|--------|--------|--------|--------|--------|


E|--------|--------|--------|--------|--------|--------|--------|--------|--------|
B|--------|--------|--------|--------|--------|--------|--------|--------|--------|
G|--------|--------|--------|--------|--------|--------|--------|--------|--------|
D|--------|--------|--------|--------|--------|--------|--------|--------|--------|
A|--------|--------|--------|--------|--------|--------|--------|--------|--------|
E|--------|--------|--------|--------|--------|--------|--------|--------|--------|


E|--------|--------|--------|--------|--------|--------|--------|--------|--------|
B|--------|--------|--------|--------|--------|--------|--------|--------|--------|
G|--------|--------|--------|--------|--------|--------|--------|--------|--------|
D|--------|--------|--------|--------|--------|--------|--------|--------|--------|
A|--------|--------|--------|--------|--------|--------|--------|--------|--------|
E|--------|--------|--------|--------|--------|--------|--------|--------|--------|


E|--------|--------|--------|--------|--------|--------|--------|--------|--------|
B|--------|--------|--------|--------|--------|--------|--------|--------|--------|
G|--------|--------|--------|--------|--------|--------|--------|--------|--------|
D|--------|--------|--------|--------|--------|--------|--------|--------|--------|
A|--------|--------|--------|--------|--------|--------|--------|--------|--------|
E|--------|--------|--------|--------|--------|--------|--------|--------|--------|


E|--------|--------|--------|-----------------------|---------------------------|-----------------------|
B|--------|--------|--------|-----------------------|---------------------------|-----------------------|
G|--------|--------|--------|-----------------------|---------------------------|-----------------------|
D|--------|--------|--------|---------8-------------|---------8------------9----|---------8-------------|
A|--------|--------|--------|-7---9-------9---9-----|-7---9--------9---10-------|-7---9-------9---9-----|
E|--------|--------|--------|-----------------------|---------------------------|-----------------------|


E|---------------------------|-----------------------|---------------------------|
B|---------------------------|-----------------------|---------------------------|
G|---------------------------|-----------------------|---------------------------|
D|---------9------------11---|---------8-------------|---------8------------9----|
A|-9---10-------10--12-------|-7---9-------9---9-----|-7---9--------9---10-------|
E|---------------------------|-----------------------|---------------------------|


E|-----------------------|---------------------------|-----------------------|--------------------|
B|-----------------------|---------------------------|-----------------------|--------------9-----|
G|-----------------------|---------------------------|---------11--9---9-----|-9---11--11---------|
D|---------8-------------|---------9------------11---|-9---11----------------|--------------------|
A|-7---9-------9---9-----|-9---10-------10--12-------|-----------------------|--------------------|
E|-----------------------|---------------------------|-----------------------|--------------------|


E|---------------------------|---------------------------|----------------------------14-------|
B|---------------------------|-----10--10---12---12------|-11-------12-------14----------------|
G|---------11--9---9----11---|-11--------------------11--|------11-------11-------11-------11--|
D|-9---11--------------------|---------------------------|-------------------------------------|
A|---------------------------|---------------------------|-------------------------------------|
E|---------------------------|---------------------------|-------------------------------------|


E|-12-------14-------16-------17-------|-14-------16-------17-------19-------|-16-------17-------19-------21-------|
B|-------------------------------------|-------------------------------------|-------------------------------------|
G|------11-------11--------------------|-------------------------------------|-------------------------------------|
D|------------------------16-------16--|------16-------16-------16-------16--|------16-------16-------16-------16--|
A|-------------------------------------|-------------------------------------|-------------------------------------|
E|-------------------------------------|-------------------------------------|-------------------------------------|


E|-19-----|-19--19-17-16-14---10------10--14--|-10--12--12-----|-12----12-----------|
B|--------|-----------------------12----------|----------------|------------12--12--|
G|--------|-----------------------------------|----------------|--------------------|
D|--------|-----------------------------------|----------------|--------------------|
A|--------|-----------------------------------|----------------|--------------------|
E|--------|-----------------------------------|----------------|--------------------|


E|---------------------------------|---------------------------------|--------|-------------|
B|-12--15--15--10--10--12--12--8---|-8---10--10--7---7---8---7-------|--------|-------------|
G|---------------------------------|-----------------------------8---|--------|-------------|
D|---------------------------------|---------------------------------|-9------|-9-----9-----|
A|---------------------------------|---------------------------------|--------|-------------|
E|---------------------------------|---------------------------------|--------|-------------|


E|--------|--------|--------|--------|--------|--------|--------|--------|--------|
B|--------|--------|--------|--------|--------|--------|--------|--------|--------|
G|--------|--------|--------|--------|--------|--------|--------|--------|--------|
D|--------|--------|--------|--------|--------|--------|--------|--------|--------|
A|--------|--------|--------|--------|--------|--------|--------|--------|--------|
E|--------|--------|--------|--------|--------|--------|--------|--------|--------|


E|--------|--------|--------|--------|--------|--------|--------|--------|--------|
B|--------|--------|--------|--------|--------|--------|--------|--------|--------|
G|--------|--------|--------|--------|--------|--------|--------|--------|--------|
D|--------|--------|--------|--------|--------|--------|--------|--------|--------|
A|--------|--------|--------|--------|--------|--------|--------|--------|--------|
E|--------|--------|--------|--------|--------|--------|--------|--------|--------|


E|--------|--------|--------|--------|--------|--------|--------|--------|--------|
B|--------|--------|--------|--------|--------|--------|--------|--------|--------|
G|--------|--------|--------|--------|--------|--------|--------|--------|--------|
D|--------|--------|--------|--------|--------|--------|--------|--------|--------|
A|--------|--------|--------|--------|--------|--------|--------|--------|--------|
E|--------|--------|--------|--------|--------|--------|--------|--------|--------|


E|--------|--------|--------|--------|--------|
B|--------|--------|--------|--------|--------|
G|--------|--------|--------|--------|--------|
D|--------|--------|--------|--------|--------|
A|--------|--------|--------|--------|--------|
E|--------|--------|--------|--------|--------|





Track 3: Untitled

G|---------------------------------|--------|---------------------------------|--------|
D|---------------------------------|--------|---------------------------------|--------|
A|---------------------------------|--------|---------------------------------|--------|
E|-0---0---0---0---0---0---0---0---|--------|-0---0---0---0---0---0---0---0---|--------|


G|---------------------------------|---------------------------------|---------------------------------|
D|---------------------------------|---------------------------------|---------------------------------|
A|---------------------------------|-3---3---3---3---3---3---3---3---|---------------------------------|
E|-0---0---0---0---0---0---0---0---|---------------------------------|-0---0---0---0---0---0---0---0---|


G|---------------------------------|---------------------------------|---------------------------------|
D|---------------------------------|---------------------------------|---------------------------------|
A|-3---3---3---3---3---3---3---3---|---------------------------------|-3---3---3---3---3---3---3---3---|
E|---------------------------------|-0---0---0---0---0---0---0---0---|---------------------------------|


G|---------------------------------|---------------------------------|--------|-------------|
D|---------------------------------|---------------------------------|--------|-------------|
A|---------------------------------|-5---5---5---5---5---5---5---5---|--------|--------3----|
E|-0---0---0---0---0---0---0---0---|---------------------------------|--------|-------------|


G|--------|-------------|---------------------------------|------------------------------|
D|--------|-------------|---------------------------------|------------------------------|
A|--------|--------5----|---------------------------------|-------------------------3----|
E|--------|-------------|-0---0---0---0---0---0---0---0---|-0---0---0---0---0---0--------|


G|---------------------------------|-------------|---------------------------------|
D|---------------------------------|-------------|---------------------------------|
A|---------------------------------|-7-----------|---------------------------------|
E|-0---0---0---0---0---0---0---0---|-------------|-0---0---0---0---0---0---0---0---|


G|------------------------------|---------------------------------|------------------------------|
D|------------------------------|---------------------------------|------------------------------|
A|-------------------------3----|---------------------------------|-------------------------5----|
E|-0---0---0---0---0---0--------|-0---0---0---0---0---0---0---0---|-0---0---0---0---0---0--------|


G|---------------------------------|------------------------------|---------------------------------|
D|---------------------------------|------------------------------|---------------------------------|
A|---------------------------------|-------------------------3----|---------------------------------|
E|-0---0---0---0---0---0---0---0---|-0---0---0---0---0---0--------|-0---0---0---0---0---0---0---0---|


G|------------------------------|---------------------------------|---------------------------------|
D|------------------------------|---------------------------------|---------------------------------|
A|-------------------------5----|-7---7---7---7---7---7---7---7---|-5---5---5---5---5---5---5---5---|
E|-0---0---0---0---0---0--------|---------------------------------|---------------------------------|


G|---------------------------------|---------------------------------|---------------------------------|
D|---------------------------------|---------------------------------|---------------------------------|
A|-0---0---0---0---0---0---0---0---|-0---0---0---0---0---0---0---0---|-7---7---7---7---7---7---7---7---|
E|---------------------------------|---------------------------------|---------------------------------|


G|---------------------------------|---------------------------------|---------------------------------|
D|---------------------------------|---------------------------------|---------------------------------|
A|-5---5---5---5---5---5---5---5---|-0---0---0---0---0---0---0---0---|-0---0---0---0---0---0---0---0---|
E|---------------------------------|---------------------------------|---------------------------------|


G|---------------------------------|---------------------------------|---------------------------------|
D|---------------------------------|---------------------------------|---------------------------------|
A|---------------------------------|-3---3---3---3---3---3---3---3---|---------------------------------|
E|-0---0---0---0---0---0---0---0---|---------------------------------|-0---0---0---0---0---0---0---0---|


G|---------------------------------|---------------------------------|---------------------------------|
D|---------------------------------|---------------------------------|---------------------------------|
A|-5---5---5---5---5---5---5---5---|---------------------------------|-3---3---3---3---3---3---3---3---|
E|---------------------------------|-0---0---0---0---0---0---0---0---|---------------------------------|


G|---------------------------------|---------------------------------|---------------------------------|
D|---------------------------------|---------------------------------|---------------------------------|
A|---------------------------------|-5---5---5---5---5---5---5---5---|---------------------------------|
E|-0---0---0---0---0---0---0---0---|---------------------------------|-0---0---0---0---0---0---0---0---|


G|------------------------------|---------------------------------|------------------------------|
D|------------------------------|---------------------------------|------------------------------|
A|-------------------------3----|---------------------------------|-------------------------5----|
E|-0---0---0---0---0---0--------|-0---0---0---0---0---0---0---0---|-0---0---0---0---0---0--------|


G|---------------------------------|------------------------------|---------------------------------|
D|---------------------------------|------------------------------|---------------------------------|
A|---------------------------------|-------------------------3----|---------------------------------|
E|-0---0---0---0---0---0---0---0---|-0---0---0---0---0---0--------|-0---0---0---0---0---0---0---0---|


G|-------------|---------------------------------|------------------------------|---------------------------------|
D|-------------|---------------------------------|------------------------------|---------------------------------|
A|-7-----------|---------------------------------|-------------------------3----|---------------------------------|
E|-------------|-0---0---0---0---0---0---0---0---|-0---0---0---0---0---0--------|-0---0---0---0---0---0---0---0---|


G|------------------------------|---------------------------------|------------------------------|
D|------------------------------|---------------------------------|------------------------------|
A|-------------------------5----|---------------------------------|-------------------------3----|
E|-0---0---0---0---0---0--------|-0---0---0---0---0---0---0---0---|-0---0---0---0---0---0--------|


G|---------------------------------|------------------------------|---------------------------------|
D|---------------------------------|------------------------------|---------------------------------|
A|---------------------------------|-------------------------5----|-7---7---7---7---7---7---7---7---|
E|-0---0---0---0---0---0---0---0---|-0---0---0---0---0---0--------|---------------------------------|


G|---------------------------------|---------------------------------|---------------------------------|
D|---------------------------------|---------------------------------|---------------------------------|
A|-5---5---5---5---5---5---5---5---|-0---0---0---0---0---0---0---0---|-0---0---0---0---0---0---0---0---|
E|---------------------------------|---------------------------------|---------------------------------|


G|---------------------------------|---------------------------------|---------------------------------|
D|---------------------------------|---------------------------------|---------------------------------|
A|-7---7---7---7---7---7---7---7---|-5---5---5---5---5---5---5---5---|-0---0---0---0---0---0---0---0---|
E|---------------------------------|---------------------------------|---------------------------------|


G|---------------------------------|---------------------------------|---------------------------------|
D|---------------------------------|---------------------------------|---------------------------------|
A|-0---0---0---0---0---0---0---0---|---------------------------------|-3---3---3---3---3---3---3---3---|
E|---------------------------------|-0---0---0---0---0---0---0---0---|---------------------------------|


G|---------------------------------|---------------------------------|---------------------------------|
D|---------------------------------|---------------------------------|---------------------------------|
A|---------------------------------|-5---5---5---5---5---5---5---5---|---------------------------------|
E|-0---0---0---0---0---0---0---0---|---------------------------------|-0---0---0---0---0---0---0---0---|


G|---------------------------------|---------------------------------|---------------------------------|
D|---------------------------------|---------------------------------|---------------------------------|
A|-3---3---3---3---3---3---3---3---|---------------------------------|-5---5---5---5---5---5---5---5---|
E|---------------------------------|-0---0---0---0---0---0---0---0---|---------------------------------|


G|---------------------------------|------------------------------|---------------------------------|
D|---------------------------------|------------------------------|---------------------------------|
A|---------------------------------|-------------------------3----|---------------------------------|
E|-0---0---0---0---0---0---0---0---|-0---0---0---0---0---0--------|-0---0---0---0---0---0---0---0---|


G|------------------------------|---------------------------------|------------------------------|
D|------------------------------|---------------------------------|------------------------------|
A|-------------------------5----|---------------------------------|-------------------------3----|
E|-0---0---0---0---0---0--------|-0---0---0---0---0---0---0---0---|-0---0---0---0---0---0--------|


G|---------------------------------|------------------------------|---------------------------------|
D|---------------------------------|------------------------------|---------------------------------|
A|---------------------------------|-------------------------5----|---------------------------------|
E|-0---0---0---0---0---0---0---0---|-0---0---0---0---0---0--------|-2---2---2---2---2---2---2---2---|


G|------------------------------|---------------------------------|------------------------------|
D|------------------------------|---------------------------------|------------------------------|
A|------------------------------|---------------------------------|------------------------------|
E|-2---2---2---2---3---5---5----|-2---2---2---2---2---2---2---2---|-2---2---2---2---3---5---5----|


G|---------------------------------|------------------------------|---------------------------------|
D|---------------------------------|------------------------------|---------------------------------|
A|---------------------------------|------------------------------|---------------------------------|
E|-2---2---2---2---2---2---2---2---|-2---2---2---2---3---5---5----|-2---2---2---2---2---2---2---2---|


G|------------------------------|---------------------------------|------------------------------|
D|------------------------------|---------------------------------|------------------------------|
A|------------------------------|---------------------------------|------------------------------|
E|-2---2---2---2---3---5---5----|-2---2---2---2---2---2---2---2---|-2---2---2---2---3---5---5----|


G|---------------------------------|------------------------------|---------------------------------|
D|---------------------------------|------------------------------|---------------------------------|
A|---------------------------------|------------------------------|---------------------------------|
E|-2---2---2---2---2---2---2---2---|-2---2---2---2---3---5---5----|-2---2---2---2---2---2---2---2---|


G|------------------------------|---------------------------------|------------------------------|
D|------------------------------|---------------------------------|------------------------------|
A|------------------------------|---------------------------------|------------------------------|
E|-2---2---2---2---3---5---5----|-2---2---2---2---2---2---2---2---|-2---2---2---2---3---5---5----|


G|--------|--------|--------|--------|-9-----7---7---------|---------------------|
D|--------|--------|--------|--------|----------------9----|-9----7----5----7----|
A|--------|--------|--------|--------|---------------------|---------------------|
E|-0------|-0------|-0------|-0------|---------------------|---------------------|


G|-------------|--------|--------|-------------|--------|-------------|---------------------------------|
D|-7-----------|--------|--------|-------------|--------|-------------|---------------------------------|
A|-------------|--------|--------|--------3----|--------|--------5----|---------------------------------|
E|------0------|-0------|--------|-------------|--------|-------------|-0---0---0---0---0---0---0---0---|


G|------------------------------|---------------------------------|-------------|---------------------------------|
D|------------------------------|---------------------------------|-------------|---------------------------------|
A|-------------------------3----|---------------------------------|-7-----------|---------------------------------|
E|-0---0---0---0---0---0--------|-0---0---0---0---0---0---0---0---|-------------|-0---0---0---0---0---0---0---0---|


G|------------------------------|---------------------------------|------------------------------|
D|------------------------------|---------------------------------|------------------------------|
A|-------------------------3----|---------------------------------|-------------------------5----|
E|-0---0---0---0---0---0--------|-0---0---0---0---0---0---0---0---|-0---0---0---0---0---0--------|


G|---------------------------------|------------------------------|---------------------------------|
D|---------------------------------|------------------------------|---------------------------------|
A|---------------------------------|-------------------------3----|---------------------------------|
E|-0---0---0---0---0---0---0---0---|-0---0---0---0---0---0--------|-0---0---0---0---0---0---0---0---|


G|------------------------------|---------------------------------|---------------------------------|
D|------------------------------|---------------------------------|---------------------------------|
A|-------------------------5----|-7---7---7---7---7---7---7---7---|-5---5---5---5---5---5---5---5---|
E|-0---0---0---0---0---0--------|---------------------------------|---------------------------------|


G|---------------------------------|---------------------------------|---------------------------------|
D|---------------------------------|---------------------------------|---------------------------------|
A|-0---0---0---0---0---0---0---0---|-0---0---0---0---0---0---0---0---|-7---7---7---7---7---7---7---7---|
E|---------------------------------|---------------------------------|---------------------------------|


G|---------------------------------|---------------------------------|---------------------------------|
D|---------------------------------|---------------------------------|---------------------------------|
A|-5---5---5---5---5---5---5---5---|-0---0---0---0---0---0---0---0---|-0---0---0---0---0---0---0---0---|
E|---------------------------------|---------------------------------|---------------------------------|


G|---------------------------------|---------------------------------|---------------------------------|
D|---------------------------------|---------------------------------|---------------------------------|
A|---------------------------------|-3---3---3---3---3---3---3---3---|---------------------------------|
E|-0---0---0---0---0---0---0---0---|---------------------------------|-0---0---0---0---0---0---0---0---|


G|---------------------------------|---------------------------------|---------------------------------|
D|---------------------------------|---------------------------------|---------------------------------|
A|-5---5---5---5---5---5---5---5---|---------------------------------|-3---3---3---3---3---3---3---3---|
E|---------------------------------|-0---0---0---0---0---0---0---0---|---------------------------------|


G|---------------------------------|---------------------------------|
D|---------------------------------|---------------------------------|
A|---------------------------------|-5---5---5---5---5---5---5---5---|
E|-0---0---0---0---0---0---0---0---|---------------------------------|