Menu:

 

Search:

 

red warszawa - singeling:

 



Title: Singeling
Artist: 
Album: Hævi Metal Og Hass
Author: Hævi Henning


Track 1: Hævi Henning

E|--------|--------|--------|--------|--------|--------|--------|--------|--------|
B|--------|--------|--------|--------|--------|--------|--------|--------|--------|
G|--------|--------|--------|--------|--------|--------|--------|--------|--------|
D|--------|--------|--------|--------|--------|--------|--------|--------|--------|
A|--------|--------|--------|--------|--------|--------|--------|--------|--------|
E|--------|--------|--------|--------|--------|--------|--------|--------|--------|


E|--------|--------|--------|--------|--------|--------|--------|--------|--------|
B|--------|--------|--------|--------|--------|--------|--------|--------|--------|
G|--------|--------|--------|--------|--------|--------|--------|--------|--------|
D|--------|--------|--------|--------|--------|--------|--------|--------|--------|
A|--------|--------|--------|--------|--------|--------|--------|--------|--------|
E|--------|--------|--------|--------|--------|--------|--------|--------|--------|


E|--------|--------|--------|--------|--------|--------|--------|--------|--------|
B|--------|--------|--------|--------|--------|--------|--------|--------|--------|
G|--------|--------|--------|--------|--------|--------|--------|--------|--------|
D|--------|--------|--------|--------|--------|--------|--------|--------|--------|
A|--------|--------|--------|--------|--------|--------|--------|--------|--------|
E|--------|--------|--------|--------|--------|--------|--------|--------|--------|


E|--------|--------|--------|--------|--------|--------|--------|--------|---------------------|
B|--------|--------|--------|--------|--------|--------|--------|--------|---------------------|
G|--------|--------|--------|--------|--------|--------|--------|--------|---------------------|
D|--------|--------|--------|--------|--------|--------|--------|--------|------2--------------|
A|--------|--------|--------|--------|--------|--------|--------|--------|------0----5----4----|
E|--------|--------|--------|--------|--------|--------|--------|--------|-----------3----2----|


E|------------------------|---------------------------|------------------------|---------------------------|
B|------------------------|---------------------------|------------------------|---------------------------|
G|------------------------|---------------------------|------------------------|---------------------------|
D|------------------------|--------------4----4---4---|-4----7----7---7---7----|---------------------------|
A|-2----2---2---2----5----|-5---5---5----2----2---2---|-2----5----5---5---5----|-2----2---2---2---2---2----|
E|-0----0---0---0----3----|-3---3---3-----------------|------------------------|-0----0---0---0---0---0----|


E|------------------------------|------------------------|------------------------|
B|------------------------------|------------------------|------------------------|
G|------------------------------|------------------------|------------------------|
D|------------------------------|---------7---------7----|------------------------|
A|-2---2---2---2---2----2---2---|-2---2---5----5----5----|-2----2---2---2----5----|
E|-0---0---0---0---0----0---0---|-0---0--------7---------|-0----0---0---0----3----|


E|---------------------------|------------------------|---------------------------|
B|---------------------------|------------------------|---------------------------|
G|---------------------------|------------------------|---------------------------|
D|--------------4----4---4---|-4----7----7---7---7----|---------------------------|
A|-5---5---5----2----2---2---|-2----5----5---5---5----|-2----2---2---2---2---2----|
E|-3---3---3-----------------|------------------------|-0----0---0---0---0---0----|


E|------------------------------|------------------------|------------------------|
B|------------------------------|------------------------|------------------------|
G|------------------------------|------------------------|------------------------|
D|------------------------------|---------7---------7----|------------------------|
A|-2---2---2---2---2----2---2---|-2---2---5----5----5----|-5----5---5---5----5----|
E|-0---0---0---0---0----0---0---|-0---0--------7---------|-3----3---3---3----3----|


E|---------------------------|------------------------|------------------------|---------------------------|
B|---------------------------|------------------------|------------------------|---------------------------|
G|---------------------------|------------------------|------------------------|---------------------------|
D|--------------7----7---7---|-7----7----7---7---7----|------------------------|--------------7----7---7---|
A|-5---5---5----5----5---5---|-5----5----5---5---5----|-5----5---5---5----5----|-5---5---5----5----5---5---|
E|-3---3---3-----------------|------------------------|-3----3---3---3----3----|-3---3---3-----------------|


E|-----------------|---------------------------|------------------------------|------------------------|
B|-----------------|---------------------------|------------------------------|------------------------|
G|-----------------|---------------------------|------------------------------|------------------------|
D|-7----4----4-----|---------------------------|------------------------------|---------7---------7----|
A|-5----2----2-----|-2----2---2---2---2---2----|-2---2---2---2---2----2---2---|-2---2---5----5----5----|
E|-----------------|-0----0---0---0---0---0----|-0---0---0---0---0----0---0---|-0---0--------7---------|


E|---------------------------|------------------------------|------------------------|
B|---------------------------|------------------------------|------------------------|
G|---------------------------|------------------------------|------------------------|
D|---------------------------|------------------------------|---------7---------7----|
A|-2----2---2---2---2---2----|-2---2---2---2---2----2---2---|-2---2---5----5----5----|
E|-0----0---0---0---0---0----|-0---0---0---0---0----0---0---|-0---0--------7---------|


E|------------------------|---------------------------|------------------------|---------------------------|
B|------------------------|---------------------------|------------------------|---------------------------|
G|------------------------|---------------------------|------------------------|---------------------------|
D|------------------------|--------------4----4---4---|-4----7----7---7---7----|---------------------------|
A|-2----2---2---2----5----|-5---5---5----2----2---2---|-2----5----5---5---5----|-2----2---2---2---2---2----|
E|-0----0---0---0----3----|-3---3---3-----------------|------------------------|-0----0---0---0---0---0----|


E|------------------------------|------------------------|------------------------|
B|------------------------------|------------------------|------------------------|
G|------------------------------|------------------------|------------------------|
D|------------------------------|---------7---------7----|------------------------|
A|-2---2---2---2---2----2---2---|-2---2---5----5----5----|-2----2---2---2----5----|
E|-0---0---0---0---0----0---0---|-0---0--------7---------|-0----0---0---0----3----|


E|---------------------------|------------------------|---------------------------|
B|---------------------------|------------------------|---------------------------|
G|---------------------------|------------------------|---------------------------|
D|--------------4----4---4---|-4----7----7---7---7----|---------------------------|
A|-5---5---5----2----2---2---|-2----5----5---5---5----|-2----2---2---2---2---2----|
E|-3---3---3-----------------|------------------------|-0----0---0---0---0---0----|


E|------------------------------|------------------------|------------------------|
B|------------------------------|------------------------|------------------------|
G|------------------------------|------------------------|------------------------|
D|------------------------------|---------7---------7----|------------------------|
A|-2---2---2---2---2----2---2---|-2---2---5----5----5----|-5----5---5---5----5----|
E|-0---0---0---0---0----0---0---|-0---0--------7---------|-3----3---3---3----3----|


E|---------------------------|------------------------|------------------------|---------------------------|
B|---------------------------|------------------------|------------------------|---------------------------|
G|---------------------------|------------------------|------------------------|---------------------------|
D|--------------7----7---7---|-7----7----7---7---7----|------------------------|--------------7----7---7---|
A|-5---5---5----5----5---5---|-5----5----5---5---5----|-5----5---5---5----5----|-5---5---5----5----5---5---|
E|-3---3---3-----------------|------------------------|-3----3---3---3----3----|-3---3---3-----------------|


E|-----------------|---------------------------|------------------------------|------------------------|
B|-----------------|---------------------------|------------------------------|------------------------|
G|-----------------|---------------------------|------------------------------|------------------------|
D|-7----4----4-----|---------------------------|------------------------------|---------7---------7----|
A|-5----2----2-----|-2----2---2---2---2---2----|-2---2---2---2---2----2---2---|-2---2---5----5----5----|
E|-----------------|-0----0---0---0---0---0----|-0---0---0---0---0----0---0---|-0---0--------7---------|


E|---------------------------|------------------------------|------------------------|
B|---------------------------|------------------------------|------------------------|
G|---------------------------|------------------------------|------------------------|
D|---------------------------|------------------------------|---------7---------7----|
A|-2----2---2---2---2---2----|-2---2---2---2---2----2---2---|-2---2---5----5----5----|
E|-0----0---0---0---0---0----|-0---0---0---0---0----0---0---|-0---0--------7---------|


E|--------|--------|--------|--------|--------|--------|--------|--------|--------|
B|--------|--------|--------|--------|--------|--------|--------|--------|--------|
G|--------|--------|--------|--------|--------|--------|--------|--------|--------|
D|--------|--------|--------|--------|--------|--------|--------|--------|--------|
A|--------|--------|--------|--------|--------|--------|--------|--------|--------|
E|--------|--------|--------|--------|--------|--------|--------|--------|--------|


E|--------|--------|--------|--------|--------|--------|--------|--------|--------|
B|--------|--------|--------|--------|--------|--------|--------|--------|--------|
G|--------|--------|--------|--------|--------|--------|--------|--------|--------|
D|--------|--------|--------|--------|--------|--------|--------|--------|--------|
A|--------|--------|--------|--------|--------|--------|--------|--------|--------|
E|--------|--------|--------|--------|--------|--------|--------|--------|--------|


E|--------|--------|--------|--------|--------|--------|--------|--------|--------|
B|--------|--------|--------|--------|--------|--------|--------|--------|--------|
G|--------|--------|--------|--------|--------|--------|--------|--------|--------|
D|--------|--------|--------|--------|--------|--------|--------|--------|--------|
A|--------|--------|--------|--------|--------|--------|--------|--------|--------|
E|--------|--------|--------|--------|--------|--------|--------|--------|--------|


E|--------|--------|--------|--------|--------|--------|--------|--------|--------|
B|--------|--------|--------|--------|--------|--------|--------|--------|--------|
G|--------|--------|--------|--------|--------|--------|--------|--------|--------|
D|--------|--------|--------|--------|--------|--------|--------|--------|--------|
A|--------|--------|--------|--------|--------|--------|--------|--------|--------|
E|--------|--------|--------|--------|--------|--------|--------|--------|--------|


E|--------|--------|--------|--------|--------|--------|--------|--------|--------|
B|--------|--------|--------|--------|--------|--------|--------|--------|--------|
G|--------|--------|--------|--------|--------|--------|--------|--------|--------|
D|--------|--------|--------|--------|--------|--------|--------|--------|--------|
A|--------|--------|--------|--------|--------|--------|--------|--------|--------|
E|--------|--------|--------|--------|--------|--------|--------|--------|--------|


E|--------|--------|--------|--------|--------|--------|--------|--------|--------|
B|--------|--------|--------|--------|--------|--------|--------|--------|--------|
G|--------|--------|--------|--------|--------|--------|--------|--------|--------|
D|--------|--------|--------|--------|--------|--------|--------|--------|--------|
A|--------|--------|--------|--------|--------|--------|--------|--------|--------|
E|--------|--------|--------|--------|--------|--------|--------|--------|--------|


E|--------|--------|--------|--------|--------|--------|--------|--------|--------|
B|--------|--------|--------|--------|--------|--------|--------|--------|--------|
G|--------|--------|--------|--------|--------|--------|--------|--------|--------|
D|--------|--------|--------|--------|--------|--------|--------|--------|--------|
A|--------|--------|--------|--------|--------|--------|--------|--------|--------|
E|--------|--------|--------|--------|--------|--------|--------|--------|--------|


E|--------|--------|---------------------|---------------------------|------------------------------|
B|--------|--------|---------------------|---------------------------|------------------------------|
G|--------|--------|---------------------|---------------------------|------------------------------|
D|--------|--------|------2--------------|---------------------------|------------------------------|
A|--------|--------|------0----5----4----|-2----2---2---2---2---2----|-2---2---2---2---2----2---2---|
E|--------|--------|-----------3----2----|-0----0---0---0---0---0----|-0---0---0---0---0----0---0---|


E|------------------------|---------------------------|------------------------------|
B|------------------------|---------------------------|------------------------------|
G|------------------------|---------------------------|------------------------------|
D|---------7---------7----|---------------------------|------------------------------|
A|-2---2---5----5----5----|-2----2---2---2---2---2----|-2---2---2---2---2----2---2---|
E|-0---0--------7---------|-0----0---0---0---0---0----|-0---0---0---0---0----0---0---|


E|------------------------|---------------------------|------------------------------|
B|------------------------|---------------------------|------------------------------|
G|------------------------|---------------------------|------------------------------|
D|---------7---------7----|---------------------------|------------------------------|
A|-2---2---5----5----5----|-2----2---2---2---2---2----|-2---2---2---2---2----2---2---|
E|-0---0--------7---------|-0----0---0---0---0---0----|-0---0---0---0---0----0---0---|


E|------------------------|---------------------------|------------------------------|
B|------------------------|---------------------------|------------------------------|
G|------------------------|---------------------------|------------------------------|
D|---------7---------7----|---------------------------|------------------------------|
A|-2---2---5----5----5----|-2----2---2---2---2---2----|-2---2---2---2---2----2---2---|
E|-0---0--------7---------|-0----0---0---0---0---0----|-0---0---0---0---0----0---0---|


E|------------------------|---------------------------|------------------------------|
B|------------------------|---------------------------|------------------------------|
G|------------------------|---------------------------|------------------------------|
D|---------7---------7----|---------------------------|------------------------------|
A|-2---2---5----5----5----|-2----2---2---2---2---2----|-2---2---2---2---2----2---2---|
E|-0---0--------7---------|-0----0---0---0---0---0----|-0---0---0---0---0----0---0---|


E|------------------------|---------------------------|------------------------------|
B|------------------------|---------------------------|------------------------------|
G|------------------------|---------------------------|------------------------------|
D|---------7---------7----|---------------------------|------------------------------|
A|-2---2---5----5----5----|-2----2---2---2---2---2----|-2---2---2---2---2----2---2---|
E|-0---0--------7---------|-0----0---0---0---0---0----|-0---0---0---0---0----0---0---|


E|------------------------|---------------------------|------------------------------|
B|------------------------|---------------------------|------------------------------|
G|------------------------|---------------------------|------------------------------|
D|---------7---------7----|---------------------------|------------------------------|
A|-2---2---5----5----5----|-2----2---2---2---2---2----|-2---2---2---2---2----2---2---|
E|-0---0--------7---------|-0----0---0---0---0---0----|-0---0---0---0---0----0---0---|


E|------------------------|---------------------------|------------------------------|
B|------------------------|---------------------------|------------------------------|
G|------------------------|---------------------------|------------------------------|
D|---------7---------7----|---------------------------|------------------------------|
A|-2---2---5----5----5----|-2----2---2---2---2---2----|-2---2---2---2---2----2---2---|
E|-0---0--------7---------|-0----0---0---0---0---0----|-0---0---0---0---0----0---0---|


E|------------------------|------------------------|--------------------|---------------------|
B|------------------------|------------------------|--------------------|---------------------|
G|------------------------|------------------------|--------------------|---------------------|
D|---------7---------7----|------------------------|--------------------|---------------------|
A|-2---2---5----5----5----|-2----2---2---2----2----|-------2----2---2---|-2----2----3----3----|
E|-0---0--------7---------|-0----0---0---0----0----|-------0----0---0---|-0----0----1----1----|


E|------------------------|--------------------|---------------------|------------------------|
B|------------------------|--------------------|---------------------|------------------------|
G|------------------------|--------------------|---------------------|------------------------|
D|------------------------|--------------------|---------------------|------------------------|
A|-2----2---2---2----2----|-------2----2---2---|-2----2----3----3----|-2----2---2---2----2----|
E|-0----0---0---0----0----|-------0----0---0---|-0----0----1----1----|-0----0---0---0----0----|


E|--------------------|---------------------|------------------------|--------------------|
B|--------------------|---------------------|------------------------|--------------------|
G|--------------------|---------------------|------------------------|--------------------|
D|--------------------|---------------------|------------------------|--------------------|
A|-------2----2---2---|-2----2----3----3----|-2----2---2---2----2----|-------2----2---2---|
E|-------0----0---0---|-0----0----1----1----|-0----0---0---0----0----|-------0----0---0---|


E|---------------------|------------------------|--------------------|---------------------|
B|---------------------|------------------------|--------------------|---------------------|
G|---------------------|------------------------|--------------------|---------------------|
D|---------------------|------------------------|--------------------|---------------------|
A|-2----2----3----3----|-2----2---2---2----2----|-------2----2---2---|-2----2----3----3----|
E|-0----0----1----1----|-0----0---0---0----0----|-------0----0---0---|-0----0----1----1----|


E|------------------------|--------------------|---------------------|------------------------|
B|------------------------|--------------------|---------------------|------------------------|
G|------------------------|--------------------|---------------------|------------------------|
D|------------------------|--------------------|---------------------|------------------------|
A|-2----2---2---2----2----|-------2----2---2---|-2----2----3----3----|-2----2---2---2----2----|
E|-0----0---0---0----0----|-------0----0---0---|-0----0----1----1----|-0----0---0---0----0----|


E|--------------------|---------------------|------------------------|--------------------|
B|--------------------|---------------------|------------------------|--------------------|
G|--------------------|---------------------|------------------------|--------------------|
D|--------------------|---------------------|------------------------|--------------------|
A|-------2----2---2---|-2----2----3----3----|-2----2---2---2----2----|-------2----2---2---|
E|-------0----0---0---|-0----0----1----1----|-0----0---0---0----0----|-------0----0---0---|


E|------------------------|------------------------|-------------|
B|------------------------|------------------------|-------------|
G|------------------------|------------------------|-------------|
D|------------------------|------------------------|-------------|
A|-2---2---3----2----3----|-2----2---2---2----2----|-------------|
E|-0---0---1----0----1----|-0----0---0---0----0----|-------------|





Track 2: Hævi Henning  Solo

E|--------|--------|--------|--------|--------|--------|--------|--------|--------|
B|--------|--------|--------|--------|--------|--------|--------|--------|--------|
G|--------|--------|--------|--------|--------|--------|--------|--------|--------|
D|--------|--------|--------|--------|--------|--------|--------|--------|--------|
A|--------|--------|--------|--------|--------|--------|--------|--------|--------|
E|--------|--------|--------|--------|--------|--------|--------|--------|--------|


E|--------|--------|--------|--------|--------|--------|--------|--------|--------|
B|--------|--------|--------|--------|--------|--------|--------|--------|--------|
G|--------|--------|--------|--------|--------|--------|--------|--------|--------|
D|--------|--------|--------|--------|--------|--------|--------|--------|--------|
A|--------|--------|--------|--------|--------|--------|--------|--------|--------|
E|--------|--------|--------|--------|--------|--------|--------|--------|--------|


E|--------|--------|--------|--------|--------|--------|--------|--------|--------|
B|--------|--------|--------|--------|--------|--------|--------|--------|--------|
G|--------|--------|--------|--------|--------|--------|--------|--------|--------|
D|--------|--------|--------|--------|--------|--------|--------|--------|--------|
A|--------|--------|--------|--------|--------|--------|--------|--------|--------|
E|--------|--------|--------|--------|--------|--------|--------|--------|--------|


E|--------|--------|--------|--------|--------|--------|--------|--------|--------|
B|--------|--------|--------|--------|--------|--------|--------|--------|--------|
G|--------|--------|--------|--------|--------|--------|--------|--------|--------|
D|--------|--------|--------|--------|--------|--------|--------|--------|--------|
A|--------|--------|--------|--------|--------|--------|--------|--------|--------|
E|--------|--------|--------|--------|--------|--------|--------|--------|--------|


E|--------|--------|--------|--------|--------|--------|--------|--------|--------|
B|--------|--------|--------|--------|--------|--------|--------|--------|--------|
G|--------|--------|--------|--------|--------|--------|--------|--------|--------|
D|--------|--------|--------|--------|--------|--------|--------|--------|--------|
A|--------|--------|--------|--------|--------|--------|--------|--------|--------|
E|--------|--------|--------|--------|--------|--------|--------|--------|--------|


E|--------|--------|--------|--------|--------|--------|--------|--------|--------|
B|--------|--------|--------|--------|--------|--------|--------|--------|--------|
G|--------|--------|--------|--------|--------|--------|--------|--------|--------|
D|--------|--------|--------|--------|--------|--------|--------|--------|--------|
A|--------|--------|--------|--------|--------|--------|--------|--------|--------|
E|--------|--------|--------|--------|--------|--------|--------|--------|--------|


E|--------|--------|--------|--------|--------|--------|--------|--------|--------|
B|--------|--------|--------|--------|--------|--------|--------|--------|--------|
G|--------|--------|--------|--------|--------|--------|--------|--------|--------|
D|--------|--------|--------|--------|--------|--------|--------|--------|--------|
A|--------|--------|--------|--------|--------|--------|--------|--------|--------|
E|--------|--------|--------|--------|--------|--------|--------|--------|--------|


E|--------|--------|--------|--------|--------|--------|--------|--------|--------|
B|--------|--------|--------|--------|--------|--------|--------|--------|--------|
G|--------|--------|--------|--------|--------|--------|--------|--------|--------|
D|--------|--------|--------|--------|--------|--------|--------|--------|--------|
A|--------|--------|--------|--------|--------|--------|--------|--------|--------|
E|--------|--------|--------|--------|--------|--------|--------|--------|--------|


E|--------|--------|--------|--------|--------|--------|--------|--------|--------|
B|--------|--------|--------|--------|--------|--------|--------|--------|--------|
G|--------|--------|--------|--------|--------|--------|--------|--------|--------|
D|--------|--------|--------|--------|--------|--------|--------|--------|--------|
A|--------|--------|--------|--------|--------|--------|--------|--------|--------|
E|--------|--------|--------|--------|--------|--------|--------|--------|--------|


E|--------|--------|--------|---------------------|---------------------|---------------------|
B|--------|--------|--------|---------------------|---------------------|---------------------|
G|--------|--------|--------|---------------------|---------------------|---------------------|
D|--------|--------|--------|----------------7----|------7----9-----7---|------7--------------|
A|--------|--------|--------|-7-----9---10--------|-10------------------|-10--------10---9----|
E|--------|--------|--------|---------------------|---------------------|---------------------|


E|-----------------|-----------------------------------|----------------------------|
B|-----------------|-----------------------------------|----------------------------|
G|-----------------|-----------------------------------|-7---9---11--12---11---8----|
D|-----------------|-----------------------7---9---10--|----------------------------|
A|-7-----7----7----|------7----7---9---10--------------|----------------------------|
E|-----------------|-----------------------------------|----------------------------|


E|---------------------|---------------------|----------------14---|-----------------|
B|---------------------|---------------------|------15-------------|-17----17---17---|
G|-9-----11--12---14---|-12---14---16----14--|-16--------16--------|-----------------|
D|---------------------|---------------------|---------------------|-----------------|
A|---------------------|---------------------|---------------------|-----------------|
E|---------------------|---------------------|---------------------|-----------------|


E|----------------14---|-15---17----15--17---|-19----19--19---19---|-17--------17---22---|
B|------17---17--------|---------------------|---------------------|------20-------------|
G|---------------------|---------------------|---------------------|---------------------|
D|---------------------|---------------------|---------------------|---------------------|
A|---------------------|---------------------|---------------------|---------------------|
E|---------------------|---------------------|---------------------|---------------------|


E|-17--------------|-19----19--19---19---|-17--------17---19---|-17--------------|
B|------19----19---|---------------------|------20-------------|------19----19---|
G|-----------------|---------------------|---------------------|-----------------|
D|-----------------|---------------------|---------------------|-----------------|
A|-----------------|---------------------|---------------------|-----------------|
E|-----------------|---------------------|---------------------|-----------------|


E|------19--19--19--19--19---|-19--19--19--19--19---19--19--|-19--19--17-------------|
B|-17------------------------|------------------------------|--------------20---19---|
G|---------------------------|------------------------------|------------------------|
D|---------------------------|------------------------------|------------------------|
A|---------------------------|------------------------------|------------------------|
E|---------------------------|------------------------------|------------------------|


E|------19--19--19--19--19---|-19--19--19--19--19---19--19--|-19--19--17-------------|
B|-17------------------------|------------------------------|--------------20---19---|
G|---------------------------|------------------------------|------------------------|
D|---------------------------|------------------------------|------------------------|
A|---------------------------|------------------------------|------------------------|
E|---------------------------|------------------------------|------------------------|


E|-----------------|-----------------|-----------------|--------|--------|--------|
B|-17----17---17---|------17---17----|-17---17----17---|--------|--------|--------|
G|-----------------|-----------------|-----------------|--------|--------|--------|
D|-----------------|-----------------|-----------------|--------|--------|--------|
A|-----------------|-----------------|-----------------|--------|--------|--------|
E|-----------------|-----------------|-----------------|--------|--------|--------|


E|--------|--------|--------|--------|--------|--------|--------|--------|--------|
B|--------|--------|--------|--------|--------|--------|--------|--------|--------|
G|--------|--------|--------|--------|--------|--------|--------|--------|--------|
D|--------|--------|--------|--------|--------|--------|--------|--------|--------|
A|--------|--------|--------|--------|--------|--------|--------|--------|--------|
E|--------|--------|--------|--------|--------|--------|--------|--------|--------|


E|--------|--------|--------|--------|--------|--------|--------|--------|--------|
B|--------|--------|--------|--------|--------|--------|--------|--------|--------|
G|--------|--------|--------|--------|--------|--------|--------|--------|--------|
D|--------|--------|--------|--------|--------|--------|--------|--------|--------|
A|--------|--------|--------|--------|--------|--------|--------|--------|--------|
E|--------|--------|--------|--------|--------|--------|--------|--------|--------|


E|--------|--------|--------|--------|--------|--------|--------|--------|--------|
B|--------|--------|--------|--------|--------|--------|--------|--------|--------|
G|--------|--------|--------|--------|--------|--------|--------|--------|--------|
D|--------|--------|--------|--------|--------|--------|--------|--------|--------|
A|--------|--------|--------|--------|--------|--------|--------|--------|--------|
E|--------|--------|--------|--------|--------|--------|--------|--------|--------|


E|--------|--------|--------|--------|--------|--------|--------|--------|--------|
B|--------|--------|--------|--------|--------|--------|--------|--------|--------|
G|--------|--------|--------|--------|--------|--------|--------|--------|--------|
D|--------|--------|--------|--------|--------|--------|--------|--------|--------|
A|--------|--------|--------|--------|--------|--------|--------|--------|--------|
E|--------|--------|--------|--------|--------|--------|--------|--------|--------|


E|--------|--------|--------|--------|--------|--------|--------|--------|--------|
B|--------|--------|--------|--------|--------|--------|--------|--------|--------|
G|--------|--------|--------|--------|--------|--------|--------|--------|--------|
D|--------|--------|--------|--------|--------|--------|--------|--------|--------|
A|--------|--------|--------|--------|--------|--------|--------|--------|--------|
E|--------|--------|--------|--------|--------|--------|--------|--------|--------|


E|--------|--------|--------|--------|--------|--------|--------|--------|--------|
B|--------|--------|--------|--------|--------|--------|--------|--------|--------|
G|--------|--------|--------|--------|--------|--------|--------|--------|--------|
D|--------|--------|--------|--------|--------|--------|--------|--------|--------|
A|--------|--------|--------|--------|--------|--------|--------|--------|--------|
E|--------|--------|--------|--------|--------|--------|--------|--------|--------|


E|--------|--------|--------|--------|--------|--------|--------|--------|--------|
B|--------|--------|--------|--------|--------|--------|--------|--------|--------|
G|--------|--------|--------|--------|--------|--------|--------|--------|--------|
D|--------|--------|--------|--------|--------|--------|--------|--------|--------|
A|--------|--------|--------|--------|--------|--------|--------|--------|--------|
E|--------|--------|--------|--------|--------|--------|--------|--------|--------|


E|--------|--------|--------|--------|--------|--------|--------|--------|--------|
B|--------|--------|--------|--------|--------|--------|--------|--------|--------|
G|--------|--------|--------|--------|--------|--------|--------|--------|--------|
D|--------|--------|--------|--------|--------|--------|--------|--------|--------|
A|--------|--------|--------|--------|--------|--------|--------|--------|--------|
E|--------|--------|--------|--------|--------|--------|--------|--------|--------|


E|--------|--------|--------|--------|--------|--------|--------|--------|--------|
B|--------|--------|--------|--------|--------|--------|--------|--------|--------|
G|--------|--------|--------|--------|--------|--------|--------|--------|--------|
D|--------|--------|--------|--------|--------|--------|--------|--------|--------|
A|--------|--------|--------|--------|--------|--------|--------|--------|--------|
E|--------|--------|--------|--------|--------|--------|--------|--------|--------|


E|--------|--------|--------|--------|--------|
B|--------|--------|--------|--------|--------|
G|--------|--------|--------|--------|--------|
D|--------|--------|--------|--------|--------|
A|--------|--------|--------|--------|--------|
E|--------|--------|--------|--------|--------|





Track 3: Tove Tusindpik

G|---------------------------|------------------------------|------------------------|
D|---------------------------|------------------------------|------------------------|
A|------2---2---2---2---2----|-2---2---2---2---2----2---2---|-2---2---0--------------|
E|-0-------------------------|------------------------------|--------------3----2----|


G|---------------------------|------------------------------|------------------------|
D|---------------------------|------------------------------|------------------------|
A|------2---2---2---2---2----|-2---2---2---2---2----2---2---|-2---2---0--------------|
E|-0-------------------------|------------------------------|--------------3----2----|


G|---------------------------|------------------------------|------------------------|
D|---------------------------|------------------------------|------------------------|
A|------2---2---2---2---2----|-2---2---2---2---2----2---2---|-2---2---0--------------|
E|-0-------------------------|------------------------------|--------------3----2----|


G|---------------------------|------------------------------|------------------------|
D|---------------------------|------------------------------|------------------------|
A|------2---2---2---2---2----|-2---2---2---2---2----2---2---|-2---2---0--------------|
E|-0-------------------------|------------------------------|--------------3----2----|


G|---------------------------|------------------------------|------------------------|
D|---------------------------|------------------------------|------------------------|
A|------2---2---2---2---2----|-2---2---2---2---2----2---2---|-2---2---0--------------|
E|-0-------------------------|------------------------------|--------------3----2----|


G|---------------------------|------------------------------|------------------------|
D|---------------------------|------------------------------|------------------------|
A|------2---2---2---2---2----|-2---2---2---2---2----2---2---|-2---2---0--------------|
E|-0-------------------------|------------------------------|--------------3----2----|


G|---------------------------|------------------------------|------------------------|
D|---------------------------|------------------------------|------------------------|
A|------2---2---2---2---2----|-2---2---2---2---2----2---2---|-2---2---0--------------|
E|-0-------------------------|------------------------------|--------------3----2----|


G|---------------------------|------------------------------|------------------------|
D|---------------------------|------------------------------|------------------------|
A|------2---2---2---2---2----|-2---2---2---2---2----2---2---|-2---2---0--------------|
E|-0-------------------------|------------------------------|--------------3----2----|


G|------------------------|---------------------------|------------------------|------------------------|
D|------------------------|---------------------------|------------------------|------------------------|
A|------------------------|--------------5----5---5---|-5----5----5---5---5----|------------------------|
E|-3----3---3---3----3----|-3---3---3-----------------|------------------------|-3----3---3---3----3----|


G|---------------------------|-----------------|---------------------------|------------------------------|
D|---------------------------|-----------------|---------------------------|------------------------------|
A|--------------5----5---5---|-5----2----2-----|------2---2---2---2---2----|-2---2---2---2---2----2---2---|
E|-3---3---3-----------------|-----------------|-0-------------------------|------------------------------|


G|------------------------|---------------------------|------------------------------|
D|------------------------|---------------------------|------------------------------|
A|-2---2---0--------------|------2---2---2---2---2----|-2---2---2---2---2----2---2---|
E|--------------3----2----|-0-------------------------|------------------------------|


G|------------------------|------------------------|---------------------------|------------------------|
D|------------------------|------------------------|---------------------------|------------------------|
A|-2---2---0--------------|------------------------|--------------2----2---2---|-2----5----5---5---5----|
E|--------------3----2----|-0----0---0---0----3----|-3---3---3-----------------|------------------------|


G|---------------------------|------------------------------|------------------------|
D|---------------------------|------------------------------|------------------------|
A|---------------------------|------------------------------|---------5----5----5----|
E|-0----0---0---0---0---0----|-0---0---0---0---0----0---0---|-0---0------------------|


G|------------------------|---------------------------|------------------------|---------------------------|
D|------------------------|---------------------------|------------------------|---------------------------|
A|------------------------|--------------2----2---2---|-2----5----5---5---5----|---------------------------|
E|-0----0---0---0----3----|-3---3---3-----------------|------------------------|-0----0---0---0---0---0----|


G|------------------------------|------------------------|------------------------|
D|------------------------------|------------------------|------------------------|
A|------------------------------|---------5----5----5----|------------------------|
E|-0---0---0---0---0----0---0---|-0---0------------------|-3----3---3---3----3----|


G|---------------------------|------------------------|------------------------|---------------------------|
D|---------------------------|------------------------|------------------------|---------------------------|
A|--------------5----5---5---|-5----5----5---5---5----|------------------------|--------------5----5---5---|
E|-3---3---3-----------------|------------------------|-3----3---3---3----3----|-3---3---3-----------------|


G|-----------------|---------------------------|------------------------------|------------------------|
D|-----------------|---------------------------|------------------------------|------------------------|
A|-5----2----2-----|---------------------------|------------------------------|---------5----5----5----|
E|-----------------|-0----0---0---0---0---0----|-0---0---0---0---0----0---0---|-0---0------------------|


G|---------------------------|------------------------------|------------------------|
D|---------------------------|------------------------------|------------------------|
A|---------------------------|------------------------------|---------5----5----5----|
E|-0----0---0---0---0---0----|-0---0---0---0---0----0---0---|-0---0------------------|


G|------------------------|---------------------------|------------------------|---------------------------|
D|------------------------|---------------------------|------------------------|---------------------------|
A|------------------------|--------------2----2---2---|-2----5----5---5---5----|---------------------------|
E|-0----0---0---0----3----|-3---3---3-----------------|------------------------|-0----0---0---0---0---0----|


G|------------------------------|------------------------|------------------------|
D|------------------------------|------------------------|------------------------|
A|------------------------------|---------5----5----5----|------------------------|
E|-0---0---0---0---0----0---0---|-0---0------------------|-0----0---0---0----3----|


G|---------------------------|------------------------|---------------------------|
D|---------------------------|------------------------|---------------------------|
A|--------------2----2---2---|-2----5----5---5---5----|---------------------------|
E|-3---3---3-----------------|------------------------|-0----0---0---0---0---0----|


G|------------------------------|------------------------|------------------------|
D|------------------------------|------------------------|------------------------|
A|------------------------------|---------5----5----5----|------------------------|
E|-0---0---0---0---0----0---0---|-0---0------------------|-3----3---3---3----3----|


G|---------------------------|------------------------|------------------------|---------------------------|
D|---------------------------|------------------------|------------------------|---------------------------|
A|--------------5----5---5---|-5----5----5---5---5----|------------------------|--------------5----5---5---|
E|-3---3---3-----------------|------------------------|-3----3---3---3----3----|-3---3---3-----------------|


G|-----------------|---------------------------|------------------------------|------------------------|
D|-----------------|---------------------------|------------------------------|------------------------|
A|-5----2----2-----|---------------------------|------------------------------|---------5----5----5----|
E|-----------------|-0----0---0---0---0---0----|-0---0---0---0---0----0---0---|-0---0------------------|


G|---------------------------|------------------------------|------------------------|
D|---------------------------|------------------------------|------------------------|
A|---------------------------|------------------------------|---------5----5----5----|
E|-0----0---0---0---0---0----|-0---0---0---0---0----0---0---|-0---0------------------|


G|------------------------|---------------------------|------------------------|---------------------------|
D|------------------------|---------------------------|------------------------|---------------------------|
A|------------------------|--------------2----2---2---|-2----5----5---5---5----|---------------------------|
E|-0----0---0---0----3----|-3---3---3-----------------|------------------------|-0----0---0---0---0---0----|


G|------------------------------|------------------------|------------------------|
D|------------------------------|------------------------|------------------------|
A|------------------------------|---------5----5----5----|------------------------|
E|-0---0---0---0---0----0---0---|-0---0------------------|-0----0---0---0----3----|


G|---------------------------|------------------------|---------------------------|
D|---------------------------|------------------------|---------------------------|
A|--------------2----2---2---|-2----5----5---5---5----|---------------------------|
E|-3---3---3-----------------|------------------------|-0----0---0---0---0---0----|


G|------------------------------|------------------------|------------------------|
D|------------------------------|------------------------|------------------------|
A|------------------------------|---------5----5----5----|------------------------|
E|-0---0---0---0---0----0---0---|-0---0------------------|-3----3---3---3----3----|


G|---------------------------|------------------------|------------------------|---------------------------|
D|---------------------------|------------------------|------------------------|---------------------------|
A|--------------5----5---5---|-5----5----5---5---5----|------------------------|--------------5----5---5---|
E|-3---3---3-----------------|------------------------|-3----3---3---3----3----|-3---3---3-----------------|


G|-----------------|---------------------------|------------------------------|------------------------|
D|-----------------|---------------------------|------------------------------|------------------------|
A|-5----2----2-----|---------------------------|------------------------------|---------5----5----5----|
E|-----------------|-0----0---0---0---0---0----|-0---0---0---0---0----0---0---|-0---0------------------|


G|---------------------------|------------------------------|------------------------|
D|---------------------------|------------------------------|------------------------|
A|---------------------------|------------------------------|---------5----5----5----|
E|-0----0---0---0---0---0----|-0---0---0---0---0----0---0---|-0---0------------------|


G|---------------------------|------------------------------|------------------------|
D|---------------------------|------------------------------|------------------------|
A|------2---2---2---2---2----|-2---2---2---2---2----2---2---|-2---2---0--------------|
E|-0-------------------------|------------------------------|--------------3----2----|


G|---------------------------|------------------------------|------------------------|
D|---------------------------|------------------------------|------------------------|
A|------2---2---2---2---2----|-2---2---2---2---2----2---2---|-2---2---0--------------|
E|-0-------------------------|------------------------------|--------------3----2----|


G|---------------------------|------------------------------|------------------------|
D|---------------------------|------------------------------|------------------------|
A|------2---2---2---2---2----|-2---2---2---2---2----2---2---|-2---2---0--------------|
E|-0-------------------------|------------------------------|--------------3----2----|


G|---------------------------|------------------------------|------------------------|
D|---------------------------|------------------------------|------------------------|
A|------2---2---2---2---2----|-2---2---2---2---2----2---2---|-2---2---0--------------|
E|-0-------------------------|------------------------------|--------------3----2----|


G|---------------------------|------------------------------|------------------------|
D|---------------------------|------------------------------|------------------------|
A|------2---2---2---2---2----|-2---2---2---2---2----2---2---|-2---2---0--------------|
E|-0-------------------------|------------------------------|--------------3----2----|


G|---------------------------|------------------------------|------------------------|
D|---------------------------|------------------------------|------------------------|
A|------2---2---2---2---2----|-2---2---2---2---2----2---2---|-2---2---0--------------|
E|-0-------------------------|------------------------------|--------------3----2----|


G|---------------------------|------------------------------|------------------------|
D|---------------------------|------------------------------|------------------------|
A|------2---2---2---2---2----|-2---2---2---2---2----2---2---|-2---2---0--------------|
E|-0-------------------------|------------------------------|--------------3----2----|


G|---------------------------|------------------------------|------------------------|
D|---------------------------|------------------------------|------------------------|
A|------2---2---2---2---2----|-2---2---2---2---2----2---2---|-2---2---0--------------|
E|-0-------------------------|------------------------------|--------------3----2----|


G|------------------------|---------------------------|------------------------|---------------------------|
D|------------------------|---------------------------|------------------------|---------------------------|
A|------------------------|--------------5----5---5---|-5----5----5---5---5----|---------------------------|
E|-3----3---3---3----3----|-3---3---3-----------------|------------------------|-3----3---3---3---3---3----|


G|---------------------------|-----------------|---------------------------|------------------------------|
D|---------------------------|-----------------|---------------------------|------------------------------|
A|-----------------5----5----|-5----2----2-----|---------------------------|------------------------------|
E|-3---3---3---3-------------|-----------------|-0----0---0---0---0---0----|-0---0---0---0---0----0---0---|


G|------------------------|---------------------------|------------------------------|
D|------------------------|---------------------------|------------------------------|
A|---------5----5----5----|---------------------------|------------------------------|
E|-0---0------------------|-0----0---0---0---0---0----|-0---0---0---0---0----0---0---|


G|------------------------|---------------------------|------------------------------|
D|------------------------|---------------------------|------------------------------|
A|---------5----5----5----|---------------------------|------------------------------|
E|-0---0------------------|-0----0---0---0---0---0----|-0---0---0---0---0----0---0---|


G|------------------------|---------------------------|------------------------------|
D|------------------------|---------------------------|------------------------------|
A|---------5----5----5----|---------------------------|------------------------------|
E|-0---0------------------|-0----0---0---0---0---0----|-0---0---0---0---0----0---0---|


G|------------------------|---------------------------|------------------------------|
D|------------------------|---------------------------|------------------------------|
A|---------0--------------|---------------------------|------------------------------|
E|-0---0--------3----2----|-0----0---0---0---0---0----|-0---0---0---0---0----0---0---|


G|------------------------|---------------------------|------------------------------|
D|------------------------|---------------------------|------------------------------|
A|---------5----5----5----|---------------------------|------------------------------|
E|-0---0------------------|-0----0---0---0---0---0----|-0---0---0---0---0----0---0---|


G|------------------------|---------------------------|------------------------------|
D|------------------------|---------------------------|------------------------------|
A|---------5----5----5----|---------------------------|------------------------------|
E|-0---0------------------|-0----0---0---0---0---0----|-0---0---0---0---0----0---0---|


G|------------------------|---------------------------|------------------------------|
D|------------------------|---------------------------|------------------------------|
A|---------5----5----5----|---------------------------|------------------------------|
E|-0---0------------------|-0----0---0---0---0---0----|-0---0---0---0---0----0---0---|


G|------------------------|---------------------------|------------------------------|
D|------------------------|---------------------------|------------------------------|
A|---------5----5----5----|---------------------------|------------------------------|
E|-0---0------------------|-0----0---0---0---0---0----|-0---0---0---0---0----0---0---|


G|------------------------|---------------------------|------------------------------|
D|------------------------|---------------------------|------------------------------|
A|---------5----5----5----|---------------------------|------------------------------|
E|-0---0------------------|-0----0---0---0---0---0----|-0---0---0---0---0----0---0---|


G|------------------------|---------------------------|------------------------------|
D|------------------------|---------------------------|------------------------------|
A|---------5----5----5----|---------------------------|------------------------------|
E|-0---0------------------|-0----0---0---0---0---0----|-0---0---0---0---0----0---0---|


G|------------------------|---------------------------|------------------------------|
D|------------------------|---------------------------|------------------------------|
A|---------5----5----5----|---------------------------|------------------------------|
E|-0---0------------------|-0----0---0---0---0---0----|-0---0---0---0---0----0---0---|


G|------------------------|------------------------|--------------------|---------------------|
D|------------------------|------------------------|--------------------|---------------------|
A|---------5----5----5----|------------------------|--------------------|---------------------|
E|-0---0------------------|-0----0---0---0----0----|-------0----0---0---|-0----0----1----1----|


G|------------------------|--------------------|---------------------|------------------------|
D|------------------------|--------------------|---------------------|------------------------|
A|------------------------|--------------------|---------------------|------------------------|
E|-0----0---0---0----0----|-------0----0---0---|-0----0----1----1----|-0----0---0---0----0----|


G|--------------------|---------------------|------------------------|--------------------|
D|--------------------|---------------------|------------------------|--------------------|
A|--------------------|---------------------|------------------------|--------------------|
E|-------0----0---0---|-0----0----1----1----|-0----0---0---0----0----|-------0----0---0---|


G|---------------------|------------------------|--------------------|---------------------|
D|---------------------|------------------------|--------------------|---------------------|
A|---------------------|------------------------|--------------------|---------------------|
E|-0----0----1----1----|-0----0---0---0----0----|-------0----0---0---|-0----0----1----1----|


G|------------------------|--------------------|---------------------|------------------------|
D|------------------------|--------------------|---------------------|------------------------|
A|------------------------|--------------------|---------------------|------------------------|
E|-0----0---0---0----0----|-------0----0---0---|-0----0----1----1----|-0----0---0---0----0----|


G|--------------------|---------------------|------------------------|--------------------|
D|--------------------|---------------------|------------------------|--------------------|
A|--------------------|---------------------|------------------------|--------------------|
E|-------0----0---0---|-0----0----1----1----|-0----0---0---0----0----|-------0----0---0---|


G|------------------------|------------------------|-------------|
D|------------------------|------------------------|-------------|
A|------------------------|------------------------|-------------|
E|-0---0---1----0----1----|-0----0---0---0----0----|-------------|