Menu:

 

Search:

 

red warszawa - red warszawa:

 



Title: Red Warszawa
Artist: 
Album: Omvendt Blåt Kors
Author: Hævi Henning


Track 1: Hævi Henning

E|---------------------------------|---------------------------------|---------------------------------|
B|---------------------------------|---------------------------------|---------------------------------|
G|---------------------------------|---------------------------------|---------------------------------|
D|---------------------------------|---------------------------------|---------------------------------|
A|-2---4---4---4---4---4---4---4---|-4---5---5---5---5---5---5---5---|-5---7---7---7---7---7---7---7---|
E|-0---2---2---2---2---2---2---2---|-2---3---3---3---3---3---3---3---|-3---5---5---5---5---5---5---5---|


E|---------------------------------|---------------------------------|---------------------------------|
B|---------------------------------|---------------------------------|---------------------------------|
G|---------------------------------|---------------------------------|---------------------------------|
D|---------------------------------|---------------------------------|---------------------------------|
A|-2---2---2---2---2---2---2---2---|-2---4---4---4---4---4---4---4---|-4---5---5---5---5---5---5---5---|
E|-0---0---0---0---0---0---0---0---|-0---2---2---2---2---2---2---2---|-2---3---3---3---3---3---3---3---|


E|---------------------------------|---------------------------------|---------------------------------|
B|---------------------------------|---------------------------------|---------------------------------|
G|---------------------------------|---------------------------------|---------------------------------|
D|---------------------------------|-9---9---9---9---9---9---9---9---|---------------------------------|
A|-5---7---7---7---7---7---7---7---|-7---7---7---7---7---7---7---7---|-2---4---4---4---4---4---4---4---|
E|-3---5---5---5---5---5---5---5---|---------------------------------|-0---2---2---2---2---2---2---2---|


E|---------------------------------|---------------------------------|---------------------------------|
B|---------------------------------|---------------------------------|---------------------------------|
G|---------------------------------|---------------------------------|---------------------------------|
D|---------------------------------|---------------------------------|---------------------------------|
A|-4---5---5---5---5---5---5---5---|-5---7---7---7---7---7---7---7---|-2---2---2---2---2---2---2---2---|
E|-2---3---3---3---3---3---3---3---|-3---5---5---5---5---5---5---5---|-0---0---0---0---0---0---0---0---|


E|---------------------------------|---------------------------------|---------------------------------|
B|---------------------------------|---------------------------------|---------------------------------|
G|---------------------------------|---------------------------------|---------------------------------|
D|---------------------------------|---------------------------------|---------------------------------|
A|-2---4---4---4---4---4---4---4---|-4---5---5---5---5---5---5---5---|-5---7---7---7---7---7---7---7---|
E|-0---2---2---2---2---2---2---2---|-2---3---3---3---3---3---3---3---|-3---5---5---5---5---5---5---5---|


E|---------------------------------|---------------------------------|---------------------------------|
B|---------------------------------|---------------------------------|---------------------------------|
G|---------------------------------|---------------------------------|---------------------------------|
D|-9---9---9---9---9---9---9---9---|---------------------------------|---------------------------------|
A|-7---7---7---7---7---7---7---7---|-2---4---4---4---4---4---4---4---|-4---5---5---5---5---5---5---5---|
E|---------------------------------|-0---2---2---2---2---2---2---2---|-2---3---3---3---3---3---3---3---|


E|---------------------------------|---------------------------------|---------------------------------|
B|---------------------------------|---------------------------------|---------------------------------|
G|---------------------------------|---------------------------------|---------------------------------|
D|---------------------------------|---------------------------------|---------------------------------|
A|-5---7---7---7---7---7---7---7---|-2---2---2---2---2---2---2---2---|-2---4---4---4---4---4---4---4---|
E|-3---5---5---5---5---5---5---5---|-0---0---0---0---0---0---0---0---|-0---2---2---2---2---2---2---2---|


E|---------------------------------|---------------------------------|---------------------------------|
B|---------------------------------|---------------------------------|---------------------------------|
G|---------------------------------|---------------------------------|---------------------------------|
D|---------------------------------|---------------------------------|---------------------------------|
A|-4---5---5---5---5---5---5---5---|-5---7---7---7---7---7---7---7---|-2---2---2---2---2---2---2---2---|
E|-2---3---3---3---3---3---3---3---|-3---5---5---5---5---5---5---5---|-0---0---0---0---0---0---0---0---|


E|--------------------|--------|--------|--------|---------------------------------|
B|--------------------|--------|--------|--------|---------------------------------|
G|--------------------|--------|--------|--------|---------------------------------|
D|--------------------|--------|--------|--------|---------------------------------|
A|-5-----7----7---9---|-9------|-5------|-7------|-4---4---4---4---4---4---4---5---|
E|-3-----5----5---7---|-7------|-3------|-5------|-2---2---2---2---2---2---2---3---|


E|---------------------------------|---------------------------------|---------------------------|
B|---------------------------------|---------------------------------|---------------------------|
G|---------------------------------|---------------------------------|---------------------------|
D|---------------------------------|---------------------------------|---------------------------|
A|-4---4---4---4---4---4---4---5---|-4---4---4---4---4---4---4---5---|-4---4---4---4---5----7----|
E|-2---2---2---2---2---2---2---3---|-2---2---2---2---2---2---2---3---|-2---2---2---2---3----5----|


E|---------------------------------|---------------------------------|---------------------------------|
B|---------------------------------|---------------------------------|---------------------------------|
G|---------------------------------|---------------------------------|---------------------------------|
D|---------------------------------|---------------------------------|---------------------------------|
A|-9---9---9---9---9---9---9---0---|-5---5---5---5---5---5---5---5---|-5---7---7---7---7---7---7---7---|
E|-7---7---7---7---7---7---7---0---|-3---3---3---3---3---3---3---3---|-3---5---5---5---5---5---5---5---|


E|---------------------------------|---------------------------------|---------------------------------|
B|---------------------------------|---------------------------------|---------------------------------|
G|---------------------------------|---------------------------------|---------------------------------|
D|---------------------------------|---------------------------------|---------------------------------|
A|-2---2---2---2---2---2---2---2---|-2---4---4---4---4---4---4---4---|-4---5---5---5---5---5---5---5---|
E|-0---0---0---0---0---0---0---0---|-0---2---2---2---2---2---2---2---|-2---3---3---3---3---3---3---3---|


E|---------------------------------|---------------------------------|---------------------------------|
B|---------------------------------|---------------------------------|---------------------------------|
G|---------------------------------|---------------------------------|---------------------------------|
D|---------------------------------|-9---9---9---9---9---9---9---9---|---------------------------------|
A|-5---7---7---7---7---7---7---7---|-7---7---7---7---7---7---7---7---|-2---4---4---4---4---4---4---4---|
E|-3---5---5---5---5---5---5---5---|---------------------------------|-0---2---2---2---2---2---2---2---|


E|---------------------------------|---------------------------------|---------------------------------|
B|---------------------------------|---------------------------------|---------------------------------|
G|---------------------------------|---------------------------------|---------------------------------|
D|---------------------------------|---------------------------------|---------------------------------|
A|-4---5---5---5---5---5---5---5---|-5---7---7---7---7---7---7---7---|-2---2---2---2---2---2---2---2---|
E|-2---3---3---3---3---3---3---3---|-3---5---5---5---5---5---5---5---|-0---0---0---0---0---0---0---0---|


E|---------------------------------|---------------------------------|---------------------------------|
B|---------------------------------|---------------------------------|---------------------------------|
G|---------------------------------|---------------------------------|---------------------------------|
D|---------------------------------|---------------------------------|---------------------------------|
A|-2---4---4---4---4---4---4---4---|-4---5---5---5---5---5---5---5---|-5---7---7---7---7---7---7---7---|
E|-0---2---2---2---2---2---2---2---|-2---3---3---3---3---3---3---3---|-3---5---5---5---5---5---5---5---|


E|---------------------------------|--------------------|--------|--------|--------|
B|---------------------------------|--------------------|--------|--------|--------|
G|---------------------------------|--------------------|--------|--------|--------|
D|---------------------------------|--------------------|--------|--------|--------|
A|-2---2---2---2---2---2---2---2---|-5-----7----7---9---|-9------|-5------|-7------|
E|-0---0---0---0---0---0---0---0---|-3-----5----5---7---|-7------|-3------|-5------|


E|---------------------------------|---------------------------------|---------------------------------|
B|---------------------------------|---------------------------------|---------------------------------|
G|---------------------------------|---------------------------------|---------------------------------|
D|---------------------------------|---------------------------------|---------------------------------|
A|-4---4---4---4---4---4---4---5---|-4---4---4---4---4---4---4---5---|-4---4---4---4---4---4---4---5---|
E|-2---2---2---2---2---2---2---3---|-2---2---2---2---2---2---2---3---|-2---2---2---2---2---2---2---3---|


E|---------------------------|---------------------------------|---------------------------------|
B|---------------------------|---------------------------------|---------------------------------|
G|---------------------------|---------------------------------|---------------------------------|
D|---------------------------|---------------------------------|---------------------------------|
A|-4---4---4---4---5----7----|-9---9---9---9---9---9---9---0---|-5---5---5---5---5---5---5---5---|
E|-2---2---2---2---3----5----|-7---7---7---7---7---7---7---0---|-3---3---3---3---3---3---3---3---|


E|---------------------------------|---------------------------------|---------------------------------|
B|---------------------------------|---------------------------------|---------------------------------|
G|---------------------------------|---------------------------------|---------------------------------|
D|---------------------------------|---------------------------------|---------------------------------|
A|-5---7---7---7---7---7---7---7---|-2---2---2---2---2---2---2---2---|-2---4---4---4---4---4---4---4---|
E|-3---5---5---5---5---5---5---5---|-0---0---0---0---0---0---0---0---|-0---2---2---2---2---2---2---2---|


E|---------------------------------|---------------------------------|---------------------------------|
B|---------------------------------|---------------------------------|---------------------------------|
G|---------------------------------|---------------------------------|---------------------------------|
D|---------------------------------|---------------------------------|-9---9---9---9---9---9---9---9---|
A|-4---5---5---5---5---5---5---5---|-5---7---7---7---7---7---7---7---|-7---7---7---7---7---7---7---7---|
E|-2---3---3---3---3---3---3---3---|-3---5---5---5---5---5---5---5---|---------------------------------|


E|--------|--------|--------|--------|--------|--------|--------|--------|--------|
B|--------|--------|--------|--------|--------|--------|--------|--------|--------|
G|--------|--------|--------|--------|--------|--------|--------|--------|--------|
D|--------|--------|--------|--------|--------|--------|--------|--------|--------|
A|--------|--------|--------|--------|--------|--------|--------|--------|--------|
E|--------|--------|--------|--------|--------|--------|--------|--------|--------|


E|--------|--------|--------|--------|--------|--------|--------|---------------------------------|
B|--------|--------|--------|--------|--------|--------|--------|-0-------------------------------|
G|--------|--------|--------|--------|--------|--------|--------|---------------------------------|
D|--------|--------|--------|--------|--------|--------|--------|---------------------------------|
A|--------|--------|--------|--------|--------|--------|--------|-9---9---9---9---9---9---9---0---|
E|--------|--------|--------|--------|--------|--------|--------|-7---7---7---7---7---7---7---0---|


E|---------------------------------|---------------------------------|---------------------------------|
B|---------------------------------|---------------------------------|---------------------------------|
G|---------------------------------|---------------------------------|---------------------------------|
D|---------------------------------|---------------------------------|---------------------------------|
A|-5---5---5---5---5---5---5---5---|-5---7---7---7---7---7---7---7---|-2---2---2---2---2---2---2---2---|
E|-3---3---3---3---3---3---3---3---|-3---5---5---5---5---5---5---5---|-0---0---0---0---0---0---0---0---|


E|---------------------------------|---------------------------------|---------------------------------|
B|---------------------------------|---------------------------------|---------------------------------|
G|---------------------------------|---------------------------------|---------------------------------|
D|---------------------------------|---------------------------------|---------------------------------|
A|-2---4---4---4---4---4---4---4---|-4---5---5---5---5---5---5---5---|-5---7---7---7---7---7---7---7---|
E|-0---2---2---2---2---2---2---2---|-2---3---3---3---3---3---3---3---|-3---5---5---5---5---5---5---5---|


E|---------------------------------|---------------------------------|---------------------------------|
B|---------------------------------|---------------------------------|---------------------------------|
G|---------------------------------|---------------------------------|---------------------------------|
D|-9---9---9---9---9---9---9---9---|---------------------------------|---------------------------------|
A|-7---7---7---7---7---7---7---7---|-2---4---4---4---4---4---4---4---|-4---5---5---5---5---5---5---5---|
E|---------------------------------|-0---2---2---2---2---2---2---2---|-2---3---3---3---3---3---3---3---|


E|---------------------------------|---------------------------------|---------------------------------|
B|---------------------------------|---------------------------------|---------------------------------|
G|---------------------------------|---------------------------------|---------------------------------|
D|---------------------------------|---------------------------------|---------------------------------|
A|-5---7---7---7---7---7---7---7---|-2---2---2---2---2---2---2---2---|-2---4---4---4---4---4---4---4---|
E|-3---5---5---5---5---5---5---5---|-0---0---0---0---0---0---0---0---|-0---2---2---2---2---2---2---2---|


E|---------------------------------|---------------------------------|---------------------------------|
B|---------------------------------|---------------------------------|---------------------------------|
G|---------------------------------|---------------------------------|---------------------------------|
D|---------------------------------|---------------------------------|---------------------------------|
A|-4---5---5---5---5---5---5---5---|-5---7---7---7---7---7---7---7---|-2---2---2---2---2---2---2---2---|
E|-2---3---3---3---3---3---3---3---|-3---5---5---5---5---5---5---5---|-0---0---0---0---0---0---0---0---|


E|--------------------|--------|--------|--------|---------------------------------|
B|--------------------|--------|--------|--------|---------------------------------|
G|--------------------|--------|--------|--------|---------------------------------|
D|--------------------|--------|--------|--------|---------------------------------|
A|-5-----7----7---9---|-9------|-5------|-7------|-4---4---4---4---4---4---4---5---|
E|-3-----5----5---7---|-7------|-3------|-5------|-2---2---2---2---2---2---2---3---|


E|---------------------------------|---------------------------------|---------------------------|
B|---------------------------------|---------------------------------|---------------------------|
G|---------------------------------|---------------------------------|---------------------------|
D|---------------------------------|---------------------------------|---------------------------|
A|-4---4---4---4---4---4---4---5---|-4---4---4---4---4---4---4---5---|-4---4---4---4---5----7----|
E|-2---2---2---2---2---2---2---3---|-2---2---2---2---2---2---2---3---|-2---2---2---2---3----5----|


E|--------|-------------|
B|--------|-------------|
G|--------|-------------|
D|--------|-------------|
A|-9------|-9------9----|
E|-7------|-7------7----|





Track 2: Hævi Henning Solo

E|--------|--------|--------|--------|--------|--------|--------|--------|--------|
B|--------|--------|--------|--------|--------|--------|--------|--------|--------|
G|--------|--------|--------|--------|--------|--------|--------|--------|--------|
D|--------|--------|--------|--------|--------|--------|--------|--------|--------|
A|--------|--------|--------|--------|--------|--------|--------|--------|--------|
E|--------|--------|--------|--------|--------|--------|--------|--------|--------|


E|--------|--------|--------|--------|--------|--------|--------|--------|--------|
B|--------|--------|--------|--------|--------|--------|--------|--------|--------|
G|--------|--------|--------|--------|--------|--------|--------|--------|--------|
D|--------|--------|--------|--------|--------|--------|--------|--------|--------|
A|--------|--------|--------|--------|--------|--------|--------|--------|--------|
E|--------|--------|--------|--------|--------|--------|--------|--------|--------|


E|--------|--------|--------|--------|--------|--------|--------|--------|--------|
B|--------|--------|--------|--------|--------|--------|--------|--------|--------|
G|--------|--------|--------|--------|--------|--------|--------|--------|--------|
D|--------|--------|--------|--------|--------|--------|--------|--------|--------|
A|--------|--------|--------|--------|--------|--------|--------|--------|--------|
E|--------|--------|--------|--------|--------|--------|--------|--------|--------|


E|--------|--------|--------|--------|--------|--------|--------|--------|--------|
B|--------|--------|--------|--------|--------|--------|--------|--------|--------|
G|--------|--------|--------|--------|--------|--------|--------|--------|--------|
D|--------|--------|--------|--------|--------|--------|--------|--------|--------|
A|--------|--------|--------|--------|--------|--------|--------|--------|--------|
E|--------|--------|--------|--------|--------|--------|--------|--------|--------|


E|--------|--------|--------|--------|--------|--------|--------|--------|--------|
B|--------|--------|--------|--------|--------|--------|--------|--------|--------|
G|--------|--------|--------|--------|--------|--------|--------|--------|--------|
D|--------|--------|--------|--------|--------|--------|--------|--------|--------|
A|--------|--------|--------|--------|--------|--------|--------|--------|--------|
E|--------|--------|--------|--------|--------|--------|--------|--------|--------|


E|--------|--------|--------|--------|--------|--------|--------|--------|--------|
B|--------|--------|--------|--------|--------|--------|--------|--------|--------|
G|--------|--------|--------|--------|--------|--------|--------|--------|--------|
D|--------|--------|--------|--------|--------|--------|--------|--------|--------|
A|--------|--------|--------|--------|--------|--------|--------|--------|--------|
E|--------|--------|--------|--------|--------|--------|--------|--------|--------|


E|--------|--------|--------|--------|--------|--------|--------|--------|--------|
B|--------|--------|--------|--------|--------|--------|--------|--------|--------|
G|--------|--------|--------|--------|--------|--------|--------|--------|--------|
D|--------|--------|--------|--------|--------|--------|--------|--------|--------|
A|--------|--------|--------|--------|--------|--------|--------|--------|--------|
E|--------|--------|--------|--------|--------|--------|--------|--------|--------|


E|--------|-----------------------|-----------------------------------|---------------------------|
B|--------|-----------------------|-------------------------------14--|-15---15---15--14----------|
G|--------|-----------------------|-------------------16------16------|-------------------16--14--|
D|--------|-----------------------|---------------16------16----------|---------------------------|
A|--------|-14----14--16--17--14--|-14--14-16-17----------------------|---------------------------|
E|--------|-----------------------|-----------------------------------|---------------------------|


E|---------------------------------|-----------------------------19--|-19--------------------------17--|
B|-----------------12------14--12--|-12------15------17------19------|---------15------17------19------|
G|-14------14----------------------|-----16------16------16----------|-----16------16------16----------|
D|-----14------14------14----------|---------------------------------|---------------------------------|
A|---------------------------------|---------------------------------|---------------------------------|
E|---------------------------------|---------------------------------|---------------------------------|


E|-17--17--14--------------14------|------------------------------|-------------|-------------------------|
B|-------------17--15--17------17--|-17--17--15--14--15--14-------|-------------|-------------------------|
G|---------------------------------|-------------------------14---|-16----------|-------------------------|
D|---------------------------------|------------------------------|-------------|-------------------9-----|
A|---------------------------------|------------------------------|-------------|---------------9---------|
E|---------------------------------|------------------------------|-------------|-----7--9--10------------|


E|----------------------|-----------------|-------------------------------------------------|
B|----------------------|-----------------|-2--0--2--0--2--0--2--0--2--0--2--0--3--0--3--0--|
G|----------------------|-----------------|-------------------------------------------------|
D|----------------------|-----------------|-------------------------------------------------|
A|----------------------|-7----------7----|-------------------------------------------------|
E|-7-----7----9----10---|-------10--------|-------------------------------------------------|


E|-------------------------------------------------|-------------------------------------------------|
B|-5--0--5--0--5--0--5--0--5--0--5--0--3--0--3--0--|-7--0--7--0--7--0--7--0--7--0--7--0--5--0--5--0--|
G|-------------------------------------------------|-------------------------------------------------|
D|-------------------------------------------------|-------------------------------------------------|
A|-------------------------------------------------|-------------------------------------------------|
E|-------------------------------------------------|-------------------------------------------------|


E|-------------------------------------------------|--------|--------|--------|--------|
B|-7--0--7--0--5--0--5--0--3--0--3--0--2--0--2--0--|--------|--------|--------|--------|
G|-------------------------------------------------|--------|--------|--------|--------|
D|-------------------------------------------------|--------|--------|--------|--------|
A|-------------------------------------------------|--------|--------|--------|--------|
E|-------------------------------------------------|--------|--------|--------|--------|


E|--------|--------|--------|--------|--------|--------|--------|--------|--------|
B|--------|--------|--------|--------|--------|--------|--------|--------|--------|
G|--------|--------|--------|--------|--------|--------|--------|--------|--------|
D|--------|--------|--------|--------|--------|--------|--------|--------|--------|
A|--------|--------|--------|--------|--------|--------|--------|--------|--------|
E|--------|--------|--------|--------|--------|--------|--------|--------|--------|


E|--------|--------|--------|--------|--------|--------|--------|--------|--------|
B|--------|--------|--------|--------|--------|--------|--------|--------|--------|
G|--------|--------|--------|--------|--------|--------|--------|--------|--------|
D|--------|--------|--------|--------|--------|--------|--------|--------|--------|
A|--------|--------|--------|--------|--------|--------|--------|--------|--------|
E|--------|--------|--------|--------|--------|--------|--------|--------|--------|


E|--------|--------|--------|--------|
B|--------|--------|--------|--------|
G|--------|--------|--------|--------|
D|--------|--------|--------|--------|
A|--------|--------|--------|--------|
E|--------|--------|--------|--------|





Track 3: Untitled

G|--------|--------|--------|--------|--------|--------|--------|--------|---------------------------------|
D|--------|--------|--------|--------|--------|--------|--------|--------|---------------------------------|
A|--------|--------|--------|--------|--------|--------|--------|--------|---------------------------------|
E|--------|--------|--------|--------|--------|--------|--------|--------|-2---2---2---2---2---2---2---2---|


G|---------------------------------|---------------------------------|---------------------------------|
D|---------------------------------|---------------------------------|---------------------------------|
A|---------------------------------|---------------------------------|---------------------------------|
E|-3---3---3---3---3---3---3---3---|-5---5---5---5---5---5---5---5---|-0---0---0---0---0---0---0---0---|


G|---------------------------------|---------------------------------|------------------------------|
D|---------------------------------|---------------------------------|------------------------------|
A|---------------------------------|---------------------------------|------------------------------|
E|-2---2---2---2---2---2---2---2---|-3---3---3---3---3---3---3---3---|-5---5---5---5---5---5---12---|


G|---------------------------------|---------------------------------|---------------------------------|
D|---------------------------------|---------------------------------|---------------------------------|
A|---------------------------------|---------------------------------|---------------------------------|
E|-0---0---0---0---0---0---0---0---|-2---2---2---2---2---2---2---2---|-3---3---3---3---3---3---3---3---|


G|---------------------------------|---------------------------------|---------------------------------|
D|---------------------------------|---------------------------------|---------------------------------|
A|---------------------------------|---------------------------------|---------------------------------|
E|-5---5---5---5---5---5---5---5---|-0---0---0---0---0---0---0---0---|-2---2---2---2---2---2---2---2---|


G|---------------------------------|---------------------------------|---------------------------------|
D|---------------------------------|---------------------------------|---------------------------------|
A|---------------------------------|---------------------------------|---------------------------------|
E|-3---3---3---3---3---3---3---3---|-5---5---5---5---5---5---5---5---|-0---0---0---0---0---0---0---0---|


G|--------------------|--------|--------|--------|---------------------------------|
D|--------------------|--------|--------|--------|---------------------------------|
A|-------0----0---2---|-2------|--------|-0------|---------------------------------|
E|-3------------------|--------|-3------|--------|-2---2---2---2---2---2---2---3---|


G|---------------------------------|---------------------------------|---------------------------|
D|---------------------------------|---------------------------------|---------------------------|
A|---------------------------------|---------------------------------|---------------------------|
E|-2---2---2---2---2---2---2---3---|-2---2---2---2---2---2---2---3---|-2---2---2---2---3----5----|


G|---------------------------------|---------------------------------|---------------------------------|
D|---------------------------------|---------------------------------|---------------------------------|
A|-2---2---2---2---2---2---2---2---|---------------------------------|---------------------------------|
E|---------------------------------|-3---3---3---3---3---3---3---3---|-5---5---5---5---5---5---5---5---|


G|---------------------------------|---------------------------------|---------------------------------|
D|---------------------------------|---------------------------------|---------------------------------|
A|---------------------------------|---------------------------------|---------------------------------|
E|-0---0---0---0---0---0---0---0---|-2---2---2---2---2---2---2---2---|-3---3---3---3---3---3---3---3---|


G|------------------------------|---------------------------------|---------------------------------|
D|------------------------------|---------------------------------|---------------------------------|
A|------------------------------|---------------------------------|---------------------------------|
E|-5---5---5---5---5---5---12---|-0---0---0---0---0---0---0---0---|-2---2---2---2---2---2---2---2---|


G|---------------------------------|---------------------------------|---------------------------------|
D|---------------------------------|---------------------------------|---------------------------------|
A|---------------------------------|---------------------------------|---------------------------------|
E|-3---3---3---3---3---3---3---3---|-5---5---5---5---5---5---5---5---|-0---0---0---0---0---0---0---0---|


G|---------------------------------|---------------------------------|---------------------------------|
D|---------------------------------|---------------------------------|---------------------------------|
A|---------------------------------|---------------------------------|---------------------------------|
E|-2---2---2---2---2---2---2---2---|-3---3---3---3---3---3---3---3---|-5---5---5---5---5---5---5---5---|


G|---------------------------------|--------------------|--------|--------|--------|
D|---------------------------------|--------------------|--------|--------|--------|
A|---------------------------------|-------0----0---2---|-2------|--------|-0------|
E|-0---0---0---0---0---0---0---0---|-3------------------|--------|-3------|--------|


G|---------------------------------|---------------------------------|---------------------------------|
D|---------------------------------|---------------------------------|---------------------------------|
A|---------------------------------|---------------------------------|---------------------------------|
E|-2---2---2---2---2---2---2---3---|-2---2---2---2---2---2---2---3---|-2---2---2---2---2---2---2---3---|


G|---------------------------|---------------------------------|---------------------------------|
D|---------------------------|---------------------------------|---------------------------------|
A|---------------------------|-2---2---2---2---2---2---2---2---|---------------------------------|
E|-2---2---2---2---3----5----|---------------------------------|-3---3---3---3---3---3---3---3---|


G|---------------------------------|---------------------------------|---------------------------------|
D|---------------------------------|---------------------------------|---------------------------------|
A|---------------------------------|---------------------------------|---------------------------------|
E|-5---5---5---5---5---5---5---5---|-0---0---0---0---0---0---0---0---|-2---2---2---2---2---2---2---2---|


G|---------------------------------|------------------------------|---------------------------------|
D|---------------------------------|------------------------------|---------------------------------|
A|---------------------------------|------------------------------|---------------------------------|
E|-3---3---3---3---3---3---3---3---|-5---5---5---5---5---5---12---|-0---0---0---0---0---0---0---0---|


G|---------------------------------|---------------------------------|---------------------------------|
D|---------------------------------|---------------------------------|---------------------------------|
A|---------------------------------|---------------------------------|---------------------------------|
E|-2---2---2---2---2---2---2---2---|-3---3---3---3---3---3---3---3---|-5---5---5---5---5---5---5---5---|


G|---------------------------------|---------------------------------|---------------------------------|
D|---------------------------------|---------------------------------|---------------------------------|
A|---------------------------------|---------------------------------|---------------------------------|
E|-0---0---0---0---0---0---0---0---|-2---2---2---2---2---2---2---2---|-3---3---3---3---3---3---3---3---|


G|---------------------------------|---------------------------------|--------------------|
D|---------------------------------|---------------------------------|--------------------|
A|---------------------------------|---------------------------------|-------0----0---2---|
E|-5---5---5---5---5---5---5---5---|-0---0---0---0---0---0---0---0---|-3------------------|


G|--------|--------|--------|---------------------------------|---------------------------------|
D|--------|--------|--------|---------------------------------|---------------------------------|
A|-2------|--------|-0------|---------------------------------|---------------------------------|
E|--------|-3------|--------|-2---2---2---2---2---2---2---3---|-2---2---2---2---2---2---2---3---|


G|---------------------------------|---------------------------|---------------------------------|
D|---------------------------------|---------------------------|---------------------------------|
A|---------------------------------|---------------------------|-2---2---2---2---2---2---2---2---|
E|-2---2---2---2---2---2---2---3---|-2---2---2---2---3----5----|---------------------------------|


G|---------------------------------|---------------------------------|---------------------------------|
D|---------------------------------|---------------------------------|---------------------------------|
A|---------------------------------|---------------------------------|---------------------------------|
E|-3---3---3---3---3---3---3---3---|-5---5---5---5---5---5---5---5---|-0---0---0---0---0---0---0---0---|


G|---------------------------------|---------------------------------|------------------------------|
D|---------------------------------|---------------------------------|------------------------------|
A|---------------------------------|---------------------------------|------------------------------|
E|-2---2---2---2---2---2---2---2---|-3---3---3---3---3---3---3---3---|-5---5---5---5---5---5---12---|


G|---------------------------------|---------------------------------|---------------------------------|
D|---------------------------------|---------------------------------|---------------------------------|
A|---------------------------------|---------------------------------|---------------------------------|
E|-0---0---0---0---0---0---0---0---|-2---2---2---2---2---2---2---2---|-3---3---3---3---3---3---3---3---|


G|---------------------------------|---------------------------------|---------------------------------|
D|---------------------------------|---------------------------------|---------------------------------|
A|---------------------------------|---------------------------------|---------------------------------|
E|-5---5---5---5---5---5---5---5---|-0---0---0---0---0---0---0---0---|-2---2---2---2---2---2---2---2---|


G|---------------------------------|---------------------------------|---------------------------------|
D|---------------------------------|---------------------------------|---------------------------------|
A|---------------------------------|---------------------------------|---------------------------------|
E|-3---3---3---3---3---3---3---3---|-5---5---5---5---5---5---5---5---|-0---0---0---0---0---0---0---0---|


G|--------------------|--------|--------|--------|---------------------------------|
D|--------------------|--------|--------|--------|---------------------------------|
A|-------0----0---2---|-2------|--------|-0------|---------------------------------|
E|-3------------------|--------|-3------|--------|-2---2---2---2---2---2---2---3---|


G|---------------------------------|---------------------------------|---------------------------|
D|---------------------------------|---------------------------------|---------------------------|
A|---------------------------------|---------------------------------|---------------------------|
E|-2---2---2---2---2---2---2---3---|-2---2---2---2---2---2---2---3---|-2---2---2---2---3----5----|


G|--------|-------------|
D|--------|-------------|
A|--------|-------------|
E|-7------|-7------7----|