Menu:

 

Search:

 

red hot chili peppers - out in la:

 



Title: Out in L.A.
Artist: 
Album: Red Hot Chili Peppers
Author: Red Hot Chili Peppers


Track 1: Untitled

E|--------|--------|--------|--------|--------|--------|--------|--------|--------|
B|--------|--------|--------|--------|--------|--------|--------|--------|--------|
G|--------|--------|--------|--------|--------|--------|--------|--------|--------|
D|--------|--------|--------|--------|--------|--------|--------|--------|--------|
A|--------|--------|--------|--------|--------|--------|--------|--------|--------|
E|--------|--------|--------|--------|--------|--------|--------|--------|--------|


E|--------|--------|--------|--------|--------|--------|--------|--------|--------|
B|--------|--------|--------|--------|--------|--------|--------|--------|--------|
G|--------|--------|--------|--------|--------|--------|--------|--------|--------|
D|--------|--------|--------|--------|--------|--------|--------|--------|--------|
A|--------|--------|--------|--------|--------|--------|--------|--------|--------|
E|--------|--------|--------|--------|--------|--------|--------|--------|--------|


E|--------|--------|--------|--------|--------|--------|--------|--------|--------|
B|--------|--------|--------|--------|--------|--------|--------|--------|--------|
G|--------|--------|--------|--------|--------|--------|--------|--------|--------|
D|--------|--------|--------|--------|--------|--------|--------|--------|--------|
A|--------|--------|--------|--------|--------|--------|--------|--------|--------|
E|--------|--------|--------|--------|--------|--------|--------|--------|--------|


E|--------|--------|--------|--------|--------|--------|--------|--------|--------|
B|--------|--------|--------|--------|--------|--------|--------|--------|--------|
G|--------|--------|--------|--------|--------|--------|--------|--------|--------|
D|--------|--------|--------|--------|--------|--------|--------|--------|--------|
A|--------|--------|--------|--------|--------|--------|--------|--------|--------|
E|--------|--------|--------|--------|--------|--------|--------|--------|--------|


E|--------|--------|--------|--------|--------|--------|--------|--------|--------|
B|--------|--------|--------|--------|--------|--------|--------|--------|--------|
G|--------|--------|--------|--------|--------|--------|--------|--------|--------|
D|--------|--------|--------|--------|--------|--------|--------|--------|--------|
A|--------|--------|--------|--------|--------|--------|--------|--------|--------|
E|--------|--------|--------|--------|--------|--------|--------|--------|--------|


E|--------|--------|--------|--------|--------|--------|--------|--------|--------|
B|--------|--------|--------|--------|--------|--------|--------|--------|--------|
G|--------|--------|--------|--------|--------|--------|--------|--------|--------|
D|--------|--------|--------|--------|--------|--------|--------|--------|--------|
A|--------|--------|--------|--------|--------|--------|--------|--------|--------|
E|--------|--------|--------|--------|--------|--------|--------|--------|--------|


E|--------|--------|--------|--------|--------|--------|--------|--------|
B|--------|--------|--------|--------|--------|--------|--------|--------|
G|--------|--------|--------|--------|--------|--------|--------|--------|
D|--------|--------|--------|--------|--------|--------|--------|--------|
A|--------|--------|--------|--------|--------|--------|--------|--------|
E|--------|--------|--------|--------|--------|--------|--------|--------|





Track 2: Flea

G|--------|--------|-------------------------|------------------------------------|
D|--------|--------|-------------------------|-------------------------------5----|
A|--------|--------|-7----5--------------7---|-7---5--4--5--5-------4--5--7-------|
E|--------|--------|-----------6----7--------|------------------------------------|


G|-------------------------|--------------------------------|-------------------------|
D|-------------------------|--------------------------------|-------------------------|
A|-7----5--------------5---|-7---5------4---4--5------------|-7----5--------------7---|
E|-----------6----7--------|--------------------------------|-----------6----7--------|


G|------------------------------------|-------------------------|--------------------------------|
D|-------------------------------5----|-------------------------|--------------------------------|
A|-7---5--4--5--5-------4--5--7-------|-7----5--------------5---|-7---5------4---4--5-------19---|
E|------------------------------------|-----------6----7--------|--------------------------------|


G|-------------------------|------------------------------------|-------------------------|
D|-------------------------|-------------------------------5----|-------------------------|
A|-7----5--------------7---|-7---5--4--5--5-------4--5--7-------|-7----5--------------5---|
E|-----------6----7--------|------------------------------------|-----------6----7--------|


G|--------------------------------|-------------------------|------------------------------------|
D|--------------------------------|-------------------------|-------------------------------5----|
A|-7---5------4---4--5------------|-7----5--------------7---|-7---5--4--5--5-------4--5--7-------|
E|--------------------------------|-----------6----7--------|------------------------------------|


G|-------------------------|--------------------------------|--------|--------|--------|
D|-------------------------|--------------------------------|--------|--------|--------|
A|-7----5--------------5---|-7---5------4---4--5------------|--------|--------|--------|
E|-----------6----7--------|---------------------------4----|--------|--------|--------|


G|--------|-------------------------|------------------------------------|-------------------------|
D|--------|-------------------------|-------------------------------5----|-------------------------|
A|--------|-7----5--------------7---|-7---5--4--5--5-------4--5--7-------|-7----5--------------5---|
E|--------|-----------6----7--------|------------------------------------|-----------6----7--------|


G|--------------------------------|--------|--------|--------|--------|-------------------------|
D|--------------------------------|--------|--------|--------|--------|-------------------------|
A|-7---5------4---4--5-------19---|--------|--------|--------|--------|-7----5--------------7---|
E|--------------------------------|--------|--------|--------|--------|-----------6----7--------|


G|------------------------------------|-------------------------|--------------------------------|
D|-------------------------------5----|-------------------------|--------------------------------|
A|-7---5--4--5--5-------4--5--7-------|-7----5--------------5---|-7---5------4---4--5------------|
E|------------------------------------|-----------6----7--------|--------------------------------|


G|-------------------------|------------------------------------|-------------------------|
D|-------------------------|-------------------------------5----|-------------------------|
A|-7----5--------------7---|-7---5--4--5--5-------4--5--7-------|-7----5--------------5---|
E|-----------6----7--------|------------------------------------|-----------6----7--------|


G|--------------------------------|--------|--------|--------|--------|-------------------------|
D|--------------------------------|--------|--------|--------|--------|-------------------------|
A|-7---5------4---4--5------------|--------|--------|--------|--------|-7----5--------------7---|
E|---------------------------3----|--------|--------|--------|--------|-----------6----7--------|


G|------------------------------------|-------------------------|--------------------------------|
D|-------------------------------5----|-------------------------|--------------------------------|
A|-7---5--4--5--5-------4--5--7-------|-7----5--------------5---|-7---5------4---4--5-------19---|
E|------------------------------------|-----------6----7--------|--------------------------------|


G|-------------------------|------------------------------------|-------------------------|
D|-------------------------|-------------------------------5----|-------------------------|
A|-7----5--------------7---|-7---5--4--5--5-------4--5--7-------|-7----5--------------5---|
E|-----------6----7--------|------------------------------------|-----------6----7--------|


G|--------------------------------|-------------------------|------------------------------------|
D|--------------------------------|-------------------------|-------------------------------5----|
A|-7---5------4---4--5------------|-7----5--------------7---|-7---5--4--5--5-------4--5--7-------|
E|---------------------------3----|-----------6----7--------|------------------------------------|


G|-------------------------|-----------------------------14---|-------------------------|
D|-------------------------|----------------------------------|-------------------------|
A|-7----5--------------5---|-7---5------4---4--5-----12-------|-7----5--------------7---|
E|-----------6----7--------|----------------------------------|-----------6----7--------|


G|----------------------------7--------------|-------------------------|--------------------------------|
D|---------------------7-9--9----9--9--------|-------------------------|--------------------------------|
A|-7---5--4--5--5-----------------------10---|-7----5--------------5---|-7---5------4---4--5------------|
E|-------------------------------------------|-----------6----7--------|--------------------------------|


G|-------------------------|------------------------------------|-------------------------|
D|-------------------------|-------------------------------5----|-------------------------|
A|-7----5--------------7---|-7---5--4--5--5-------4--5--7-------|-7----5--------------5---|
E|-----------6----7--------|------------------------------------|-----------6----7--------|


G|--------------------------------|
D|--------------------------------|
A|-7---5------4---4--5------------|
E|--------------------------------|





Track 3: Flea (bass solo slap)

G|--------|--------|--------|--------|--------|--------|--------|--------|--------|
D|--------|--------|--------|--------|--------|--------|--------|--------|--------|
A|--------|--------|--------|--------|--------|--------|--------|--------|--------|
E|--------|--------|--------|--------|--------|--------|--------|--------|--------|


G|--------|--------|--------|--------|--------|--------|--------|--------|--------|
D|--------|--------|--------|--------|--------|--------|--------|--------|--------|
A|--------|--------|--------|--------|--------|--------|--------|--------|--------|
E|--------|--------|--------|--------|--------|--------|--------|--------|--------|


G|--------------6--7-----------------------7--9--|-----9--------7-----7-----------------7------|
D|--------------------------------7--9--9--------|-----------------------------7--8--9---------|
A|-----5--7--7--------0--5--7--7-----------------|--------7--7-----7--------5--------------7---|
E|-0---------------------------------------------|-0-------------------------------------------|


G|---------------------------------------|-----7------10-----12----------14---|--------|
D|---------------------------------------|------------------------------------|--------|
A|---------------------------------5--7--|-5------8------10-----10-10---------|--------|
E|-0---4---0--5---0--6---0--7---0--------|------------------------------------|--------|


G|--------|--------|--------|--------|--------|--------|--------|--------|--------|
D|--------|--------|--------|--------|--------|--------|--------|--------|--------|
A|--------|--------|--------|--------|--------|--------|--------|--------|--------|
E|--------|--------|--------|--------|--------|--------|--------|--------|--------|


G|--------|--------|--------|--------|--------|--------|--------|--------|--------|
D|--------|--------|--------|--------|--------|--------|--------|--------|--------|
A|--------|--------|--------|--------|--------|--------|--------|--------|--------|
E|--------|--------|--------|--------|--------|--------|--------|--------|--------|


G|--------|--------|--------|--------|--------|--------|--------|--------|--------|
D|--------|--------|--------|--------|--------|--------|--------|--------|--------|
A|--------|--------|--------|--------|--------|--------|--------|--------|--------|
E|--------|--------|--------|--------|--------|--------|--------|--------|--------|


G|--------|--------|--------|--------|--------|--------|--------|--------|--------|
D|--------|--------|--------|--------|--------|--------|--------|--------|--------|
A|--------|--------|--------|--------|--------|--------|--------|--------|--------|
E|--------|--------|--------|--------|--------|--------|--------|--------|--------|


G|--------|--------|--------|
D|--------|--------|--------|
A|--------|--------|--------|
E|--------|--------|--------|