Menu:

 

Search:

 

red hot chili peppers - my lovely man:

 



Title: My Lovely Man
Artist: 
Album: Blood Sugar Sex Magik
Author: Red Hot Chili Peppers


Track 1: Untitled

E|---------------------------------|-------------------------------------|---------------------------------|
B|---------------------------------|-------------------------------------|---------------------------------|
G|---------------------------------|-----------------------7-------------|---------------------------------|
D|---------------------------------|-7----5--5---7--9--9-------9--7--5---|---------------------------------|
A|-7----5--5---7---7--5----7---5---|-------------------------------------|-7----5--5---7---7--5----7---5---|
E|---------------------------------|-------------------------------------|---------------------------------|


E|-------------------------------------|---------------------------------|-------------------------------------|
B|-------------------------------------|---------------------------------|-------------------------------------|
G|-------------------------------------|---------------------------------|-----------------------7-------------|
D|-------------------------------------|---------------------------------|-7----5--5---7--9--9-------9--7--5---|
A|-----------------------5-------------|-7----5--5---7---7--5----7---5---|-------------------------------------|
E|-5---3---3---5--7--7-------7--5--3---|---------------------------------|-------------------------------------|


E|---------------------------------|-------------------------------------|---------------------------------|
B|---------------------------------|-------------------------------------|---------------------------------|
G|---------------------------------|-------------------------------------|---------------------------------|
D|---------------------------------|-------------------------------------|---------------------------------|
A|-7----5--5---7---7--5----7---5---|-----------------------5-------------|-7----5--5---7---7--5----7---5---|
E|---------------------------------|-5---3---3---5--7--7-------7--5--3---|---------------------------------|


E|-----------------------10------------|-----------------------------------|-------------------------------------|
B|-10--8---8---10-12-12------12-10-8---|-----------------------------------|-------------------------------------|
G|-------------------------------------|-9--9---7--7---9---9--7----9---7---|-----------------------7---------5---|
D|-------------------------------------|-----------------------------------|-7----5--5---7--9--9-------9--7------|
A|-------------------------------------|-----------------------------------|-------------------------------------|
E|-------------------------------------|-----------------------------------|-------------------------------------|


E|---------------------------------|---------------------------------|---------------------------------|
B|---------------------------------|---------------------------------|---------------------------------|
G|---------------------------------|---------------------------------|---------------------------------|
D|---------------------------------|-6---4---6---4---6---4---6---4---|---------------------------------|
A|-7---5---7---5---7---5---7---5---|---------------------------------|-7----5--5---7---7--5----7---5---|
E|---------------------------------|---------------------------------|---------------------------------|


E|-------------------------------------|---------------------------------|-------------------------------------|
B|-------------------------------------|---------------------------------|-------------------------------------|
G|-----------------------7-------------|---------------------------------|-------------------------------------|
D|-7----5--5---7--9--9-------9--7--5---|---------------------------------|-------------------------------------|
A|-------------------------------------|-7----5--5---7---7--5----7---5---|-----------------------5-------------|
E|-------------------------------------|---------------------------------|-5---3---3---5--7--7-------7--5--3---|


E|---------------------------------|-----------------------10------------|-----------------------------------|
B|---------------------------------|-10--8---8---10-12-12------12-10-8---|-----------------------------------|
G|---------------------------------|-------------------------------------|-9--9---7--7---9---9--7----9---7---|
D|---------------------------------|-------------------------------------|-----------------------------------|
A|-7----5--5---7---7--5----7---5---|-------------------------------------|-----------------------------------|
E|---------------------------------|-------------------------------------|-----------------------------------|


E|-------------------------------------|--------|--------|--------------------------------8--|
B|-------------------------------------|--------|--------|-8---8---8--8--------8-------8--8--|
G|-----------------------7---------5---|--------|--------|-5---5---5--5--------5-------5--5--|
D|-7----5--5---7--9--9-------9--7------|--------|--------|-5---5---5--5--------5-------5--5--|
A|-------------------------------------|--------|--------|-----------------------------------|
E|-------------------------------------|--------|--------|-----------------------------------|


E|-----------10-10----------10-10-----10-|--------------------------------|---------------------------------|
B|-8---------10-10----------10-10-----10-|---------12--12-------12--12-12-|---------12--12-------12----12---|
G|-5---------7--7-----------7--7------7--|---------12--12--12---12--12-12-|-12--12--12--12--12---12----12---|
D|-5---7--9----------7--9----------9-----|-12-14---12------14-------14-14-|-14--14----------14---12---------|
A|---------------------------------------|-14--------------15-------------|-15--------------14--------------|
E|---------------------------------------|--------------------------------|---------------------------------|


E|--------------8-----------8--8---8--8--|-----------10-10----------8-----8--8---|
B|--------------8-----------8--8---8--8--|-----------10-10----------8-----8--8---|
G|-----5--------5-----------5--5---5--5--|-----7-----7--7-----------7-----7--7---|
D|-----5--7----------5--7----------------|-----7--9----------7--9----------------|
A|---------------------------------------|-----8-------------8-------------------|
E|---------------------------------------|---------------------------------------|


E|---------------------------------------|-------------------------------------|--------------8-----------8-----8--8---|
B|-------------14--12------14----12------|-------------14--12-------14----12---|--------------8-----------8-----8--8---|
G|-------12-12-12--12------12----12------|-------------12--12-------12----12---|--------------7-----------7-----7--7---|
D|-12-14---------------14-------------14-|-14-12-14-14---------14--------------|-----5--7--7-------5--7------7---------|
A|-14------------------------------------|-------------------------------------|---------------------------------------|
E|---------------------------------------|-------------------------------------|---------------------------------------|


E|--------------10----------10----10---|-------------------------------------|-------------------------------------|
B|--------------10----------10----10---|-----------14--12------14----12------|-----------14--12---------14----12---|
G|--------------9-----------9-----9----|--------12-12--12------12----12------|-----------12--12---------12----12---|
D|-----7--9--9-------7--9------9-------|-12-14-------------14-------------12-|-14-12-14----------12-14-------------|
A|-------------------------------------|-------------------------------------|-------------------------------------|
E|-------------------------------------|-------------------------------------|-------------------------------------|


E|--------------8-----------8-----8--8---|--------------10----------10----10---|---------------------------------------|
B|--------------8-----------8-----8--8---|--------------10----------10----10---|-------------14--12------14----12------|
G|--------------7-----------7-----7--7---|--------------9-----------9-----9----|-------12-12-12--12------12----12------|
D|-----5--7--7-------5--7------7---------|-----7--9--9-------7--9------9-------|-12-14---------------14-------------14-|
A|---------------------------------------|-------------------------------------|-14------------------------------------|
E|---------------------------------------|-------------------------------------|---------------------------------------|


E|-----------------------------------------|---------------------------------|-------------------------------------|
B|----14-14-14-14--12----------------------|---------------------------------|-------------------------------------|
G|----12-12-12-12--12----------------------|---------------------------------|-----------------------7-------------|
D|-14------------------14--14--14-12-14-12-|---------------------------------|-7----5--5---7--9--9-------9--7--5---|
A|-----------------------------------------|-7----5--5---7---7--5----7---5---|-------------------------------------|
E|-----------------------------------------|---------------------------------|-------------------------------------|


E|---------------------------------|-------------------------------------|---------------------------------|
B|---------------------------------|-------------------------------------|---------------------------------|
G|---------------------------------|-------------------------------------|---------------------------------|
D|---------------------------------|-------------------------------------|---------------------------------|
A|-7----5--5---7---7--5----7---5---|-----------------------5-------------|-7----5--5---7---7--5----7---5---|
E|---------------------------------|-5---3---3---5--7--7-------7--5--3---|---------------------------------|


E|-----------------------10------------|-----------------------------------|-------------------------------------|
B|-10--8---8---10-12-12------12-10-8---|-----------------------------------|-------------------------------------|
G|-------------------------------------|-9--9---7--7---9---9--7----9---7---|-----------------------7---------5---|
D|-------------------------------------|-----------------------------------|-7----5--5---7--9--9-------9--7------|
A|-------------------------------------|-----------------------------------|-------------------------------------|
E|-------------------------------------|-----------------------------------|-------------------------------------|


E|--------|--------|--------------8----------------------------|--------|--------|
B|--------|--------|--------------8----------------------------|--------|--------|
G|--------|--------|-----5-----5--7---5--4------5-----5--5--5--|--------|--------|
D|--------|--------|-----5--7--7--5---7--5--7---7-----7--7--7--|--------|--------|
A|--------|--------|-----5-----7------7--5------8-----8--8--8--|--------|--------|
E|--------|--------|-------------------------------------------|--------|--------|


E|--------|--------|--------|--------|--------|--------|--------|--------|--------|
B|--------|--------|--------|--------|--------|--------|--------|--------|--------|
G|--------|--------|--------|--------|--------|--------|--------|--------|--------|
D|--------|--------|--------|--------|--------|--------|--------|--------|--------|
A|--------|--------|--------|--------|--------|--------|--------|--------|--------|
E|--------|--------|--------|--------|--------|--------|--------|--------|--------|


E|--------|--------|--------|--------|----------------------------|----------------------------|
B|--------|--------|--------|--------|-12----12---12--12--12--12--|-10--10---10------------12--|
G|--------|--------|--------|--------|-14----14---14--14--14--14--|-14--14---14----14--14------|
D|--------|--------|--------|--------|----------------------------|----------------------------|
A|--------|--------|--------|--------|----------------------------|----------------------------|
E|--------|--------|--------|--------|----------------------------|----------------------------|


E|------------------------|-------------------------------|----------------------|
B|-14----15--15--15---15--|-12----12--12--12--------12----|-8-----8----8----6----|
G|------------------------|-14----------------12-14----14-|-10----10---10---9----|
D|------------------------|-------------------------------|----------------------|
A|------------------------|-------------------------------|----------------------|
E|------------------------|-------------------------------|----------------------|


E|----------------------------|------------------------------------|------------------------------------------|
B|-5-----5----5---5---5---5---|-3-----3----------------------------|------------------------------------------|
G|-7-----7----7---7---7---7---|-5-----5----7--7--7--7--7--7--7--7--|-5---5---5---5---5---5---5---5---5---5----|
D|----------------------------|------------------------------------|------------------------------------------|
A|----------------------------|------------------------------------|------------------------------------------|
E|----------------------------|------------------------------------|------------------------------------------|


E|-12-12-12-12----------12---------------------------|--------------------------------------------------|
B|----------------15-15----1512----15----12-------12-|--------------------15----------------------12----|
G|-----------------------------1514---14----14-14-14-|-141412-14-12-14-14-14-14-14-12-14-12-14-14----14-|
D|---------------------------------------------------|--------------------------------------------------|
A|---------------------------------------------------|--------------------------------------------------|
E|---------------------------------------------------|--------------------------------------------------|


E|-----------------------------------------------|-------------------------------------------------|
B|----15--------12-------------------15----------|-------------15----------------------15----------|
G|-14----14-14-----14-12-14-12-14-14-14-14-14-12-|-14-12-14-14-14-14-14-12-14-12-14-14-14-14-14-12-|
D|-----------------------------------------------|-------------------------------------------------|
A|-----------------------------------------------|-------------------------------------------------|
E|-----------------------------------------------|-------------------------------------------------|


E|-------------------------------------------------|------------------------------------|
B|-------------15-------15-------15-------12-------|-----17--17----17----14----15--15---|
G|-14-12-14-14----14-14----14-14----14-14----14-16-|-16------16-16-16-16----16----------|
D|-------------------------------------------------|------------------------------------|
A|-------------------------------------------------|------------------------------------|
E|-------------------------------------------------|------------------------------------|


E|-15-12----12----------12-------15----17-17---|-17-18----------13-13--15--15------|
B|-------15----17-15-15----15-17----17---------|---------16-16---------------------|
G|---------------------------------------------|-----------------------------------|
D|---------------------------------------------|-----------------------------------|
A|---------------------------------------------|-----------------------------------|
E|---------------------------------------------|-----------------------------------|


E|---------------------------------|-------------------------------------|---------------------------------|
B|---------------------------------|-------------------------------------|---------------------------------|
G|---------------------------------|-----------------------7-------------|---------------------------------|
D|---------------------------------|-7----5--5---7--9--9-------9--7--5---|---------------------------------|
A|-7----5--5---7---7--5----7---5---|-------------------------------------|-7----5--5---7---7--5----7---5---|
E|---------------------------------|-------------------------------------|---------------------------------|


E|-------------------------------------|---------------------------------|-----------------------10------------|
B|-------------------------------------|---------------------------------|-10--8---8---10-12-12------12-10-8---|
G|-------------------------------------|---------------------------------|-------------------------------------|
D|-------------------------------------|---------------------------------|-------------------------------------|
A|-----------------------5-------------|-7----5--5---7---7--5----7---5---|-------------------------------------|
E|-5---3---3---5--7--7-------7--5--3---|---------------------------------|-------------------------------------|


E|-----------------------------------|-------------------------------------|--------|
B|-----------------------------------|-------------------------------------|--------|
G|-9--9---7--7---9---9--7----9---7---|-----------------------7---------5---|--------|
D|-----------------------------------|-7----5--5---7--9--9-------9--7------|--------|
A|-----------------------------------|-------------------------------------|--------|
E|-----------------------------------|-------------------------------------|--------|


E|--------|--------------8-----------8--8---8--8--|-----------10--10---------10----10-10--|
B|--------|--------------8-----------8--8---8--8--|-----------10--10---------10----10-10--|
G|--------|-----5--------5-----------5--5---5--5--|-----7-----7---7----------7-----7--7---|
D|--------|-----5--7----------5--7----------------|-----7--9----------7--9----------------|
A|--------|---------------------------------------|-----7-------------8-------------------|
E|--------|---------------------------------------|---------------------------------------|


E|-------------------------------------|---------------------------------------|--------------8-----------8--8---8--8--|
B|-----------12--12-------14----12-----|-------------14--12---------14----12---|--------------8-----------8--8---8--8--|
G|--------12-12--12-------12----12-----|-------------12--12---------12----12---|-----5--------5-----------5--5---5--5--|
D|-12-14-------------14-------------12-|-14-12-14------------12-14-------------|-----5--7----------5--7----------------|
A|-------------------------------------|---------------------------------------|---------------------------------------|
E|-------------------------------------|---------------------------------------|---------------------------------------|


E|-----------10--10---------10----10-10--|-------------------------------------|--------------------------------|
B|-----------10--10---------10----10-10--|-----------14--12------14----12------|------14--12---------14----12---|
G|-----7-----7---7----------7-----7--7---|--------12-12--12------12----12------|------12--12---------12----12---|
D|-----7--9----------7--9----------------|-12-14-------------14-------------12-|--------------12-14-------------|
A|-----7-------------8-------------------|-------------------------------------|--------------------------------|
E|---------------------------------------|-------------------------------------|--------------------------------|


E|--------------8-----------8--8---8--8--|-----------10--10---------10----10-10--|
B|--------------8-----------8--8---8--8--|-----------10--10---------10----10-10--|
G|-----5--------5-----------5--5---5--5--|-----7-----7---7----------7-----7--7---|
D|-----5--7----------5--7----------------|-----7--9----------7--9----------------|
A|---------------------------------------|-----7-------------8-------------------|
E|---------------------------------------|---------------------------------------|


E|-------------------------------------|-------------------------------------|--------------8-----------8--8---8--8--|
B|-----------14--12------14----12------|-----------14--12---------14----12---|--------------8-----------8--8---8--8--|
G|--------12-12--12------12----12------|-----------12--12---------12----12---|-----5--------5-----------5--5---5--5--|
D|-12-14-------------14-------------12-|-14-12-14----------12-14-------------|-----5--7----------5--7----------------|
A|-------------------------------------|-------------------------------------|---------------------------------------|
E|-------------------------------------|-------------------------------------|---------------------------------------|


E|-----------10-10----------10----10-10--|---------------------------------------|
B|-----------10-10----------10----10-10--|-------------14--12------14----12------|
G|-----7-----7--7-----------7-----7--7---|-------12-12-12--12------12----12------|
D|-----7--9----------7--9----------------|-12-14---------------14-------------14-|
A|-----7-------------8-------------------|-14------------------------------------|
E|---------------------------------------|---------------------------------------|


E|---------------------------------------------|------------------------|-----------------|
B|-----------14-12----14-12----14-12----14-12--|-12-----------------12--|-12--------------|
G|-----12-12-------12-------12-------12-12-12--|-12-----------------12--|-12--------------|
D|---------------------------------------------|--------------------14--|-14--------------|
A|---------------------------------------------|------------------------|-----------------|
E|---------------------------------------------|------------------------|-----------------|


E|--------------------|---------------------------|----------------------|-----------------------------|
B|---------------3----|---------3------------3----|----------------------|-----------------------------|
G|--------------------|---------------------------|----------------2--2--|-2--0--------------------2---|
D|--------------------|---------------------------|----------------------|-----------------------------|
A|--------------------|---------------------------|----------------------|-----------------------------|
E|--------------------|---------------------------|----------------------|-----------------------------|


E|--------------------|--------------------------------|--------------------|------------------------|
B|------3-------------|--------------------------------|----------------15--|-15-----------------12--|
G|-2------------------|-2--0------2---0----------------|--------------------|------------------------|
D|--------------------|-------2-----------2---0---2----|--------------------|------------------------|
A|--------------------|--------------------------------|--------------------|------------------------|
E|--------------------|--------------------------------|--------------------|------------------------|


E|----------------|--------|-----------------|----------------12--|-12-----|-12----15------------------|
B|-12-----12------|--------|-----------------|-----------12-------|--------|----------12--------12-----|
G|------------12--|-12-----|-12--------------|--------------------|--------|-------------12--12----12--|
D|----------------|--------|-----------------|--------------------|--------|---------------------------|
A|----------------|--------|-----------------|--------------------|--------|---------------------------|
E|----------------|--------|-----------------|--------------------|--------|---------------------------|


E|-14---------12-------------|-------------------------------|--------|-----------------|
B|------12---------12--------|-15---12--------14---12--------|--------|-----------------|
G|----------------------12---|-----------12-------------12---|--------|-----------------|
D|---------------------------|-------------------------------|-14-----|-14--------------|
A|---------------------------|-------------------------------|--------|-----------------|
E|---------------------------|-------------------------------|--------|-----------------|


E|--------|--------|--------------------|--------|
B|--------|--------|--------------------|--------|
G|--------|--------|-----------------12-|--------|
D|--------|--------|--------------------|--------|
A|--------|--------|--------------------|--------|
E|--------|--------|--------------------|--------|





Track 2: Flea - Bass (finger)

G|---------------------------------|-----------------------7-------------|---------------------------------|
D|---------------------------------|-7----5--5---7--9--9-------9--7--5---|---------------------------------|
A|-7----5--5---7---7--5----7---5---|-------------------------------------|-7----5--5---7---7--5----7---5---|
E|---------------------------------|-------------------------------------|---------------------------------|


G|-------------------------------------|---------------------------------|-----------------------7-------------|
D|-------------------------------------|---------------------------------|-7----5--5---7--9--9-------9--7--5---|
A|-----------------------5-------------|-7----5--5---7---7--5----7---5---|-------------------------------------|
E|-5---3---3---5--7--7-------7--5--3---|---------------------------------|-------------------------------------|


G|---------------------------------|-------------------------------------|---------------------------------|
D|---------------------------------|-------------------------------------|---------------------------------|
A|-7----5--5---7---7--5----7---5---|-----------------------5-------------|-7----5--5---7---7--5----7---5---|
E|---------------------------------|-5---3---3---5--7--7-------7--5--3---|---------------------------------|


G|-----------------------7-------------|---------------------------------|-------------------------------------|
D|-7----5--5---7--9--9-------9--7--5---|---------------------------------|-------------------------------------|
A|-------------------------------------|-7----5--5---7---7--5----7---5---|-----------------------5-------------|
E|-------------------------------------|---------------------------------|-5---3---3---5--7--7-------7--5--3---|


G|---------------------------------|------------------------------|---------------------------------|
D|---------------------------------|------------------------------|---------------------------------|
A|-7---5---7---5---7---5---7---5---|-7---5---7---5---7---5---7----|-7----5--5---7---7--5----7---5---|
E|---------------------------------|------------------------------|---------------------------------|


G|-----------------------7-------------|---------------------------------|-------------------------------------|
D|-7----5--5---7--9--9-------9--7--5---|---------------------------------|-------------------------------------|
A|-------------------------------------|-7----5--5---7---7--5----7---5---|-----------------------5-------------|
E|-------------------------------------|---------------------------------|-5---3---3---5--7--7-------7--5--3---|


G|---------------------------------|-----------------------7-------------|---------------------------------|
D|---------------------------------|-7----5--5---7--9--9-------9--7--5---|---------------------------------|
A|-7----5--5---7---7--5----7---5---|-------------------------------------|-7----5--5---7---7--5----7---5---|
E|---------------------------------|-------------------------------------|---------------------------------|


G|-------------------------------------|--------|--------|-------------------------------------|
D|-------------------------------------|--------|--------|-------------------------------------|
A|-----------------------5-------------|--------|--------|-------------------------------------|
E|-5---3---3---5--7--7-------7--5--3---|--------|--------|-----5------3----5----3-----3--5--5--|


G|-------------------------------------|-------------------------------------------|
D|-------------------------------------|-------------------------------------------|
A|-------------------------------------|-----5--7--7--7--7---5--7---7-----7--7--7--|
E|-----7------7----7----7-----7--7--7--|-------------------------------------------|


G|-------------------------------------------|-------------------------------------|
D|-------------------------------------------|-------------------------------------|
A|-----5--7--7--7--7--7--5--7---7-----5---7--|-------------------------------------|
E|-------------------------------------------|-----5------3----5----5-----3--5--5--|


G|-------------------------------------|-------------------------------------------|
D|-------------------------------------|-------------------------------------------|
A|-------------------------------------|-----5--7--7--7--7---5--7---7-----7--7--7--|
E|-----7------7----7----7-----7--7--7--|-------------------------------------------|


G|---------------------------------------------|-------------------------------------|
D|------------------------------5--------------|-------------------------------------|
A|-----5--7--7--7--7--7--5--7---------7--5-----|-------------------------------------|
E|------------------------------------------7--|-----5------3----5----5-----3--5--5--|


G|-------------------------------------|-------------------------------------------|
D|-------------------------------------|-------------------------------------------|
A|-------------------------------------|-----5--7--7--7--7---5--7---7-----7--7--7--|
E|-----7------7----7----7-----7--7--7--|-------------------------------------------|


G|-------------------------------------------|-------------------------------------|
D|-------------------------------------------|-------------------------------------|
A|-----5--7--7--7--7--7--5--7---7-----5---7--|-------------------------------------|
E|-------------------------------------------|-----5------3----5----5-----3--5--5--|


G|-------------------------------------|-------------------------------------------|
D|-------------------------------------|-------------------------------------------|
A|-------------------------------------|-----5--7--7--7--7---5--7---7-----7--7--7--|
E|-----7------7----7----7-----7--7--7--|-------------------------------------------|


G|-------------------------------------|---------------------------------|-----------------------7-------------|
D|-------------------------------------|---------------------------------|-7----5--5---7--9--9-------9--7--5---|
A|-----5--7--7--7--7---7-------7-------|-7----5--5---7---7--5----7---5---|-------------------------------------|
E|-------------------------------------|---------------------------------|-------------------------------------|


G|---------------------------------|-------------------------------------|---------------------------------|
D|---------------------------------|-------------------------------------|---------------------------------|
A|-7----5--5---7---7--5----7---5---|-----------------------5-------------|-7----5--5---7---7--5----7---5---|
E|---------------------------------|-5---3---3---5--7--7-------7--5--3---|---------------------------------|


G|-----------------------7-------------|---------------------------------|-------------------------------------|
D|-7----5--5---7--9--9-------9--7--5---|---------------------------------|-------------------------------------|
A|-------------------------------------|-7----5--5---7---7--5----7---5---|-----------------------5-------------|
E|-------------------------------------|---------------------------------|-5---3---3---5--7--7-------7--5--3---|


G|--------|--------|-------------------------------------|-------------------------------------|
D|--------|--------|-------------------------------------|-------------------------------------|
A|--------|--------|-------------------------------------|-------------------------------------|
E|--------|--------|-----5------3----5----5-----3--5--5--|-----7------7----7----7-----7--7--7--|


G|-------------------------------------------|-----------------------------------------|
D|-------------------------------------------|--------------------------5--------------|
A|-----5--7--7--7--7---5--7---7-----7--7--7--|-----5--7--7--7----5--7---------7--5--7--|
E|-------------------------------------------|-----------------------------------------|


G|-------------------------------------|-----------------------------------------|
D|-------------------------------------|--------------9--------------------------|
A|-------------------------------------|-----------------------------------------|
E|-----5------3----5----5-----3--5--5--|-----5--7---------7--7----7-----7--7--7--|


G|-------------------------------------------|---------------------------------------------|
D|-------------------------------------------|-------------------5--7--5------5--7--5------|
A|-----5--7--7--7--7---5--7---7-----7--7--7--|-----5--7--7--7-------------7------------7---|
E|-------------------------------------------|---------------------------------------------|


G|-------------------------------------|-------------------------------------|-------------------------------------------|
D|-------------------------------------|-------------------------------------|-------------------------------------------|
A|-------------------------------------|-------------------------------------|-----5--7--7--7--7---5--7---7-----7--7--7--|
E|-----5------3----5----5-----3--5--5--|-----7------7----7----7-----7--7--7--|-------------------------------------------|


G|-----------------------------------------|-------------------------------------|
D|--------------------------5--------------|-------------------------------------|
A|-----5--7--7--7----5--7---------7--5--7--|-------------------------------------|
E|-----------------------------------------|-----5------3----5----5-----3--5--5--|


G|-------------------------------------|-------------------------------------------|
D|----------------------9--------------|-------------------------------------------|
A|-------------------------------------|-----5--7--7--7--7---5--7---7-----7--7--7--|
E|-----7------7----7----------7--7--7--|-------------------------------------------|


G|----------------------------------|-------------------------------------7--7--9--9--|
D|----------------------------------|----------5--5--5--7--7--7--9--9--9--------------|
A|-----5--7--7--7---5--7------------|-7--7--7-----------------------------------------|
E|----------------------------------|-------------------------------------------------|


G|-------------------------------------7--7--------|-------------------------------------7--7--9--9--|
D|----------5--5--5--7--7--7--9--9--9--------9--9--|----------5--5--5--7--7--7--9--9--9--------------|
A|-7--7--7-----------------------------------------|-7--7--7-----------------------------------------|
E|-------------------------------------------------|-------------------------------------------------|


G|-------------------------------------7--7--------|-------------------------------------7--7--9--9--|
D|----------5--5--5--7--7--7--9--9--9--------9--9--|----------5--5--5--7--7--7--9--9--9--------------|
A|-7--7--7-----------------------------------------|-7--7--7-----------------------------------------|
E|-------------------------------------------------|-------------------------------------------------|


G|-------------------------------------7--7--------|-------------------------------------7--7--9--9--|
D|----------5--5--5--7--7--7--9--9--9--------9--9--|----------5--5--5--7--7--7--9--9--9--------------|
A|-7--7--7-----------------------------------------|-7--7--7-----------------------------------------|
E|-------------------------------------------------|-------------------------------------------------|


G|-------------------------------------7--7--------|--------|--------|--------|--------|
D|----------5--5--5--7--7--7--9--9--9--------9--9--|--------|--------|--------|--------|
A|-7--7--7-----------------------------------------|--------|--------|--------|--------|
E|-------------------------------------------------|--------|--------|--------|--------|


G|--------|--------|--------|--------|--------|--------|--------|--------|--------|
D|--------|--------|--------|--------|--------|--------|--------|--------|--------|
A|--------|--------|--------|--------|--------|--------|--------|--------|--------|
E|--------|--------|--------|--------|--------|--------|--------|--------|--------|


G|--------|--------|--------|--------|--------|-------------------------------------|
D|--------|--------|--------|--------|--------|-------------------------------------|
A|--------|--------|--------|--------|--------|-------------------------------------|
E|--------|--------|--------|--------|--------|-----5------3----5----3-----3--5--5--|


G|-------------------------------------|-------------------------------------------|
D|-------------------------------------|-------------------------------------------|
A|-------------------------------------|-----5--7--7--7--7---5--7---7-----7--7--7--|
E|-----7------7----7----7-----7--7--7--|-------------------------------------------|


G|-------------------------------------------|-------------------------------------|
D|-------------------------------------------|-------------------------------------|
A|-----5--7--7--7--7--7--5--7---7-----5---7--|-------------------------------------|
E|-------------------------------------------|-----5------3----5----5-----3--5--5--|


G|-------------------------------------|-------------------------------------------|
D|-------------------------------------|-------------------------------------------|
A|-------------------------------------|-----5--7--7--7--7---5--7---7-----7--7--7--|
E|-----7------7----7----7-----7--7--7--|-------------------------------------------|


G|------------------------------------------|-------------------------------------|
D|---------------------5--7--5------5-------|-------------------------------------|
A|-----5--7--7--7--7------------7-------7---|-------------------------------------|
E|------------------------------------------|-----5------3----5----5-----5--5--5--|


G|-------------------------------------|-------------------------------------------|
D|-------------------------------------|-------------------------------------------|
A|-------------------------------------|-----5--7--7--7--7---5--7---7-----7--7--7--|
E|-----7------7----7----7-----7--7--7--|-------------------------------------------|


G|-------------------------------------------|-------------------------------------|
D|-------------------------------------------|-------------------------------------|
A|-----5--7--7--7--7--7--5--7---7-----5---7--|-------------------------------------|
E|-------------------------------------------|-----5------3----5----5-----3--5--5--|


G|-------------------------------------|-------------------------------------------|
D|-------------------------------------|-------------------------------------------|
A|-------------------------------------|-----5--7--7--7--7---5--7---7-----7--7--7--|
E|-----7------7----7----7-----7--7--7--|-------------------------------------------|


G|----------------------------------|-------------------------------------|-------------------------------------|
D|----------------------------------|-------------------------------------|-------------------------------------|
A|-----5--7--7--7--7---7-------7----|-------------------------------------|-------------------------------------|
E|----------------------------------|-----5------3----5----5-----3--5--5--|-----7---7--7------7----7-----7--7---|


G|-------------------------------------------|-----------------------------------------|
D|-------------------------------------------|-----------------------8---7---5---------|
A|-----5--7--7--7--7---5--7---7-----7--7--7--|-----5--7--7--7--7--7-------------7--5---|
E|-------------------------------------------|-----------------------------------------|


G|-------------------------------------|-------------------------------------|-------------------------------------------|
D|-------------------------------------|-------------------------------------|-------------------------------------------|
A|-------------------------------------|-------------------------------------|-----5--7--7--7--7---5--7---7-----7--7--7--|
E|-----5------3----5----5-----3--5--5--|-----7------7----7----7-----7--7--7--|-------------------------------------------|


G|-------------------------------------------|-------------------------------------|
D|-------------------------------------------|-------------------------------------|
A|-----5--7--7--7--7--7--5--7---7-----5---7--|-------------------------------------|
E|-------------------------------------------|-----5------3----5----5-----3--5--5--|


G|-------------------------------------|-----------------7----12-12--9---|-----14--14-12-------------------|
D|-------------------------------------|------------9--------------------|----------------------12-12------|
A|-------------------------------------|-----7---7-----------------------|-----------------14----------14--|
E|-----7------7----7----7-----7--7--7--|---------------------------------|---------------------------------|


G|-----------------------------------|-------------------------------------|-------------------------------------------|
D|-----------------------------------|-------------------------------------|-------------------------------------------|
A|-----------------------------------|-------------------------------------|-----5--7--7--7--7---5--7---7-----7--7--7--|
E|-----5------3----5---5-------5--7--|-----7------7----7----7-----7--7--7--|-------------------------------------------|


G|-----------------------------------------|-------------------------------------|
D|---------------------5--7--5--7--5-------|-------------------------------------|
A|-----5--7--7--7--7-----------------------|-------------------------------------|
E|-----------------------------------------|-----5------3----5----5-----3--5--5--|


G|-------------------------------------|-------------------------------------|-----------------------------------|
D|-------------------------------------|-------------------------------------|-----------------------------------|
A|-------------------------------------|-----5--7--7--7--7---7----7------7---|-----7------7----7-----------------|
E|-----7------7----7----7-----7--7--7--|-------------------------------------|----------------------0-----0--0---|


G|-----------------------|-----------------------|-----------------------|--------|
D|-----------------------|-----------------------|-----------------------|--------|
A|-----------------------|-2---------------------|-----7---7--7----7-----|-7------|
E|-5---5---5--5----5-----|-----7---7--7----7-----|-----------------------|--------|





Track 3: Flea - Bass (Slap)

G|--------|--------|--------|--------|--------|--------|--------|--------|--------|
D|--------|--------|--------|--------|--------|--------|--------|--------|--------|
A|--------|--------|--------|--------|--------|--------|--------|--------|--------|
E|--------|--------|--------|--------|--------|--------|--------|--------|--------|


G|--------|--------|--------|--------|--------|--------|--------|--------|--------|
D|--------|--------|--------|--------|--------|--------|--------|--------|--------|
A|--------|--------|--------|--------|--------|--------|--------|--------|--------|
E|--------|--------|--------|--------|--------|--------|--------|--------|--------|


G|--------|--------|--------|--------|--------|--------|--------|--------|--------|
D|--------|--------|--------|--------|--------|--------|--------|--------|--------|
A|--------|--------|--------|--------|--------|--------|--------|--------|--------|
E|--------|--------|--------|--------|--------|--------|--------|--------|--------|


G|--------|--------|--------|--------|--------|--------|--------|--------|--------|
D|--------|--------|--------|--------|--------|--------|--------|--------|--------|
A|--------|--------|--------|--------|--------|--------|--------|--------|--------|
E|--------|--------|--------|--------|--------|--------|--------|--------|--------|


G|--------|--------|--------|--------|--------|--------|--------|--------|--------|
D|--------|--------|--------|--------|--------|--------|--------|--------|--------|
A|--------|--------|--------|--------|--------|--------|--------|--------|--------|
E|--------|--------|--------|--------|--------|--------|--------|--------|--------|


G|--------|--------|--------|--------|--------|--------|--------|--------|--------|
D|--------|--------|--------|--------|--------|--------|--------|--------|--------|
A|--------|--------|--------|--------|--------|--------|--------|--------|--------|
E|--------|--------|--------|--------|--------|--------|--------|--------|--------|


G|--------|--------|--------|--------|--------|--------|--------|--------|--------|
D|--------|--------|--------|--------|--------|--------|--------|--------|--------|
A|--------|--------|--------|--------|--------|--------|--------|--------|--------|
E|--------|--------|--------|--------|--------|--------|--------|--------|--------|


G|--------|--------|--------|--------|--------|--------|--------|--------|--------|
D|--------|--------|--------|--------|--------|--------|--------|--------|--------|
A|--------|--------|--------|--------|--------|--------|--------|--------|--------|
E|--------|--------|--------|--------|--------|--------|--------|--------|--------|


G|--------|--------|---------------------------------|-------------------------------------|
D|--------|--------|---------------------------------|-------------------------------------|
A|--------|--------|-7----5--5---7---7--5----7---5---|-----------------------5-------------|
E|--------|--------|---------------------------------|-5---3---3---5--7--7-------7--5--3---|


G|---------------------------------|-------------------------------------|---------------------------------|
D|---------------------------------|-------------------------------------|---------------------------------|
A|-7----5--5---7---7--5----7---5---|-----------------------5-------------|-7----5--5---7---7--5----7---5---|
E|---------------------------------|-5---3---3---5--7--7-------7--5--3---|---------------------------------|


G|-------------------------------------|---------------------------------|-------------------------------------|
D|-------------------------------------|---------------------------------|-------------------------------------|
A|-----------------------5-------------|-7----5--5---7---7--5----7---5---|-----------------------5-------------|
E|-5---3---3---5--7--7-------7--5--3---|---------------------------------|-5---3---3---5--7--7-------7--5--3---|


G|---------------------------------|-----------------------7-------------|---------------------------------|
D|---------------------------------|-7----5--5---7--9--9-------9--7--5---|---------------------------------|
A|-7----5--5---7---7--5----7---5---|-------------------------------------|-7----5--5---7---7--5----7---5---|
E|---------------------------------|-------------------------------------|---------------------------------|


G|-------------------------------------|---------------------------------|-----------------------7-------------|
D|-------------------------------------|---------------------------------|-7----5--5---7--9--9-------9--7--5---|
A|-----------------------5-------------|-7----5--5---7---7--5----7---5---|-------------------------------------|
E|-5---3---3---5--7--7-------7--5--3---|---------------------------------|-------------------------------------|


G|---------------------------------|-------------------------------------|--------|
D|---------------------------------|-------------------------------------|--------|
A|-7----5--5---7---7--5----7---5---|-----------------------5-------------|--------|
E|---------------------------------|-5---3---3---5--7--7-------7--5--3---|--------|


G|--------|--------|--------|--------|--------|--------|--------|--------|--------|
D|--------|--------|--------|--------|--------|--------|--------|--------|--------|
A|--------|--------|--------|--------|--------|--------|--------|--------|--------|
E|--------|--------|--------|--------|--------|--------|--------|--------|--------|


G|--------|--------|--------|--------|--------|--------|--------|--------|--------|
D|--------|--------|--------|--------|--------|--------|--------|--------|--------|
A|--------|--------|--------|--------|--------|--------|--------|--------|--------|
E|--------|--------|--------|--------|--------|--------|--------|--------|--------|


G|--------|--------|--------|--------|--------|--------|--------|--------|--------|
D|--------|--------|--------|--------|--------|--------|--------|--------|--------|
A|--------|--------|--------|--------|--------|--------|--------|--------|--------|
E|--------|--------|--------|--------|--------|--------|--------|--------|--------|


G|--------|--------|--------|--------|--------|--------|--------|--------|--------|
D|--------|--------|--------|--------|--------|--------|--------|--------|--------|
A|--------|--------|--------|--------|--------|--------|--------|--------|--------|
E|--------|--------|--------|--------|--------|--------|--------|--------|--------|


G|--------|--------|--------|--------|--------|
D|--------|--------|--------|--------|--------|
A|--------|--------|--------|--------|--------|
E|--------|--------|--------|--------|--------|