Menu:

 

Search:

 

red hot chili peppers - intro live in hyde park:

 



Title: Intro 
Artist: 
Album: Live in Hydepark
Author: John Frusciante, Michael Balzary and Chad Smith


Track 1: Untitled

E|----------------------------------|---------------------------------------|---------------------------------------|
B|-8----8--8--8--8------------------|-8----8--8--8--8--8------8-------------|-8----8--8--8--8--8--------------------|
G|-7----7--7--7--7------------------|-7----7--7--7--7--7------7---7--7------|-7----7--7--7--7--7------5-------7--7--|
D|-5----5--5--5--5------------------|-5----5--5--5--5--5----------6--5------|-5----5--5--5--5--5------5---7---5--5--|
A|-7----7--7--7--7------------------|-7----7--7--7--7--7----------7--5------|-7----7--7--7--7--7------5---7---7--7--|
E|--------------------------11------|---------------------------------------|-----------------------------7---------|


E|-------------------------------------------|-------------------------------------|
B|-8----8--8--8------------------------------|-8----8--8--8----------8---8--8------|
G|-7----7--7--7--------7--7------------7--7--|-7----7--7--7----------7---7--7------|
D|-5----5--5--5--------5--5------5-----5--5--|-5----5--5--5----------5---5--5------|
A|-7----7--7--7--5--7--7--7--5------5--7--7--|-7----7--7--7--5---7-----------------|
E|-------------------------------------------|-------------------------------------|


E|-------------------------------------------|---------------------------------------|
B|-8----8--8--8------------------------------|-8----8--8--8------8---8--8--8---8--8--|
G|-7----7--7--7--------7--7------------7--7--|-7----7--7--7--7---7---7--7--7---7--7--|
D|-5----5--5--5--------5--5------5-----5--5--|-5----5--5--5--7---5---5--5--5---5--5--|
A|-7----7--7--7--5--7--7--7--5------5--7--7--|-7----7--7--7--5---7-------------------|
E|-------------------------------------------|---------------------------------------|


E|-----------------------------------------|-----------------------------------------|
B|-8----8--8--8----------------------------|-8----8--8--8---------8------------------|
G|-7----7--7--7----------------------------|-7----7--7--7---------7------------------|
D|-5----5--5--5------------5--7--5--7--5---|-5----5--5--5---------5--5--7--5--7--5---|
A|-7----7--7--7--5--7----------------------|-7----7--7--7--5--7---7------------------|
E|-----------------------------------------|-----------------------------------------|


E|---------------------------------------|-----------------------------------------|
B|-8----8--8--8---------8----------------|-8----8--8--8---------8------------------|
G|-7----7--7--7---------7----------------|-7----7--7--7---------7--------------7---|
D|-5----5--5--5---------5--5--7--5-------|-5----5--5--5---------5--5--7--5--7--5---|
A|-7----7--7--7--5--7---7----------------|-7----7--7--7--5--7---7--------------7---|
E|---------------------------------------|-------------------------------------0---|


E|---------------------------------------|---------------------------------------|
B|-8----8--8--8---------8----------------|-8----8--8--8--8--8---8----------------|
G|-7----7--7--7---------7----------------|-7----7--7--7--7--7---7----------------|
D|-5----5--5--5---------5--5--7--5-------|-5----5--5--5--5--5---5--5--7--5-------|
A|-7----7--7--7--5--7---7----------------|-7----7--7--7--7--7---7----------------|
E|---------------------------------------|-0----0--------------------------------|


E|-----------------------------------------|---------------------------------------|
B|-8----8--8--8--8--8---8------------------|-8----8--8--8--8--8--8-----------------|
G|-7----7--7--7--7--7---7------------------|-7----7--7--7--7--7--7-----------------|
D|-5----5--5--5--5--5---5--5--7--7--7--5---|-5----5--5--5--5--5--5---5--7--5-------|
A|-7----7--7--7--7--7---7------------------|-7----7--7--7--5--7--5-----------------|
E|-0----0----------------------------------|-0----0-----------7--7-----------------|


E|-----------------------------------------|---------------------------------------|
B|-8----8--8--8------------8------8--------|-8----8--8--8---------8----------------|
G|-7----7--7--7--------7---7--7---7--------|-7----7--7--7---------7----------------|
D|-5----5--5--5--------5---5--5---5--5--5--|-5----5--5--5---------5--5--7--5-------|
A|-7----7--7--7--5--7--7---7--7---7--------|-7----7--7--7--5--7---7----------------|
E|-0----0----------------------------------|---------------------------------------|


E|-------------------------------------------|---------------------------------------|
B|-8----8--8--8---------8--------------------|-8----8--8--8---------8----------------|
G|-7----7--7--7---------7--------------------|-7----7--7--7---------7----------------|
D|-5----5--5--5---------5--5--7--7--7--5--0--|-5----5--5--5---------5--5--7--5-------|
A|-7----7--7--7--5--7---7-----------------0--|-7----7--7--7--5--7---7----------------|
E|-------------------------------------------|---------------------------------------|


E|-----------------------------------------|--------|--------|--------|--------|--------|
B|-8----8--8--8----------------------------|--------|--------|--------|--------|--------|
G|-7----7--7--7----------------------------|--------|--------|--------|--------|--------|
D|-5----5--5--5----------------------------|--------|--------|--------|--------|--------|
A|-7----7--7--7--5--7---7--7-7-7-7-7-------|--------|--------|--------|--------|--------|
E|-----------------------------------------|--------|--------|--------|--------|--------|


E|--------|--------|--------|--------|--------|--------|--------|--------|--------|
B|--------|--------|--------|--------|--------|--------|--------|--------|--------|
G|--------|--------|--------|--------|--------|--------|--------|--------|--------|
D|--------|--------|--------|--------|--------|--------|--------|--------|--------|
A|--------|--------|--------|--------|--------|--------|--------|--------|--------|
E|--------|--------|--------|--------|--------|--------|--------|--------|--------|


E|--------|--------|--------|--------|--------|--------|--------|--------|--------|
B|--------|--------|--------|--------|--------|--------|--------|--------|--------|
G|--------|--------|--------|--------|--------|--------|--------|--------|--------|
D|--------|--------|--------|--------|--------|--------|--------|--------|--------|
A|--------|--------|--------|--------|--------|--------|--------|--------|--------|
E|--------|--------|--------|--------|--------|--------|--------|--------|--------|


E|--------|--------|--------|--------|--------|--------|--------|--------|--------|
B|--------|--------|--------|--------|--------|--------|--------|--------|--------|
G|--------|--------|--------|--------|--------|--------|--------|--------|--------|
D|--------|--------|--------|--------|--------|--------|--------|--------|--------|
A|--------|--------|--------|--------|--------|--------|--------|--------|--------|
E|--------|--------|--------|--------|--------|--------|--------|--------|--------|


E|--------|--------|--------|--------|--------|--------|---------------|---------------|
B|--------|--------|--------|--------|--------|--------|---8------8----|---7------7----|
G|--------|--------|--------|--------|--------|--------|---7------7----|---7------7----|
D|--------|--------|--------|--------|--------|--------|---5------5----|---5------5----|
A|--------|--------|--------|--------|--------|-7------|-7-7------7----|-7-7------7----|
E|--------|--------|--------|--------|--------|--------|---------------|---------------|


E|-5------|--------|--------|-----------------------------------------|--------|-----------------------------------------|
B|--------|-8------|-8------|-----------------------------------------|--------|-----------------------------------------|
G|--------|-7------|-7------|-----------------------------------------|--------|-----------------------------------------|
D|--------|-5------|-5------|-----------------------------------------|--------|-----------------------------------------|
A|--------|-7------|-7------|-5--7---5--7---5--7--7--5--7---5--7------|--------|-5--7---5--7---5--7--7--5--7---5--7------|
E|--------|--------|--------|-----------------------------------------|--------|-----------------------------------------|


E|--------|-----------------------------------------|--------------------|-----------------------------------------|
B|--------|-----------------------------------------|--------------------|-----------------------------------------|
G|--------|-----------------------------------------|-----------5----5---|-----------------------------------------|
D|--------|-----------------------------------------|--------------------|-----------------------------------------|
A|--------|-5--7---5--7---5--7--7--5--7---5--7------|--------------------|-5--7---5--7---5--7--7--5--7---5--7------|
E|--------|-----------------------------------------|--------------------|-----------------------------------------|


E|-------------------------------------------|--------|--------|--------|--------|
B|-------------------------------------------|--------|--------|--------|--------|
G|-----6---6--6--4--7---9--9-----9--12-12-12-|--------|--------|--------|--------|
D|----------------------------0--------------|--------|--------|--------|--------|
A|-------------------------------------------|--------|--------|--------|--------|
E|-------------------------------------------|--------|--------|--------|--------|


E|-----------------------------------------|-----------------------------------------|
B|-----------------------------------------|-----------------------------------------|
G|-----------------------------------------|-----------------------------------------|
D|-----------------------------------------|-----------------------------------------|
A|-5--7---5--7---5--7--7--5--7---5--7------|-5--7---5--7---5--7--7--5--7---5--7------|
E|-----------------------------------------|-----------------------------------------|


E|-----------------------------------------|-----------------------------------------|
B|-----------------------------------------|-----------------------------------------|
G|-----------------------------------------|-----------------------------------------|
D|-----------------------------------------|-----------------------------------------|
A|-5--7---5--7---5--7--7--5--7---5--7------|-5--7---5--7---5--7--7--5--7---5--7------|
E|-----------------------------------------|-----------------------------------------|


E|-----------------------------------------|-----------------------------------------|
B|-----------------------------------------|-----------------------------------------|
G|-----------------------------------------|-----------------------------------------|
D|-----------------------------------------|-----------------------------------------|
A|-5--7---5--7---5--7--7--5--7---5--7------|-5--7---5--7---5--7--7--5--7---5--7------|
E|-----------------------------------------|-----------------------------------------|


E|-----------------------------------------|-----------------------------------------|
B|-----------------------------------------|-----------------------------------------|
G|-----------------------------------------|-----------------------------------------|
D|-----------------------------------------|-----------------------------------------|
A|-5--7---5--7---5--7--7--5--7---5--7------|-5--7---5--7---5--7--7--5--7---5--7------|
E|-----------------------------------------|-----------------------------------------|





Track 2: Dist

E|--------|--------|--------|--------|--------|--------|--------|--------|--------|
B|--------|--------|--------|--------|--------|--------|--------|--------|--------|
G|--------|--------|--------|--------|--------|--------|--------|--------|--------|
D|--------|--------|--------|--------|--------|--------|--------|--------|--------|
A|--------|--------|--------|--------|--------|--------|--------|--------|--------|
E|--------|--------|--------|--------|--------|--------|--------|--------|--------|


E|--------|--------|--------|--------|--------|--------|--------|--------|--------|
B|--------|--------|--------|--------|--------|--------|--------|--------|--------|
G|--------|--------|--------|--------|--------|--------|--------|--------|--------|
D|--------|--------|--------|--------|--------|--------|--------|--------|--------|
A|--------|--------|--------|--------|--------|--------|--------|--------|--------|
E|--------|--------|--------|--------|--------|--------|--------|--------|--------|


E|--------|--------|---------------------------|-----------------------------|----------------------------------|
B|--------|--------|---------------------------|-----------------------------|----------------------------------|
G|--------|--------|-9----9----9---9---9--9----|-9----9---9--9---9---9--9----|-7---7---7---7--7--7--7--7---7----|
D|--------|--------|---------------------------|-----------------------------|----------------------------------|
A|--------|--------|---------------------------|-----------------------------|----------------------------------|
E|--------|--------|---------------------------|-----------------------------|----------------------------------|


E|----------------------------------|------------------------------|-----------------------------|
B|----------------------------------|------------------------------|-----------------------------|
G|-7---7---7---7--7--7--7--7---7----|-9----9----9---9---9--9---9---|-9----9---9--9---9---9--9----|
D|----------------------------------|------------------------------|-----------------------------|
A|----------------------------------|------------------------------|-----------------------------|
E|----------------------------------|------------------------------|-----------------------------|


E|----------------------------------|-----------------------------------------|-----12-----12-----12-----12-----12--|
B|-8---8---8---8--8--8--8--8---8----|-----12-----12-----12-----12-0-----------|-15-----15-----15-----15-----15------|
G|----------------------------------|-14-----14-----14-----14-----0-----------|-------------------------------------|
D|----------------------------------|-----------------------------0-----------|-------------------------------------|
A|----------------------------------|--------------------------------10-10-10-|-------------------------------------|
E|----------------------------------|-----------------------------------------|-------------------------------------|


E|-----12-----12-----12-----12-----12--|-----12-----12-----12-----12-----12--|-----12-----12-------------|
B|-15-----15-----15-----15-----15------|-15-----15-----15------------15------|-15-----15-----15-17----17-|
G|-------------------------------------|----------------------15-------------|---------------------------|
D|-------------------------------------|-------------------------------------|---------------------------|
A|-------------------------------------|-------------------------------------|---------------------------|
E|-------------------------------------|-------------------------------------|---------------------------|


E|-----------------------------------|-----------------------------------|-----------------------------------|
B|-------------8----8--------8---8---|-------------8----8--------8---8---|-------------8----8--------8---8---|
G|-------------7----7--7--7--7---7---|-------------7----7--7--7--7---7---|-------------7----7--7--7--7---7---|
D|-------------7----7--7--7--7---7---|-------------7----7--7--7--7---7---|-------------7----7--7--7--7---7---|
A|-------------7----7--7--7--7---7---|-------------7----7--7--7--7---7---|-------------7----7--7--7--7---7---|
E|-0----0--0---0----0--------0---0---|-0----0--0---0----0--------0---0---|-0----0--0---0----0--------0---0---|


E|---------------------------|-----------------------------------|-----------------------------------|
B|-------------8----11----11-|-------------8----8--------8---8---|-------------8----8--------8---8---|
G|-------------7-------------|-------------7----7--7--7--7---7---|-------------7----7--7--7--7---7---|
D|-------------7-------------|-------------7----7--7--7--7---7---|-------------7----7--7--7--7---7---|
A|-------------7-------------|-------------7----7--7--7--7---7---|-------------7----7--7--7--7---7---|
E|-0----0--0---0-------------|-0----0--0---0----0--------0---0---|-0----0--0---0----0--------0---0---|


E|-----------------------------------|-----------------------|--------|--------|--------|
B|-------------8----8--------8---8---|-------------8-----8---|-10-----|-10-----|-10-----|
G|-------------7----7--7--7--7---7---|-----------------------|--------|--------|--------|
D|-------------7----7--7--7--7---7---|-----------------------|--------|--------|--------|
A|-------------7----7--7--7--7---7---|-----------------------|--------|--------|--------|
E|-0----0--0---0----0--------0---0---|-0----0--0-------------|--------|--------|--------|


E|-------------|-----------------|--------|--------|--------|--------|--------|--------|
B|-10----10----|-10----10--------|--------|--------|--------|--------|--------|--------|
G|-------------|-----------------|--------|--------|--------|--------|--------|--------|
D|-------------|-----------------|--------|--------|--------|--------|--------|--------|
A|-------------|-----------------|--------|--------|--------|--------|-7------|-7------|
E|-------------|-----------------|--------|--------|--------|--------|--------|--------|


E|--------------------|----------------------|--------------------------|-----------------------------|
B|--------------------|----------------------|--------------------------|-----------------------------|
G|--------------------|----------------------|--------------------------|-----------------------------|
D|-7-----7---7----7---|-7-----5--7----7---5--|-7----7---7----7--7----7--|-7-------7---7-----5--7--5---|
A|--------------------|----------------------|--------------------------|-----0-----------------------|
E|--------------------|----------------------|--------------------------|-----------------------------|


E|--------|--------|--------|--------|--------|--------|--------|--------|--------|
B|--------|--------|--------|--------|--------|--------|--------|--------|--------|
G|--------|--------|--------|--------|--------|--------|--------|--------|--------|
D|-5------|-5------|--------|--------|--------|--------|--------|--------|--------|
A|--------|--------|--------|--------|--------|--------|--------|--------|--------|
E|--------|--------|--------|--------|--------|--------|--------|--------|--------|


E|--------|--------|--------|--------|--------|--------|--------|---------------------------------------------------|
B|--------|--------|--------|--------|--------|--------|--------|---------------------------------------------------|
G|--------|--------|--------|--------|--------|--------|--------|-12----12-12-12-12-12-121212-12-12-12-121212-12-12-|
D|--------|--------|--------|--------|--------|--------|--------|----14---------------------------------------------|
A|--------|--------|--------|--------|--------|--------|--------|---------------------------------------------------|
E|--------|--------|--------|--------|--------|--------|--------|---------------------------------------------------|


E|------------------------------------------------------|----12121212----12121212---12121212---12121212---12121212---|
B|--------------------------------12-12-12-121212-12-12-|-12-1212121212122-12121212-1212121212-1212121212-2-12121212-|
G|-141414-141414-14-141414-14-141412-12-12-121212-12-12-|-12-1212121212121212121212-1212121212-1212121212-1212121212-|
D|------------------------------------------------------|----12121212----14121212---12121212---12121212---14121212---|
A|------------------------------------------------------|------------------------------------------------------------|
E|------------------------------------------------------|------------------------------------------------------------|


E|---------------------------------15151515151515151515151515151515|--------|--------|
B|-1515151515151515151515151515151515151515151515151515151515151515|--------|--------|
G|-1414141414141414141414141414141414141414141414141414141414141414|--------|--------|
D|-----------------------------------------------------------------|--------|--------|
A|-----------------------------------------------------------------|--------|--------|
E|-----------------------------------------------------------------|--------|--------|


E|--------|--------|--------|--------|--------|--------|
B|--------|--------|--------|--------|--------|--------|
G|--------|--------|--------|--------|--------|--------|
D|--------|--------|--------|--------|--------|--------|
A|--------|--------|--------|--------|--------|--------|
E|--------|--------|--------|--------|--------|--------|





Track 3: Untitled

G|--------|--------|--------|--------|-9--7-------------------------------------|-------------------------------|
D|--------|--------|--------|--------|----------9--7----------------------------|-------------------------------|
A|--------|--------|--------|--------|----------------9--7-----7-----5----------|-------------------------------|
E|--------|--------|--------|--------|----------------------5-----7-------------|-5--3--0--5--3--0--0--0--------|


G|-9--7-----7-------------------------------|---------------------------------|-9--7-------------------------------------|
D|-------9-----9--7-------------------------|---------------------------------|----------9--7----------------------------|
A|-------------------9--7-----7--5----------|---------------------------------|----------------9--7-----7-----5----------|
E|-------------------------5----------------|-5-5-5-3-0--3--3--0--0--0--------|----------------------5-----7-------------|


G|--------------------------------|-9--7-----7-------------------------------|------------------------------------------|
D|--------------------------------|-------9-----9--7-------------------------|------------------------------------------|
A|--------------------------------|-------------------9--7-----7--5----------|------------------------------------5--7--|
E|-5-3-0-5-3-0-5--3--0------------|-------------------------5----------------|-5--3--0--5--3--0--3--0----------0--------|


G|-------------------------------------------|-----------------------------------------|
D|---------------------------------------5---|-----------------------5---4-------------|
A|------------------------0-----0--5--7------|-------------------------------5--7--5---|
E|-0------0------0--0------------------------|-0------0--0--0--0--0--------------------|


G|-----------------------------------------------|----------------------------------------------|
D|-----------------------2-----5-----5--7--5--5--|--------------------------17------------------|
A|-----------------0--2--------------------------|-----------------17-18-19---------------------|
E|-0------0--0--0--------------------------------|-0------0--0--0-----------------5--5---5--3---|


G|--------------------------------------|------------------------7-----------------------|
D|--------------------------------------|------------------------7-----------------------|
A|--------------------------------------|-5-7---7-5-----5--5--5--------5-----5--7--5-----|
E|-0------0--0--0-------0--0--3--5------|------------------------------------------------|


G|-----------------------------------------------|-------------------------------|
D|-----------------------------------------------|-----------7---9---10--12--14--|
A|-------------------------5--7--5---------------|-7----10-----------------------|
E|-0--3-----3--5-----5--5--------------5--7------|-------------------------------|


G|-------------------------------------------|---------------------------------------------|
D|-------------------------------------------|--------------------5--7---7--9--7-----------|
A|---------------2-----0-----2---------5--7--|-----------5--7--7------------------10-7--7--|
E|-0----0--0--0-----0-----0-----0------------|-0---0--0------------------------------------|


G|-------------------------------------------|-----------------------------------------|
D|-------------------------------------------|-----------------------------------------|
A|-----------2---------------------------7---|-7--10--7--10--7--10--7--10-12-14-12-10--|
E|-0---0--0-----0--3--5---5--5--5--7--8------|-----------------------------------------|


G|-----------------------------------------------|-------------------------------------------|
D|-----------------------------------------------|-------------------------------------------|
A|-----------5--7--0-----------5--7--------2-----|---------------------------------------7---|
E|-0---0--0-----------3--0--0--------0--0-----0--|-0---0--0--3--3--3--5---5--5--5--7--8------|


G|-9-------7------9------7-------------|-9-------7------9------7-------------|-9-------7------9------7-------------|
D|------9------9------9------9--7--5---|------9------9------9------9--7--5---|------9------9------9------9--7--5---|
A|-------------------------------------|-------------------------------------|-------------------------------------|
E|-------------------------------------|-------------------------------------|-------------------------------------|


G|-7--9------7------9------7-------------|-------------------------------------|-------------------------------------|
D|--------9------9------9------9--7--5---|-------------------------------------|-------------------------------------|
A|---------------------------------------|-------------------------------------|-------------------------------------|
E|---------------------------------------|-0---0--3---3--5----5--5---5--3--0---|-0---0--3---3--5----5--5---5--3--0---|


G|-------------------------------------------|-------------------------------------------|
D|-----2--2--2--0--0--0----------------------|-------------------------------------------|
A|-----------------------------2-------------|-------------------------------------------|
E|-0---------------------0--0-----0--3---2---|-0------0--3--3--3--0-----0--0--0--3---2---|


G|-------------------------------------------|-------------------------------------------|
D|-------------------------------------------|------------------9--12-14-12-10-9---------|
A|-------------------------------------------|------------7--10-------------------10-7---|
E|-0------0--0--0--0--0-----0--0--0--3---2---|-0---7-------------------------------------|


G|-----------------------------------|-----------------------------------|-----------------------------------|
D|-----------------------------------|-----------------------------------|-----------------------------------|
A|---------10-----9------7---5---7---|---------10-----9------7---5---7---|---------10-----9------7---5---7---|
E|-0----0------0------0--------------|-0----0------0------0--------------|-0----0------0------0--------------|


G|---------------------------------|--------------------------------------|-----------------------------------------|
D|---------------------9---9-109---|------9-109---------------------------|-----------------------------------------|
A|---------10--7-------------------|--------------------------------------|-----------------------------------------|
E|-0----0-----------0--------------|-0------------0---0---0---0--0--0--0--|-0---0---0--0--0--0--0---0---0--0--0--0--|


G|--------------------|--------|-----11--12-----|--------|--------|-------------------------------------------------|
D|--------------------|--------|-9--------------|--------|--------|-------------------------------------------------|
A|--------2--2--2--2--|--------|----------------|--------|--------|-------------------------------------------------|
E|-0------------------|-0------|----------------|--------|--------|-0--0--0--0--0--0--0--0--0--0--0--0--0--0--0--0--|


G|-------------------------------------------------|-------------------------------------------------|
D|-------------------------------------------------|-------------------------------------------------|
A|-------------------------------------------------|-------------------------------------------------|
E|-0--0--0--0--0--0--0--0--0--0--0--0--0--0--0--0--|-0--0--0--0--0--0--0--0--0--0--0--0--0--0--0--0--|


G|-------------------------------------------|-------------------------------------------------|
D|-------------------------------------------|-------------------------------------------------|
A|-------5---7---5-----5---------------------|-------------------------------------------------|
E|-0--5-------------7------7--5--3--0--0--0--|-0--0--0--0--0--0--0--0--0--0--0--0--0--0--0--0--|


G|-------------------------------------------------|-------------------------------------------------|
D|-------------------------------------------------|-------------------------------------------------|
A|-------------------------------------------------|-------------------------------------------------|
E|-0--0--0--0--0--0--0--0--0--0--0--0--0--0--0--0--|-0--0--0--0--0--0--0--0--0--0--0--0--0--0--0--0--|


G|---------------------------------------------|-------------------------------------------------|
D|----------------------------9---7---5--4--2--|-------------------------------------------------|
A|---------------------------------------------|-------------------------------------------------|
E|-0--0--0--0--0--0--0--0----------------------|-0--0--0--0--0--0--0--0--0--0--0--0--0--0--0--0--|


G|---------------------------------------------|-------------------------------------------------|
D|---------------------------------------------|-------------------------------------------------|
A|---------------------------------------------|-------------------------------------------------|
E|-0--0--0--0--0--0--0--0-----0---5---7--8--10-|-0--0--0--0--0--0--0--0--0--0--0--0--0--0--0--0--|


G|-------------------------------------------------|-------------------------------------------------|
D|-------------------------------9--9--10-10-12-12-|-------------------------------------------------|
A|-------------7--7--9--9--10-10-------------------|----------7-----------7-----------7-----------7--|
E|-0--0--7--8--------------------------------------|----7--8--------7--8--------7--8--------7--8-----|


G|-------------------------------------------------|-------------------------------------------------|
D|-------------------------------------------------|-------------------------------------------------|
A|----------7-----------7-----------7-----------7--|----------7-----------7-----------7-----------7--|
E|----7--8--------7--8--------7--8--------7--8-----|----7--8--------7--8--------7--8--------7--8-----|


G|-------------------------------------------------|-------------------------------------------------|
D|-------------------------------------------------|-------------------------------------------------|
A|----------7-----------7-----------7-----------7--|-------------------------------------------------|
E|----7--8--------7--8--------7--8--------7--8-----|-0--0--0--0--0--0--0--0--0--0--0--0--0--0--0--0--|


G|-------------------------------------------------|-------------------------------------------------|
D|-------------------------------------------------|-------------------------------------------------|
A|----------------------------------7--------------|-------------------------------------------------|
E|-0--0--0--0--0--0--0--0-----7--8--------8--7--5--|-0--0--0--0--0--0--0--0--0--0--0--0--0--0--0--0--|


G|-14-14-14-14-14-14-14-14-14-14-14-14-14-12-------|-------------------------------------------------|
D|-------------------------------------------14-12-|-------------------------------------------------|
A|-------------------------------------------------|-------------------------------------------------|
E|-------------------------------------------------|-0--0--0--0--0--0--0--0--0--0--0--0--0--0--0--0--|


G|-------------------------------------------------|-------------------------------------------------|
D|-------------------------------------------------|-------------------------------------------------|
A|-------------------------------------------------|-------------------------------------------------|
E|-0--0--0--0--0--0--0--0--0--0--0--0--0--0--0--0--|-0--0--0--0--0--0--0--0--0--0--0--0--0--0--0--0--|


G|-------------------------------------------------|-------------------------------------------------|
D|-------------------------------------------------|-------------------------------------------------|
A|-------------------------------------------------|-------------------------------------------------|
E|-0--0--0--0--0--0--0--0--0--0--0--0--0--0--0--0--|-0--0--0--0--0--0--0--0--0--0--0--0--0--0--0--0--|


G|-------------------------------------------------|-------------------------------------------------|
D|-------------------------------------------------|-------------------------------------------------|
A|-------------------------------------------------|-------------------------------------------------|
E|-0--0--0--0--0--0--0--0--0--0--0--0--0--0--0--0--|-0--0--0--0--0--0--0--0--0--0--0--0--0--0--0--0--|


G|-------------------------------------------------|-------------------------------------------------|
D|-------------------------------------------------|-------------------------------------------------|
A|----7--5-----5--------------7--5--------------7--|-------------------------------------------------|
E|-0--------7-----7--5--0--5--------0--3--5--7-----|-0--0--0--0--0--0--0--0--0--0--0--0--0--0--0--0--|


G|-------------------------------------------------|-------------------------------------------------|
D|-------------------------------------------------|-------------------------------------------------|
A|-------------------------------------------------|-------------------------------------------------|
E|-0--0--0--0--0--0--0--0--0--0--0--0--0--0--0--0--|-0--0--0--0--0--0--0--0--0--0--0--0--0--0--0--0--|


G|-------------------------------------------------|-------------------------------------------------|
D|-------------------------------------------------|-------------------------------------------------|
A|-------------------------------------------------|-------------------------------------------------|
E|-0--0--0--0--0--0--0--0--0--0--0--0--0--0--0--0--|-0--0--0--0--0--0--0--0--0--0--0--0--0--0--0--0--|


G|-------------------------------------------------|-------------------------------------------------|
D|-------------------------------------------------|-------------------------------------------------|
A|-------------------------------------------------|-------------------------------------------------|
E|-0--0--0--0--0--0--0--0--0--0--0--0--0--0--0--0--|-0--0--0--0--0--0--0--0--0--0--0--0--0--0--0--0--|


G|-------------------------------------------------|
D|-------------------------------------------------|
A|-------------------------------------------------|
E|-0--0--0--0--0--0--0--0--0--0--0--0--0--0--0--0--|