Menu:

 

Search:

 

red hot chili peppers - flea bass solo intro live at woodstock:

 



Title: Otherside
Artist: 
Album: Californication
Author: Anthony Kiedis, Flea, John Frusciante and Chad Smith


Track 1: Clean

E|------------------------|---------------------------|--------|---------------------|
B|------------------------|---------------------------|--------|---------------------|
G|------------------------|---------------4-----------|--------|---------------------|
D|------------------------|-7-----7---7-------7---5---|--------|---------------------|
A|-7-----7---7----7-------|---------------------------|-7------|-5-----5---5----5----|
E|------------------------|---------------------------|--------|---------------------|


E|------------------------|---------------------------|---------------------------|
B|------------------------|---------------------------|---------------------------|
G|------------------------|---------------4-----------|---------------------------|
D|------------------------|-7-----7---7-------7---5---|---------------------------|
A|-7-----7---7----7-------|---------------------------|-7-----7---7---7---7-------|
E|------------------------|---------------------------|---------------------------|


E|---------------------|---------------------------|---------------------------|---------------------------|
B|---------------------|---------------------------|---------------------------|---------------------------|
G|---------------------|---------------------------|---------------4-----------|---------------------------|
D|---------------------|---------------------------|-7-----7---7-------7---5---|---------------------------|
A|-5-----5---5----5----|-7-----7---7---7---7-------|---------------------------|-7-----7---7---7---7-------|
E|---------------------|---------------------------|---------------------------|---------------------------|


E|------------------------|------------------------|------------------------|------------------------|
B|------------------------|------------------------|------------------------|------------------------|
G|------------------------|------------------------|------------------------|------------------------|
D|-------5---5------------|------------------------|-7-----7---7----7-------|-14----14--14---14------|
A|-5-----5---5----5-------|-7-----7---7----7-------|------------------------|------------------------|
E|------------------------|------------------------|------------------------|------------------------|


E|------------------------|----------8-------------------|------------------15----------|
B|------------------------|------------------------------|----------12--12--------------|
G|------------------------|------------------------------|------------------------------|
D|-9---------9----9-------|------------------------------|------------------------------|
A|------------------------|------------------------------|------------------------------|
E|------------------------|-5----5---5---5---5---5-------|-12---12--12--12--12--12--12--|


E|----------8---8---------------|--------------15--------|----------8-------------------|
B|------------------------------|----------12------------|------------------------------|
G|------------------------------|------------------------|------------------------------|
D|------------------------------|------------------------|------------------------------|
A|------------------------------|------------------------|------------------------------|
E|-5----5---5---5---5---5-------|-12---12--12--12---12---|-5----5---5---5---5---5---5---|


E|------------------15-------|-3------3-------|-5------|-5------5-------|----------8-------------------|
B|----------12--12-----------|-3------3-------|-5------|-5------5-------|------------------------------|
G|---------------------------|-4------4-------|-6------|-6------6-------|------------------------------|
D|---------------------------|-5------5-------|-7------|-7------7-------|------------------------------|
A|---------------------------|-5------5-------|-7------|-7------7-------|------------------------------|
E|-12---12--12--12--12--12---|-3------3-------|-5------|-5------5-------|-5----5---5---5---5---5-------|


E|------------------15----------|----------8---8---------------|--------------15--------|
B|----------12--12--------------|------------------------------|----------12------------|
G|------------------------------|------------------------------|------------------------|
D|------------------------------|------------------------------|------------------------|
A|------------------------------|------------------------------|------------------------|
E|-12---12--12--12--12--12--12--|-5----5---5---5---5---5-------|-12---12--12--12---12---|


E|----------8-------------------|------------------15-------|-3------3-------|-5------|
B|------------------------------|----------12--12-----------|-3------3-------|-5------|
G|------------------------------|---------------------------|-4------4-------|-6------|
D|------------------------------|---------------------------|-5------5-------|-7------|
A|------------------------------|---------------------------|-5------5-------|-7------|
E|-5----5---5---5---5---5---5---|-12---12--12--12--12--12---|-3------3-------|-5------|


E|-3------|-5-----------|-3-----3------------|----------------|-5------|-5-----------|
B|-3------|-5-----------|-3-----3------------|----------------|-5------|-5-----------|
G|-4------|-6-----------|-4-----4---4--------|----------------|-6------|-6-----------|
D|-5------|-7-----------|-5-----5--------5---|-5------5-------|-7------|-7-----------|
A|-5------|-7-----------|-5-----5------------|----------------|-7------|-7-----------|
E|-3------|-5-----------|-3-----3------------|----------------|-5------|-5-----------|


E|------------------------|---------------------------|---------------------------|
B|------------------------|---------------------------|---------------------------|
G|------------------------|---------------4-----------|---------------------------|
D|------------------------|-7-----7---7-------7---5---|---------------------------|
A|-7-----7---7----7-------|---------------------------|-7-----7---7---7---7-------|
E|------------------------|---------------------------|---------------------------|


E|---------------------|---------------------------|---------------------------|---------------------------|
B|---------------------|---------------------------|---------------------------|---------------------------|
G|---------------------|---------------------------|---------------4-----------|---------------------------|
D|-5-----5---5----7----|---------------------------|-7-----7---7-------7---5---|---------------------------|
A|---------------------|-7-----7---7---7---7-------|---------------------------|-7-----7---7---7---7-------|
E|---------------------|---------------------------|---------------------------|---------------------------|


E|---------------------|---------------------|---------------------|------------------------|
B|---------------------|---------------------|---------------------|------------------------|
G|---------------------|---------------------|---------------------|------------------------|
D|---------------------|----------------5----|-7-----7---7----7----|-14----14--14------14---|
A|-5----5----5----4----|-7----7----7---------|---------------------|------------------------|
E|------8----7---------|---------------------|---------------------|------------------------|


E|---------------------|----------8-------------------|------------------15----------|
B|---------------------|------------------------------|----------12--12--------------|
G|---------------------|------------------------------|------------------------------|
D|-17---17---17---17---|------------------------------|------------------------------|
A|---------------------|------------------------------|------------------------------|
E|---------------------|-5----5---5---5---5---5-------|-12---12--12--12--12--12--12--|


E|----------8---8---------------|--------------15--------|----------8-------------------|
B|------------------------------|----------12------------|------------------------------|
G|------------------------------|------------------------|------------------------------|
D|------------------------------|------------------------|------------------------------|
A|------------------------------|------------------------|------------------------------|
E|-5----5---5---5---5---5-------|-12---12--12--12---12---|-5----5---5---5---5---5---5---|


E|------------------15-------|-3------3-------|-5------|-5------|-5----------------|
B|----------12--12-----------|-3------3-------|-5------|-5------|-5----------------|
G|---------------------------|-4------4-------|-6------|-6------|-6----------------|
D|---------------------------|-5------5-------|-7------|-7------|-7----------------|
A|---------------------------|-5------5-------|-7------|-7------|-7----------------|
E|-12---12--12--12--12--12---|-3------3-------|-5------|-5------|-5----------5--5--|


E|----------8-------------------|------------------15----------|----------8---8---------------|
B|------------------------------|----------12--12--------------|------------------------------|
G|------------------------------|------------------------------|------------------------------|
D|------------------------------|------------------------------|------------------------------|
A|------------------------------|------------------------------|------------------------------|
E|-5----5---5---5---5---5-------|-12---12--12--12--12--12--12--|-5----5---5---5---5---5-------|


E|--------------15--------|----------8-------------------|------------------15-------|
B|----------12------------|------------------------------|----------12--12-----------|
G|------------------------|------------------------------|---------------------------|
D|------------------------|------------------------------|---------------------------|
A|------------------------|------------------------------|---------------------------|
E|-12---12--12--12---12---|-5----5---5---5---5---5---5---|-12---12--12--12--12--12---|


E|-3------3-------|-5------|-3------|-5-----------|-3-----3------------|----------------|
B|-3------3-------|-5------|-3------|-5-----------|-3-----3------------|----------------|
G|-4------4-------|-6------|-4------|-6-----------|-4-----4---4--------|----------------|
D|-5------5-------|-7------|-5------|-7-----------|-5-----5--------5---|-5------5-------|
A|-5------5-------|-7------|-5------|-7-----------|-5-----5------------|----------------|
E|-3------3-------|-5------|-3------|-5-----------|-3-----3------------|----------------|


E|-5------|-5-----------|---------------------------|---------------------------|------------------------|
B|-5------|-5-----------|---------------------------|---------------------------|------------------------|
G|-6------|-6-----------|-9----9---9---9----9-------|-14----14--14--16--14--12--|-9-----9---9----9-------|
D|-7------|-7-----------|-7----9---7--------7-------|-12----12------14--12--10--|-7-----7--------7-------|
A|-7------|-7-----------|-7----7---7---7----7-------|-12----12--12--14--12--10--|-7-----7---7----7-------|
E|-5------|-5-----------|---------------------------|---------------------------|------------------------|


E|------------------------|---------------------------|---------------------------|
B|------------------------|---------------------------|---------------------------|
G|-7-----7---7----7-------|-9--------9---9-------9----|-14----14--14--16--14--12--|
D|-5-----5--------5-------|-7--------7-----------7----|-12----12------14--12--10--|
A|-5-----5---5----5-------|-7----7---7---7---7---7----|-12----12--12--14--12--10--|
E|------------------------|---------------------------|---------------------------|


E|---------------------------|------------------------|---------------------------|
B|---------------------------|------------------------|---------------------------|
G|-9-----9---9-------9-------|-7-----7---7----7-------|-9----9---9---9---9---12---|
D|-7-----7-----------7-------|-5-----5--------5-------|-7----7---7-------7---10---|
A|-7-----7---7---7---7-------|-5-----5---5----5-------|-7----7---7---7---7---10---|
E|---------------------------|------------------------|---------------------------|


E|------------------------|------------------------------|-----------------|--------|
B|------------------------|------------------------------|-----------------|--------|
G|-5-----5---5---5---4----|-5--------5---5---5---5-------|-----------------|--------|
D|-5-----3-------3---2----|-3--------3-------3---3-------|-5-----5---------|--------|
A|-3-----3---3---3---2----|-3----3---3---3---3---3-------|-3-----3---------|--------|
E|------------------------|------------------------------|-3-----3---------|--------|


E|--------|--------|--------|--------|--------|--------|--------|--------|--------|
B|--------|--------|--------|--------|--------|--------|--------|--------|--------|
G|--------|--------|--------|--------|--------|--------|--------|--------|--------|
D|--------|--------|--------|--------|--------|--------|--------|--------|--------|
A|--------|--------|--------|--------|--------|--------|--------|--------|--------|
E|--------|--------|--------|--------|--------|--------|--------|--------|--------|


E|--------|--------|--------|--------|--------|--------|--------|--------|--------|
B|--------|--------|--------|--------|--------|--------|--------|--------|--------|
G|--------|--------|--------|--------|--------|--------|--------|--------|--------|
D|--------|--------|--------|--------|--------|--------|--------|--------|--------|
A|--------|--------|--------|--------|--------|--------|--------|--------|--------|
E|--------|--------|--------|--------|--------|--------|--------|--------|--------|


E|--------|--------|--------|--------|--------|--------|--------|--------|--------|
B|--------|--------|--------|--------|--------|--------|--------|--------|--------|
G|--------|--------|--------|--------|--------|--------|--------|--------|--------|
D|--------|--------|--------|--------|--------|--------|--------|--------|--------|
A|--------|--------|--------|--------|--------|--------|--------|--------|--------|
E|--------|--------|--------|--------|--------|--------|--------|--------|--------|


E|--------|--------|--------|--------|--------|--------|--------|--------|--------|
B|--------|--------|--------|--------|--------|--------|--------|--------|--------|
G|--------|--------|--------|--------|--------|--------|--------|--------|--------|
D|--------|--------|--------|--------|--------|--------|--------|--------|--------|
A|--------|--------|--------|--------|--------|--------|--------|--------|--------|
E|--------|--------|--------|--------|--------|--------|--------|--------|--------|





Track 2: Distortion

E|--------|--------|--------|--------|--------|--------|--------|--------|--------|
B|--------|--------|--------|--------|--------|--------|--------|--------|--------|
G|--------|--------|--------|--------|--------|--------|--------|--------|--------|
D|--------|--------|--------|--------|--------|--------|--------|--------|--------|
A|--------|--------|--------|--------|--------|--------|--------|--------|--------|
E|--------|--------|--------|--------|--------|--------|--------|--------|--------|


E|--------|--------|--------|--------|--------|--------|--------|--------|--------|
B|--------|--------|--------|--------|--------|--------|--------|--------|--------|
G|--------|--------|--------|--------|--------|--------|--------|--------|--------|
D|--------|--------|--------|--------|--------|--------|--------|--------|--------|
A|--------|--------|--------|--------|--------|--------|--------|--------|--------|
E|--------|--------|--------|--------|--------|--------|--------|--------|--------|


E|--------|--------|--------|--------|--------|--------|--------|--------|--------|
B|--------|--------|--------|--------|--------|--------|--------|--------|--------|
G|--------|--------|--------|--------|--------|--------|--------|--------|--------|
D|--------|--------|--------|--------|--------|--------|--------|--------|--------|
A|--------|--------|--------|--------|--------|--------|--------|--------|--------|
E|--------|--------|--------|--------|--------|--------|--------|--------|--------|


E|--------|--------|--------|--------|--------|--------|--------|--------|--------|
B|--------|--------|--------|--------|--------|--------|--------|--------|--------|
G|--------|--------|--------|--------|--------|--------|--------|--------|--------|
D|--------|--------|--------|--------|--------|--------|--------|--------|--------|
A|--------|--------|--------|--------|--------|--------|--------|--------|--------|
E|--------|--------|--------|--------|--------|--------|--------|--------|--------|


E|--------|--------|--------|--------|--------|--------|--------|--------|--------|
B|--------|--------|--------|--------|--------|--------|--------|--------|--------|
G|--------|--------|--------|--------|--------|--------|--------|--------|--------|
D|--------|--------|--------|--------|--------|--------|--------|--------|--------|
A|--------|--------|--------|--------|--------|--------|--------|--------|--------|
E|--------|--------|--------|--------|--------|--------|--------|--------|--------|


E|--------|--------|--------|--------|--------|--------|--------|--------|--------|
B|--------|--------|--------|--------|--------|--------|--------|--------|--------|
G|--------|--------|--------|--------|--------|--------|--------|--------|--------|
D|--------|--------|--------|--------|--------|--------|--------|--------|--------|
A|--------|--------|--------|--------|--------|--------|--------|--------|--------|
E|--------|--------|--------|--------|--------|--------|--------|--------|--------|


E|--------|--------|--------|--------|--------|--------|--------|--------|--------|
B|--------|--------|--------|--------|--------|--------|--------|--------|--------|
G|--------|--------|--------|--------|--------|--------|--------|--------|--------|
D|--------|--------|--------|--------|--------|--------|--------|--------|--------|
A|--------|--------|--------|--------|--------|--------|--------|--------|--------|
E|--------|--------|--------|--------|--------|--------|--------|--------|--------|


E|--------|--------|--------|--------|--------|--------|--------|--------|--------|
B|--------|--------|--------|--------|--------|--------|--------|--------|--------|
G|--------|--------|--------|--------|--------|--------|--------|--------|--------|
D|--------|--------|--------|--------|--------|--------|--------|--------|--------|
A|--------|--------|--------|--------|--------|--------|--------|--------|--------|
E|--------|--------|--------|--------|--------|--------|--------|--------|--------|


E|--------|--------|--------|--------|--------|--------|--------|--------|--------|
B|--------|--------|--------|--------|--------|--------|--------|--------|--------|
G|--------|--------|--------|--------|--------|--------|--------|--------|--------|
D|--------|--------|--------|--------|--------|--------|--------|--------|--------|
A|--------|--------|--------|--------|--------|--------|--------|--------|--------|
E|--------|--------|--------|--------|--------|--------|--------|--------|--------|


E|--------|--------|--------|--------|--------|--------|------0----0---0-----|-0------|
B|--------|--------|--------|--------|--------|--------|------0----0---0-----|-0------|
G|--------|--------|--------|--------|--------|--------|---------------------|--------|
D|--------|--------|--------|--------|--------|--------|---------------------|--------|
A|--------|--------|--------|--------|--------|--------|---------------------|--------|
E|--------|--------|--------|--------|--------|--------|---------------------|--------|


E|---------------0-----|-0------|-0-------12---12--12----|-12-----|-12---0----0---0-----|
B|-0----12---12--12----|-12-----|-12---------------0-----|-0------|-0----12---12--12----|
G|---------------------|--------|------------------------|--------|---------------------|
D|---------------------|--------|------------------------|--------|---------------------|
A|---------------------|--------|------------------------|--------|---------------------|
E|---------------------|--------|------------------------|--------|---------------------|


E|-0------|-0----12---12--12----|-12-----|-12---0----0---0-----|-0-----0---0-----|
B|-12-----|-12---0----0---0-----|-0------|-0----12---12--12----|-12----12--12----|
G|--------|---------------------|--------|---------------------|-----------------|
D|--------|---------------------|--------|---------------------|-----------------|
A|--------|---------------------|--------|---------------------|-----------------|
E|--------|---------------------|--------|---------------------|-----------------|


E|-0----12---12--12----|-12-----|-12---0----0---0-----|-0------0-------|-0-----0---0---0---0-------|
B|-12---0----0---0-----|-0------|-0----12---12--12----|-12-----12--10--|-10----10--10--10--10--17--|
G|---------------------|--------|---------------------|----------------|---------------------------|
D|---------------------|--------|---------------------|----------------|---------------------------|
A|---------------------|--------|---------------------|----------------|---------------------------|
E|---------------------|--------|---------------------|----------------|---------------------------|


E|-0----0---0---0---0---0---0--0--|-0---0---0---0---0---0---0---0---|-0---0---0---0---0---0---0---0---|
B|-17---17--17--17--17--17--17-17-|-20--17--17--17--17--17--17--17--|-20--17--17--20--17------20--17--|
G|--------------------------------|---------------------------------|---------------------------------|
D|--------------------------------|---------------------------------|---------------------------------|
A|--------------------------------|---------------------------------|---------------------------------|
E|--------------------------------|---------------------------------|---------------------------------|


E|-0---0---0---0---0---0---0---0--0--|-0-----------|-0----0---0---0---0---0---0--0--|
B|-17--17--17--17--17--17--17--17-17-|-17----------|-17---17--17--17--17--17--17-17-|
G|-----------------------------------|-------------|--------------------------------|
D|-----------------------------------|-------------|--------------------------------|
A|-----------------------------------|-------------|--------------------------------|
E|-----------------------------------|-------------|--------------------------------|


E|-0---0---0---0---0---0---0---0---|-0----0---0---0---0---0---0--0--|-0---0---0---0---0---0---0---0---|
B|-20--17--17--17--17--17--17--17--|-17---17--17--17--17--17--17-17-|-20--17--17--17--17--17--17--17--|
G|---------------------------------|--------------------------------|---------------------------------|
D|---------------------------------|--------------------------------|---------------------------------|
A|---------------------------------|--------------------------------|---------------------------------|
E|---------------------------------|--------------------------------|---------------------------------|


E|-0----0---0---0---0---0---0--0--|-0---0---0---0---0---0---0---0---|-0----0---0---0---0---0---0--0--|
B|-17---17--17--17--17--17--17-17-|-20--17--17--17--17--17--17--17--|-17---17--17--17--17--17--17-17-|
G|--------------------------------|---------------------------------|--------------------------------|
D|--------------------------------|---------------------------------|--------------------------------|
A|--------------------------------|---------------------------------|--------------------------------|
E|--------------------------------|---------------------------------|--------------------------------|


E|-0---0---0---0---0---0---0---0---|-0----0---0---0---0---0---0--0--|-0---0---0---0---0---0---0---0---|
B|-20--17--17--17--17--17--17--17--|-17---17--17--17--17--17--17-17-|-20--17--17--17--17--17--17--17--|
G|---------------------------------|--------------------------------|---------------------------------|
D|---------------------------------|--------------------------------|---------------------------------|
A|---------------------------------|--------------------------------|---------------------------------|
E|---------------------------------|--------------------------------|---------------------------------|


E|-0---0---0---0---0---0---0-------|-10---10---10---10---|-12-----|--------|--------|
B|-17--17--17--17--17--17--17--12--|-12---12---12---12---|-10-----|--------|--------|
G|---------------------------------|-0----0----0----0----|-9------|--------|--------|
D|---------------------------------|-0----0----0----0----|-7------|--------|--------|
A|---------------------------------|---------------------|--------|--------|--------|
E|---------------------------------|---------------------|--------|--------|--------|





Track 3: Clean

E|--------|--------|--------|--------|--------|--------|--------|--------|--------|
B|--------|--------|--------|--------|--------|--------|--------|--------|--------|
G|--------|--------|--------|--------|--------|--------|--------|--------|--------|
D|--------|--------|--------|--------|--------|--------|--------|--------|--------|
A|--------|--------|--------|--------|--------|--------|--------|--------|--------|
E|--------|--------|--------|--------|--------|--------|--------|--------|--------|


E|--------|--------|--------|--------|--------|--------|--------|--------|--------|
B|--------|--------|--------|--------|--------|--------|--------|--------|--------|
G|--------|--------|--------|--------|--------|--------|--------|--------|--------|
D|--------|--------|--------|--------|--------|--------|--------|--------|--------|
A|--------|--------|--------|--------|--------|--------|--------|--------|--------|
E|--------|--------|--------|--------|--------|--------|--------|--------|--------|


E|--------|--------|--------|--------|--------|--------|--------|--------|--------|
B|--------|--------|--------|--------|--------|--------|--------|--------|--------|
G|--------|--------|--------|--------|--------|--------|--------|--------|--------|
D|--------|--------|--------|--------|--------|--------|--------|--------|--------|
A|--------|--------|--------|--------|--------|--------|--------|--------|--------|
E|--------|--------|--------|--------|--------|--------|--------|--------|--------|


E|--------|--------|--------|--------|--------|--------|--------|--------|--------|
B|--------|--------|--------|--------|--------|--------|--------|--------|--------|
G|--------|--------|--------|--------|--------|--------|--------|--------|--------|
D|--------|--------|--------|--------|--------|--------|--------|--------|--------|
A|--------|--------|--------|--------|--------|--------|--------|--------|--------|
E|--------|--------|--------|--------|--------|--------|--------|--------|--------|


E|--------|--------|--------|--------|--------|--------|--------|--------|--------|
B|--------|--------|--------|--------|--------|--------|--------|--------|--------|
G|--------|--------|--------|--------|--------|--------|--------|--------|--------|
D|--------|--------|--------|--------|--------|--------|--------|--------|--------|
A|--------|--------|--------|--------|--------|--------|--------|--------|--------|
E|--------|--------|--------|--------|--------|--------|--------|--------|--------|


E|--------|--------|--------|--------|--------|--------|--------|--------|--------|
B|--------|--------|--------|--------|--------|--------|--------|--------|--------|
G|--------|--------|--------|--------|--------|--------|--------|--------|--------|
D|--------|--------|--------|--------|--------|--------|--------|--------|--------|
A|--------|--------|--------|--------|--------|--------|--------|--------|--------|
E|--------|--------|--------|--------|--------|--------|--------|--------|--------|


E|--------|--------|--------|--------|--------|--------|--------|--------|--------|
B|--------|--------|--------|--------|--------|--------|--------|--------|--------|
G|--------|--------|--------|--------|--------|--------|--------|--------|--------|
D|--------|--------|--------|--------|--------|--------|--------|--------|--------|
A|--------|--------|--------|--------|--------|--------|--------|--------|--------|
E|--------|--------|--------|--------|--------|--------|--------|--------|--------|


E|--------|--------|--------|--------|--------|--------|--------|--------|--------|
B|--------|--------|--------|--------|--------|--------|--------|--------|--------|
G|--------|--------|--------|--------|--------|--------|--------|--------|--------|
D|--------|--------|--------|--------|--------|--------|--------|--------|--------|
A|--------|--------|--------|--------|--------|--------|--------|--------|--------|
E|--------|--------|--------|--------|--------|--------|--------|--------|--------|


E|--------|--------|--------|--------|--------|--------|--------|--------|--------|
B|--------|--------|--------|--------|--------|--------|--------|--------|--------|
G|--------|--------|--------|--------|--------|--------|--------|--------|--------|
D|--------|--------|--------|--------|--------|--------|--------|--------|--------|
A|--------|--------|--------|--------|--------|--------|--------|--------|--------|
E|--------|--------|--------|--------|--------|--------|--------|--------|--------|


E|--------|--------|--------|--------|--------|--------|--------|--------|--------|
B|--------|--------|--------|--------|--------|--------|--------|--------|--------|
G|--------|--------|--------|--------|--------|--------|--------|--------|--------|
D|--------|--------|--------|--------|--------|--------|--------|--------|--------|
A|--------|--------|--------|--------|--------|--------|--------|--------|--------|
E|--------|--------|--------|--------|--------|--------|--------|--------|--------|


E|--------|--------|--------|--------|--------|--------|--------|--------|--------|
B|--------|--------|--------|--------|--------|--------|--------|--------|--------|
G|--------|--------|--------|--------|--------|--------|--------|--------|--------|
D|--------|--------|--------|--------|--------|--------|--------|--------|--------|
A|--------|--------|--------|--------|--------|--------|--------|--------|--------|
E|--------|--------|--------|--------|--------|--------|--------|--------|--------|


E|--------|--------|--------|--------|--------|--------|--------|--------|--------|
B|--------|--------|--------|--------|--------|--------|--------|--------|--------|
G|--------|--------|--------|--------|--------|--------|--------|--------|--------|
D|--------|--------|--------|--------|--------|--------|--------|--------|--------|
A|--------|--------|--------|--------|--------|--------|--------|--------|--------|
E|--------|--------|--------|--------|--------|--------|--------|--------|--------|


E|--------|--------|--------|--------|--------|--------|--------|--------|--------|
B|--------|--------|--------|--------|--------|--------|--------|--------|--------|
G|--------|--------|--------|--------|--------|--------|--------|--------|--------|
D|--------|--------|--------|--------|--------|--------|--------|--------|--------|
A|--------|--------|--------|--------|--------|--------|--------|--------|--------|
E|--------|--------|--------|--------|--------|--------|--------|--------|--------|


E|--------|--------|--------|--------|--------|--------|--------|
B|--------|--------|--------|--------|--------|--------|--------|
G|--------|--------|--------|--------|--------|--------|--------|
D|--------|--------|--------|--------|--------|--------|--------|
A|--------|--------|--------|--------|--------|--------|--------|
E|--------|--------|--------|--------|--------|--------|--------|





Track 4: Clean

E|--------|--------|--------|--------|--------|--------|--------|--------|--------|
B|--------|--------|--------|--------|--------|--------|--------|--------|--------|
G|--------|--------|--------|--------|--------|--------|--------|--------|--------|
D|--------|--------|--------|--------|--------|--------|--------|--------|--------|
A|--------|--------|--------|--------|--------|--------|--------|--------|--------|
E|--------|--------|--------|--------|--------|--------|--------|--------|--------|


E|--------|--------|--------|--------|--------|--------|--------|--------|--------|
B|--------|--------|--------|--------|--------|--------|--------|--------|--------|
G|--------|--------|--------|--------|--------|--------|--------|--------|--------|
D|--------|--------|--------|--------|--------|--------|--------|--------|--------|
A|--------|--------|--------|--------|--------|--------|--------|--------|--------|
E|--------|--------|--------|--------|--------|--------|--------|--------|--------|


E|--------|--------|--------|--------|--------|--------|--------|--------|--------|
B|--------|--------|--------|--------|--------|--------|--------|--------|--------|
G|--------|--------|--------|--------|--------|--------|--------|--------|--------|
D|--------|--------|--------|--------|--------|--------|--------|--------|--------|
A|--------|--------|--------|--------|--------|--------|--------|--------|--------|
E|--------|--------|--------|--------|--------|--------|--------|--------|--------|


E|--------|--------|--------|--------|--------|--------|--------|--------|--------|
B|--------|--------|--------|--------|--------|--------|--------|--------|--------|
G|--------|--------|--------|--------|--------|--------|--------|--------|--------|
D|--------|--------|--------|--------|--------|--------|--------|--------|--------|
A|--------|--------|--------|--------|--------|--------|--------|--------|--------|
E|--------|--------|--------|--------|--------|--------|--------|--------|--------|


E|--------|--------|--------|--------|--------|--------|--------|--------|--------|
B|--------|--------|--------|--------|--------|--------|--------|--------|--------|
G|--------|--------|--------|--------|--------|--------|--------|--------|--------|
D|--------|--------|--------|--------|--------|--------|--------|--------|--------|
A|--------|--------|--------|--------|--------|--------|--------|--------|--------|
E|--------|--------|--------|--------|--------|--------|--------|--------|--------|


E|--------|--------|--------|--------|--------|--------|--------|--------|--------|
B|--------|--------|--------|--------|--------|--------|--------|--------|--------|
G|--------|--------|--------|--------|--------|--------|--------|--------|--------|
D|--------|--------|--------|--------|--------|--------|--------|--------|--------|
A|--------|--------|--------|--------|--------|--------|--------|--------|--------|
E|--------|--------|--------|--------|--------|--------|--------|--------|--------|


E|--------|--------|--------|--------|--------|--------|--------|--------|--------|
B|--------|--------|--------|--------|--------|--------|--------|--------|--------|
G|--------|--------|--------|--------|--------|--------|--------|--------|--------|
D|--------|--------|--------|--------|--------|--------|--------|--------|--------|
A|--------|--------|--------|--------|--------|--------|--------|--------|--------|
E|--------|--------|--------|--------|--------|--------|--------|--------|--------|


E|--------|--------|--------|--------|--------|--------|--------|--------|--------|
B|--------|--------|--------|--------|--------|--------|--------|--------|--------|
G|--------|--------|--------|--------|--------|--------|--------|--------|--------|
D|--------|--------|--------|--------|--------|--------|--------|--------|--------|
A|--------|--------|--------|--------|--------|--------|--------|--------|--------|
E|--------|--------|--------|--------|--------|--------|--------|--------|--------|


E|--------|--------|--------|--------|--------|--------|--------|--------|--------|
B|--------|--------|--------|--------|--------|--------|--------|--------|--------|
G|--------|--------|--------|--------|--------|--------|--------|--------|--------|
D|--------|--------|--------|--------|--------|--------|--------|--------|--------|
A|--------|--------|--------|--------|--------|--------|--------|--------|--------|
E|--------|--------|--------|--------|--------|--------|--------|--------|--------|


E|--------|--------|--------|--------|--------|--------|--------|--------|--------|
B|--------|--------|--------|--------|--------|--------|--------|--------|--------|
G|--------|--------|--------|--------|--------|--------|--------|--------|--------|
D|--------|--------|--------|--------|--------|--------|--------|--------|--------|
A|--------|--------|--------|--------|--------|--------|--------|--------|--------|
E|--------|--------|--------|--------|--------|--------|--------|--------|--------|


E|--------|--------|--------|--------|--------|--------|--------|--------|--------|
B|--------|--------|--------|--------|--------|--------|--------|--------|--------|
G|--------|--------|--------|--------|--------|--------|--------|--------|--------|
D|--------|--------|--------|--------|--------|--------|--------|--------|--------|
A|--------|--------|--------|--------|--------|--------|--------|--------|--------|
E|--------|--------|--------|--------|--------|--------|--------|--------|--------|


E|--------|--------|--------|--------|---------------------------|------------------------------|
B|--------|--------|--------|--------|---------------------------|------------------------------|
G|--------|--------|--------|--------|----------5----------------|----------2-------------------|
D|--------|--------|--------|--------|----------7----------------|----------3-------------------|
A|--------|--------|--------|--------|-7----7---7---7---7---5----|-3----3---3-------3---3-------|
E|--------|--------|--------|--------|-5----5-------5---5---3----|-1----1-----------1---1-------|


E|---------------------------|------------------------------|---------------------------|
B|---------------------------|------------------------------|---------------------------|
G|-9--------9-------9---9----|--------------4---------------|----------5----------------|
D|-10-------10------10-------|------------------------------|----------7----------------|
A|-10---10--10------10--10---|-5----5---5-------5---5-------|-7----7---7---7---7---5----|
E|-8----8---8---8---8---8----|-3----3-----------3---3-------|-5----5-------5---5---3----|


E|------------------------------|---------------------------|------------------------------|
B|------------------------------|---------------------------|------------------------------|
G|----------2-------------------|-9--------9-------9---9----|--------------4---------------|
D|----------3-------------------|-10-------10------10-------|------------------------------|
A|-3----3---3-------3---3-------|-10---10--10------10--10---|-5----5---5-------5---5-------|
E|-1----1-----------1---1-------|-8----8---8---8---8---8----|-3----3-----------3---3-------|


E|---------------------------|------------------------------|---------------------------|
B|---------------------------|------------------------------|---------------------------|
G|----------5----------------|----------2-------------------|-9--------9-------9---9----|
D|----------7----------------|----------3-------------------|-10-------10------10-------|
A|-7----7---7---7---7---5----|-3----3---3-------3---3-------|-10---10--10------10--10---|
E|-5----5-------5---5---3----|-1----1-----------1---1-------|-8----8---8---8---8---8----|


E|------------------------------|---------------------------|------------------------------|
B|------------------------------|---------------------------|------------------------------|
G|--------------4---------------|----------5----------------|----------2-------------------|
D|------------------------------|----------7----------------|----------3-------------------|
A|-5----5---5-------5---5-------|-7----7---7---7---7---5----|-3----3---3-------3---3-------|
E|-3----3-----------3---3-------|-5----5-------5---5---3----|-1----1-----------1---1-------|


E|---------------------------|------------------------------|---------------------------|
B|---------------------------|------------------------------|---------------------------|
G|-9--------9-------9---9----|--------------4---------------|-9--------9-------9---9----|
D|-10-------10------10-------|------------------------------|-10-------10------10-------|
A|-10---10--10------10--10---|-5----5---5-------5---5-------|-10---10--10------10--10---|
E|-8----8---8---8---8---8----|-3----3-----------3---3-------|-8----8---8---8---8---8----|


E|--------|--------|--------|--------|
B|--------|--------|--------|--------|
G|--------|--------|--------|--------|
D|--------|--------|--------|--------|
A|--------|--------|--------|--------|
E|--------|--------|--------|--------|





Track 5: Untitled

G|---------------------------|---------------------|---------------------------|---------------------|
D|---------------------------|---------------------|---------------------------|---------------------|
A|-0-----0---0---0---0-------|---------------------|-3-----3---3---3---3-------|---------------------|
E|-----------------------3---|-1-----1---1----1----|-----------------------0---|-3-----3---3----3----|


G|---------------------------|---------------------|---------------------------|---------------------|
D|---------------------------|---------------------|---------------------------|-2----0--------------|
A|-0-----0---0---0---0-------|---------------------|-3-----3---3---3---3-------|-----------3----2----|
E|-----------------------3---|-1-----1---1----1----|-----------------------0---|---------------------|


G|---------------------------|---------------------|---------------------------|------------------------|
D|---------------------------|---------------------|---------------------------|------------------------|
A|-0-----0---0---0---0-------|---------------------|-3-----3---3---3---3-------|------------------------|
E|-----------------------3---|-1-----1---1----1----|-----------------------0---|-3-----3---3----3---1---|


G|---------------------------|------------------------|---------------------------|
D|---------------------------|------------------------|---------------------------|
A|-0-----0---0---0---0-------|------------------------|-3-----3---3---3---3---0---|
E|-----------------------3---|-1-----1---1---1---1----|---------------------------|


G|---------------------------------|---------------------------------|---------------------------------|
D|---------------------------------|---------------------------------|-2---2---2---2---2---2---2---2---|
A|---------------------------------|-0---0---0---0---0---0---0---0---|---------------------------------|
E|-3---3---3---3---3---3---3---3---|---------------------------------|---------------------------------|


G|---------------------------------|---------------------------------|---------------------------------|
D|---------------------------------|-2---2---2---2---2---2---2---2---|---------------------------------|
A|-0---0---0---0---0---0---0---0---|---------------------------------|-0---0---0---0---0---0---0---0---|
E|---------------------------------|---------------------------------|---------------------------------|


G|---------------------------------|--------|--------|--------|---------------------------------|
D|-2---2---2---2---2---2---2-------|--------|--------|--------|---------------------------------|
A|-----------------------------0---|--------|-0------|-0------|-0---0---0---0---0---0---0---0---|
E|---------------------------------|-3------|--------|--------|---------------------------------|


G|---------------------------------|---------------------------------|---------------------------------|
D|-2---2---2---2---2---2---2---2---|---------------------------------|-2---2---2---2---2---2---2---2---|
A|---------------------------------|-0---0---0---0---0---0---0---0---|---------------------------------|
E|---------------------------------|---------------------------------|---------------------------------|


G|---------------------------------|---------------------------------|--------|--------|
D|---------------------------------|-2---2---2---2---2---2---2-------|--------|--------|
A|-0---0---0---0---0---0---0---0---|-----------------------------0---|--------|-0------|
E|---------------------------------|---------------------------------|-3------|--------|


G|--------|--------|------------------------------|------------------------------|
D|--------|--------|------------------------------|------------------------------|
A|--------|-0------|------------------------------|------------------------------|
E|-3------|--------|-3----3---3---3---3---3---3---|-3----3---3---3---3---3---3---|


G|------------------------------|-----------------------------------|---------------------------|
D|------------------------------|-----------------------------------|---------------------------|
A|-0----0---0---0---0---0---0---|-0---0---3---0---3---0---3--0------|-0-----0---0---0---0-------|
E|------------------------------|-------------------------------3---|-----------------------3---|


G|---------------------|---------------------------|---------------------|---------------------------|
D|---------------------|---------------------------|---------------------|---------------------------|
A|---------------------|-3-----3---3---3---3-------|----------------3----|-0-----0---0---0---0-------|
E|-1-----1---1----1----|-----------------------0---|-3-----3---3---------|-----------------------3---|


G|---------------------|---------------------------|---------------------|---------------------------|
D|---------------------|---------------------------|-2----0--------------|---------------------------|
A|---------------------|-3-----3---3---5---3-------|-----------3----2----|-0-----0---0---0---0-------|
E|-1-----1---1----1----|-----------------------0---|---------------------|-----------------------3---|


G|------------------------|---------------------------|---------------------------------|
D|------------------------|---------------------------|---------------------------------|
A|------------------------|-3-----3---3---3---3---0---|---------------------------------|
E|-1-----1---1---1---1----|---------------------------|-3---3---3---3---3---3---3---3---|


G|---------------------------------|---------------------------------|---------------------------------|
D|---------------------------------|-2---2---2---2---2---2---2---2---|---------------------------------|
A|-0---0---0---0---0---0---0---0---|---------------------------------|-0---0---0---0---0---0---0---0---|
E|---------------------------------|---------------------------------|---------------------------------|


G|---------------------------------|---------------------------------|---------------------------------|
D|-2---2---2---2---2---2---2---2---|---------------------------------|-2---2---2---2---2---2---2-------|
A|---------------------------------|-0---0---0---0---0---0---0---0---|-----------------------------0---|
E|---------------------------------|---------------------------------|---------------------------------|


G|--------|--------|-------------2--2--|--------|---------------------------------|
D|--------|--------|-------------------|--------|---------------------------------|
A|--------|-0------|-0-----0-----------|--------|-0---0---0---0---0---0---0---0---|
E|-3------|--------|-------------------|--------|---------------------------------|


G|---------------------------------|---------------------------------|---------------------------------|
D|-2---2---2---2---2---2---2---2---|---------------------------------|-2---2---2---2---2---2---2---2---|
A|---------------------------------|-0---0---0---0---0---0---0---0---|---------------------------------|
E|---------------------------------|---------------------------------|---------------------------------|


G|---------------------------------|---------------------------------|--------|--------|
D|---------------------------------|-2---2---2---2---2---2---2-------|--------|--------|
A|-0---0---0---0---0---0---0---0---|-----------------------------0---|--------|-0------|
E|---------------------------------|---------------------------------|-3------|--------|


G|--------|--------|------------------------------|------------------------------|
D|--------|--------|------------------------------|------------------------------|
A|--------|-0------|------------------------------|------------------------------|
E|-3------|--------|-3----3---3---3---3---3---3---|-3----3---3---3---3---3---3---|


G|------------------------------|-----------------------------------|---------------------------|
D|------------------------------|-----------------------------------|---------------------------|
A|-0----0---0---0---0---0---0---|-0-------0-------0-------3--0------|-0-----0---0---0---0-------|
E|------------------------------|-----0-------0-------0---------3---|-----------------------3---|


G|---------------------|---------------------------|---------------------|---------------------------|
D|---------------------|---------------------------|---------------------|---------------------------|
A|---------------------|-3-----3---3---3---3-------|----------------3----|-0-----0---0---0---0-------|
E|-1-----1---1----1----|-----------------------0---|-3-----3---3---------|-----------------------3---|


G|---------------------|---------------------------|---------------------|---------------------------|
D|---------------------|---------------------------|-2----0--------------|---------------------------|
A|---------------------|-3-----3---3---5---3-------|-----------3----2----|-0-----0---0---0---0-------|
E|-1-----1---1----1----|-----------------------0---|---------------------|-----------------------3---|


G|------------------------|---------------------------|---------------------------------|
D|------------------------|---------------------------|---------------------------------|
A|------------------------|-3-----3---3---3---3---0---|---------------------------------|
E|-1-----1---1---1---1----|---------------------------|-3---3---3---3---3---3---3---3---|


G|---------------------------------|---------------------------------|---------------------------------|
D|---------2-------0---2-----------|-----2-------0---2---------------|---------------------------------|
A|---------------------------------|---------------------0-----------|---------3-------3---3-------3---|
E|-0---------------------------0---|-------------------------0---2---|-3-------------------------------|


G|---------------------------|---------------------------------|---------------------------------|
D|------5-------4------------|---------------------------------|---------------------------------|
A|-3--------------------5----|---------7-------5---7-----------|-----7-------5---7---------------|
E|---------------------------|-0---------------------------0---|---------------------5---0---2---|


G|---------------------------------|---------------------------------|---------------------------------|
D|---------------------------------|-----5---4-------4---5---4-------|---------------------------------|
A|---------3-------3---3-------3---|-------------5---------------5---|---------7-------5---7-----------|
E|-3-------------------------------|---------------------------------|-0---------------------------0---|


G|---------------------------------|---------------------------------|---------------------------|
D|---------------------------------|---------------------------------|------5-------4------------|
A|-----7-------5---7---------------|---------3-------3---3-------3---|-3--------------------5----|
E|---------------------5---0---2---|-3-------------------------------|---------------------------|


G|---------------------------------|---------------------------------|---------------------------------|
D|---------------------------------|---------------------------------|---------------------------------|
A|---------7-------5---7-----------|-----7---7---5---7---------------|---------3-------3---3-------3---|
E|-0---------------------------0---|---------------------5---0---2---|-3-------------------------------|


G|---------------------------|------------------------------|------------------------------|
D|------5-------4------------|------------------------------|------------------------------|
A|-3--------------------5----|------------------------------|------------------------------|
E|---------------------------|-5----5---5---5---5---5---3---|-1----1---1---1---1---1---1---|


G|------------------------------|------------------------------|------------------------------|
D|------------------------------|------------------------------|------------------------------|
A|-3---3---3---3---3----3-------|--------------2---3---2-------|-0----0---0---0---0---0-------|
E|--------------------------0---|-3----3---3---------------3---|--------------------------3---|


G|------------------------------|------------------------------|------------------------------|
D|------------------------------|------------------------------|------------------------------|
A|------------------------------|-3---3---3---3---3----3-------|------------------------------|
E|-1----1---1---1---1---1---1---|--------------------------0---|-3----3---3---3---3---3---3---|


G|------------------------------|------------------------------|------------------------------|
D|------------------------------|-3----3---3---3---3---5---3---|------------------------------|
A|-0----0---0---0---0---0---0---|------------------------------|-3----3---3---3---5---3-------|
E|------------------------------|------------------------------|--------------------------0---|


G|---------------------|------------------------------|------------------------------|
D|---------------------|------------------------------|------------------------------|
A|------3----2---------|-0----0---0---0---0---0-------|------------------------------|
E|-3--------------3----|--------------------------3---|-1----1---1---1---1---1---1---|


G|------------------------------|------------------------------|------------------------------|
D|------------------------------|------------------------------|------------------------------|
A|-3---3---3---3---3----3-------|------------------3-----------|-0----0---0---0---0---3---5---|
E|--------------------------0---|-3----3---3---3-------3---3---|------------------------------|


G|------------------------------|------------------------------|------------------------|
D|-3----3---3---3---3---3---3---|------------------------------|-5----5----5------------|
A|------------------------------|-3----3---3---3---3---3---3---|--------------------3---|
E|------------------------------|------------------------------|----------------3-------|


G|--------|
D|--------|
A|-0------|
E|--------|