Menu:

 

Search:

 

red hot chili peppers - cant stop:

 



Title: Lovin' And Touchin'
Artist: 
Album: Freaky Styley
Author: The Red Hot Chili Peppers


Track 1: Untitled

E|--------|--------|--------|--------|--------|--------|--------|--------|--------|
B|--------|--------|--------|--------|--------|--------|--------|--------|--------|
G|--------|--------|--------|--------|--------|--------|--------|--------|--------|
D|--------|--------|--------|--------|--------|--------|--------|--------|--------|
A|--------|--------|--------|--------|--------|--------|--------|--------|--------|
E|--------|--------|--------|--------|--------|--------|--------|--------|--------|


E|--------|--------|--------|--------|--------|--------|--------|
B|--------|--------|--------|--------|--------|--------|--------|
G|--------|--------|--------|--------|--------|--------|--------|
D|--------|--------|--------|--------|--------|--------|--------|
A|--------|--------|--------|--------|--------|--------|--------|
E|--------|--------|--------|--------|--------|--------|--------|





Track 2: Bass

G|-4-----------4-----------5-------|-----5-----------7-----------7---|---------5-----------5-----------|
D|-----5-----------5-----------5---|---------5-----------7-----------|-7-----------5-----------5-------|
A|---------5-----------5-----------|-5-----------5-----------5-------|-----5-----------5-----------5---|
E|---------------------------------|---------------------------------|---------------------------------|


G|-4-----------4-----------5-------|-----5-----------7-----------7---|---------5-----------5-----------|
D|-----5-----------5-----------5---|---------5-----------7-----------|-7-----------5-----------5-------|
A|---------5-----------5-----------|-5-----------5-----------5-------|-----5-----------5-----------0---|
E|---------------------------------|---------------------------------|---------------------------------|


G|-6-----------6-----------7-------|-----7-----------9-----------9---|---------7-----------7-----------|
D|-----7-----------7-----------7---|---------7-----------7-----------|-7-----------7-----------7-------|
A|---------0-----------0-----------|-0-----------0-----------0-------|-----0-----------0-----------0---|
E|---------------------------------|---------------------------------|---------------------------------|


G|-6-----------6-----------7-------|-----7-----------9-----------9---|---------7-----------7-----------|
D|-----7-----------7-----------7---|---------7-----------7-----------|-7-----------7-----------7-------|
A|---------0-----------0-----------|-0-----------0-----------0-------|-----0-----------0-----------0---|
E|---------------------------------|---------------------------------|---------------------------------|


G|-12----------12----------12------|-----12----------12----------12--|---------12----------12----------|
D|-----7-----------7-----------7---|---------7-----------7-----------|-7-----------7-----------7-------|
A|---------0-----------0-----------|-0-----------0-----------0-------|-----0-----------0-----------0---|
E|---------------------------------|---------------------------------|---------------------------------|


G|--------|
D|-7------|
A|--------|
E|--------|