Menu:

 

Search:

 

red hot chili peppers - californication intro jam live at slane castle:

 



Title: Love Rollercoaster
Artist: 
Album: 
Author: Ralph Middlebrooks, James Williams, Marshall Jones, Leroy Bonner, Clarence Satchell, Willie Beck, and Marvin R. Pierce


Track 1: Untitled

E|--------|--------|--------|--------|--------|--------|--------|--------|--------|
B|--------|--------|--------|--------|--------|--------|--------|--------|--------|
G|--------|--------|--------|--------|--------|--------|--------|--------|--------|
D|--------|--------|--------|--------|--------|--------|--------|--------|--------|
A|--------|--------|--------|--------|--------|--------|--------|--------|--------|
E|--------|--------|--------|--------|--------|--------|--------|--------|--------|


E|--------|--------|--------|--------|--------|--------|--------|--------|--------|
B|--------|--------|--------|--------|--------|--------|--------|--------|--------|
G|--------|--------|--------|--------|--------|--------|--------|--------|--------|
D|--------|--------|--------|--------|--------|--------|--------|--------|--------|
A|--------|--------|--------|--------|--------|--------|--------|--------|--------|
E|--------|--------|--------|--------|--------|--------|--------|--------|--------|


E|--------|--------|--------|--------|--------|--------|--------|--------|--------|
B|--------|--------|--------|--------|--------|--------|--------|--------|--------|
G|--------|--------|--------|--------|--------|--------|--------|--------|--------|
D|--------|--------|--------|--------|--------|--------|--------|--------|--------|
A|--------|--------|--------|--------|--------|--------|--------|--------|--------|
E|--------|--------|--------|--------|--------|--------|--------|--------|--------|


E|--------|--------|--------|--------|--------|--------|--------|--------|--------|
B|--------|--------|--------|--------|--------|--------|--------|--------|--------|
G|--------|--------|--------|--------|--------|--------|--------|--------|--------|
D|--------|--------|--------|--------|--------|--------|--------|--------|--------|
A|--------|--------|--------|--------|--------|--------|--------|--------|--------|
E|--------|--------|--------|--------|--------|--------|--------|--------|--------|


E|--------|--------|--------|--------|--------|--------|--------|--------|--------|
B|--------|--------|--------|--------|--------|--------|--------|--------|--------|
G|--------|--------|--------|--------|--------|--------|--------|--------|--------|
D|--------|--------|--------|--------|--------|--------|--------|--------|--------|
A|--------|--------|--------|--------|--------|--------|--------|--------|--------|
E|--------|--------|--------|--------|--------|--------|--------|--------|--------|


E|--------|--------|--------|--------|--------|--------|--------|--------|--------|
B|--------|--------|--------|--------|--------|--------|--------|--------|--------|
G|--------|--------|--------|--------|--------|--------|--------|--------|--------|
D|--------|--------|--------|--------|--------|--------|--------|--------|--------|
A|--------|--------|--------|--------|--------|--------|--------|--------|--------|
E|--------|--------|--------|--------|--------|--------|--------|--------|--------|


E|--------|--------|--------|--------|--------|--------|--------|--------|--------|
B|--------|--------|--------|--------|--------|--------|--------|--------|--------|
G|--------|--------|--------|--------|--------|--------|--------|--------|--------|
D|--------|--------|--------|--------|--------|--------|--------|--------|--------|
A|--------|--------|--------|--------|--------|--------|--------|--------|--------|
E|--------|--------|--------|--------|--------|--------|--------|--------|--------|


E|--------|--------|--------|--------|--------|--------|--------|--------|--------|
B|--------|--------|--------|--------|--------|--------|--------|--------|--------|
G|--------|--------|--------|--------|--------|--------|--------|--------|--------|
D|--------|--------|--------|--------|--------|--------|--------|--------|--------|
A|--------|--------|--------|--------|--------|--------|--------|--------|--------|
E|--------|--------|--------|--------|--------|--------|--------|--------|--------|


E|--------|--------|--------|--------|--------|--------|--------|--------|--------|
B|--------|--------|--------|--------|--------|--------|--------|--------|--------|
G|--------|--------|--------|--------|--------|--------|--------|--------|--------|
D|--------|--------|--------|--------|--------|--------|--------|--------|--------|
A|--------|--------|--------|--------|--------|--------|--------|--------|--------|
E|--------|--------|--------|--------|--------|--------|--------|--------|--------|


E|--------|--------|--------|--------|--------|--------|--------|--------|--------|
B|--------|--------|--------|--------|--------|--------|--------|--------|--------|
G|--------|--------|--------|--------|--------|--------|--------|--------|--------|
D|--------|--------|--------|--------|--------|--------|--------|--------|--------|
A|--------|--------|--------|--------|--------|--------|--------|--------|--------|
E|--------|--------|--------|--------|--------|--------|--------|--------|--------|


E|--------|--------|--------|--------|--------|--------|--------|--------|--------|
B|--------|--------|--------|--------|--------|--------|--------|--------|--------|
G|--------|--------|--------|--------|--------|--------|--------|--------|--------|
D|--------|--------|--------|--------|--------|--------|--------|--------|--------|
A|--------|--------|--------|--------|--------|--------|--------|--------|--------|
E|--------|--------|--------|--------|--------|--------|--------|--------|--------|


E|--------|--------|--------|--------|--------|--------|--------|--------|--------|
B|--------|--------|--------|--------|--------|--------|--------|--------|--------|
G|--------|--------|--------|--------|--------|--------|--------|--------|--------|
D|--------|--------|--------|--------|--------|--------|--------|--------|--------|
A|--------|--------|--------|--------|--------|--------|--------|--------|--------|
E|--------|--------|--------|--------|--------|--------|--------|--------|--------|


E|--------|--------|--------|--------|--------|--------|--------|--------|--------|
B|--------|--------|--------|--------|--------|--------|--------|--------|--------|
G|--------|--------|--------|--------|--------|--------|--------|--------|--------|
D|--------|--------|--------|--------|--------|--------|--------|--------|--------|
A|--------|--------|--------|--------|--------|--------|--------|--------|--------|
E|--------|--------|--------|--------|--------|--------|--------|--------|--------|


E|--------|--------|--------|--------|--------|--------|--------|--------|--------|
B|--------|--------|--------|--------|--------|--------|--------|--------|--------|
G|--------|--------|--------|--------|--------|--------|--------|--------|--------|
D|--------|--------|--------|--------|--------|--------|--------|--------|--------|
A|--------|--------|--------|--------|--------|--------|--------|--------|--------|
E|--------|--------|--------|--------|--------|--------|--------|--------|--------|


E|--------|--------|--------|
B|--------|--------|--------|
G|--------|--------|--------|
D|--------|--------|--------|
A|--------|--------|--------|
E|--------|--------|--------|





Track 2: Untitled

G|--------|--------|--------|--------|--------|--------|--------|--------|--------|
D|--------|--------|--------|--------|--------|--------|--------|--------|--------|
A|--------|--------|--------|--------|--------|--------|--------|--------|--------|
E|--------|--------|--------|--------|--------|--------|--------|--------|--------|


G|--------|--------------------|---------------------------|----------------------------------|
D|--------|--------------------|---------------------------|----------------------------------|
A|--------|--------------------|---------------------------|----------------------------------|
E|--------|-----------------5--|-17--------5--17--------5--|-12---5--19---5--15---5--5-----5--|


G|-----------------------------------|-------------------------------------|-----------------------------------|
D|-----10------8-------7-------------|-----7-------8-------10--------------|-----10------8-------7-------------|
A|-----------------------------------|-------------------------------------|-----------------------------------|
E|-8-------6-------5-----------5--5--|-5-------6-------8----------8--8--8--|-8-------6-------5-----------5--5--|


G|-------------------------------------|-------------------------------------|-----------------------------------|
D|-----7-------8-------10--------------|-----10------8-------7---------------|-----7-------8-------10------------|
A|-------------------------------------|-------------------------------------|-----------------------------------|
E|-5-------6-------8----------8--8--8--|-8-------6-------5-------5--5-----5--|-5-------6-------8-----------8--8--|


G|-----------------------------------|-------------------------------------|-----------------------------------|
D|-----10------8-------7-------------|-----7-------8-------10--------------|-----10------8-------7-------------|
A|-----------------------------------|-------------------------------------|-----------------------------------|
E|-8-------6-------5-----------5--5--|-5-------6-------8----------6--6--7--|-8-------6-------5-----------5--5--|


G|-------------------------------------|-------------------------------------|-----------------------------------|
D|-----7-------8-------10-----10-------|-----10------8-------7---------------|-----7-------8-------10------------|
A|-------------------------------------|-------------------------------------|-----------------------------------|
E|-5-------6-------8-------8-----8--0--|-8-------6-------5-------5--5-----5--|-5-------6-------8-----------5--5--|


G|-----------------------------------|-------------------------------------|-----------------------------------|
D|-----10------8-------7-------------|-----7-------8-------10-----8--10----|-----10------8-------7-------------|
A|-----------------------------------|-------------------------------------|-----------------------------------|
E|-8-------6-------5-----------5--5--|-5-------6-------8-------8--------0--|-8-------6-------5-----------5--5--|


G|-----------------------------------|---------------------------|---------------------------|
D|-----7-------8-------10------------|------5---5---5---5--------|------5---5---5---5--------|
A|-----------------------------------|---------------------------|---------------------------|
E|-5-------6-------8-----------8--8--|-3-------------------------|-3-------------------------|


G|---------------------------|--------------10----10-12-----------|---------------------------|
D|------5---5---5---5--------|----------12-----12-------8---------|------5---5---5---5--------|
A|---------------------------|------------------------------------|---------------------------|
E|-3-------------------------|-3----------------------------1--1--|-3-------------------------|


G|---------------------------|---------------------------|---------------------------|
D|------5---5---5---5--------|------5---5---5---5--------|---------------------------|
A|---------------------------|---------------------------|-----10--10-11---12--------|
E|-3-------------------------|-3-------------------------|---------------------------|


G|-----------------------------------|-------------------------------------|-----------------------------------|
D|-----10------8-------7-------------|-----7-------8-------10--------------|-----10------8-------7-------------|
A|-----------------------------------|-------------------------------------|-----------------------------------|
E|-8-------6-------5-----------5--5--|-5-------6-------8----------7--8--7--|-8-------6-------5-----------5--5--|


G|-------------------------------------|-----------------------------------|-----------------------------------|
D|-----7-------8-------10-----9--10----|-----10------8-------7-------------|-----7-------8-------10------------|
A|-------------------------------------|-----------------------------------|-----------------------------------|
E|-5-------6-------8----------------7--|-8-------6-------5-----------5--5--|-5-------6-------8-----------8--8--|


G|-----------------------------------|-----------------------------------|-------------------------------------|
D|-----10------8-------7-------------|-----7-------8-------10------------|-----10------8-------7---------------|
A|-----------------------------------|-----------------------------------|-------------------------------------|
E|-8-------6-------5-----------5--5--|-5-------6-------8-----------5--5--|-8-------6-------5-------5--5-----5--|


G|-------------------------------------|-------------------------------------|-----------------------------------|
D|-----7-------8-------10--------------|-----10------8-------7------8--10----|-----7-------8-------10------------|
A|-------------------------------------|----------------------------------0--|-----------------------------------|
E|-5-------6-------8----------7--8--7--|-8-------6-------5-------------------|-5-------6-------8-----------8--8--|


G|-----------------------------------|-----------------------------------|-------------------------------------|
D|-----10------8-------7-------------|-----7-------8-------10------------|-----10------8-------7---------------|
A|-----------------------------------|-----------------------------------|-------------------------------------|
E|-8-------6-------5-----------5--5--|-5-------6-------8-----------8--8--|-8-------6-------5-------5--5--5--5--|


G|----------------------------------------------------|---------------------------|
D|----------------------------------------------------|------5---5---5---5--------|
A|----------------------------------------------------|---------------------------|
E|-5--5--5--5--6--6--6-----8--8--8-----8--8-----8--8--|-3-------------------------|


G|----------------------------------|---------------------------|------12--10--------------------------|
D|------5---5---5---5---5--3--5-----|------5---5---5---5--------|--------------12-11-10-8--8--10-8-----|
A|----------------------------------|---------------------------|--------------------------------------|
E|-3--------------------------------|-3-------------------------|-3------------------------------------|


G|---------------------------|----------15--17--19--------|---------------------------|
D|------5---5---5---5--------|----------------------------|---------------------------|
A|---------------------------|------13--------------------|------------------10-------|
E|-3-------------------------|-3--------------------------|-3----3---3---3-------10---|


G|------------------------------|--------|--------|--------|--------|--------|--------|
D|----------------------13-15---|--------|--------|--------|--------|--------|--------|
A|-----10--10-11---12-----------|--------|--------|--------|--------|--------|--------|
E|------------------------------|--------|--------|--------|--------|--------|--------|


G|--------|----------------------|-----------------------------------|-------------------------------------|
D|--------|----------------------|-----10------8-------7-------------|-----7-------8-------10--------------|
A|--------|-----------------12---|-----------------------------------|-------------------------------------|
E|--------|----------3--8--------|-8-------6-------5-----------5--5--|-5-------6-------8----------8--8--8--|


G|-----------------------------------|-------------------------------------|-------------------------------------|
D|-----10------8-------7-------------|-----7-------8-------10--------------|-----10------8-------7---------------|
A|-----------------------------------|-------------------------------------|-------------------------------------|
E|-8-------6-------5-----------5--5--|-5-------6-------8----------8--8--8--|-8-------6-------5-------5--5-----5--|


G|-----------------------------------|-----------------------------------|-------------------------------------|
D|-----7-------8-------10------------|-----10------8-------7-------------|-----7-------8-------10--------------|
A|-----------------------------------|-----------------------------------|-------------------------------------|
E|-5-------6-------8-----------8--8--|-8-------6-------5-----------5--5--|-5-------6-------8----------6--6--7--|


G|-----------------------------------|-------------------------------------|-------------------------------------|
D|-----10------8-------7-------------|-----7-------8-------10-----10-------|-----10------8-------7---------------|
A|-----------------------------------|-------------------------------------|-------------------------------------|
E|-8-------6-------5-----------5--5--|-5-------6-------8-------8-----8--0--|-8-------6-------5-------5--5-----5--|


G|-----------------------------------|---------------------------|----------12--10--10-10-10--------|
D|-----7-------8-------10------------|---------------------------|---------------------------12-10--|
A|-----------------------------------|---------------------------|----------------------------------|
E|-5-------6-------8-----------5--5--|-3----3---3---3---3--------|-15-------------------------------|


G|---------------------------|----------12-10-----------------|---------------------------|
D|---------------------------|----------------8---8---8---12--|--------------5---5--------|
A|---------------------------|--------------------------------|---------------------------|
E|-3----3---3---3---3--------|-3------------------------------|-3----3---3----------------|


G|---------------------------|---------------------------|---------19--17-15----17-15--15----------|
D|-----5---5---5---5---------|------5---5---5---5--------|-------------------17--------------------|
A|---------------------------|---------------------------|-10-----------------------------17-17-17-|
E|-3-------------------------|-3-------------------------|-----------------------------------------|


G|------------------------------|---------12-10--------12------------|---------------------------|
D|------5---5---5---5---8---8---|---------------12-12------8--8--8---|---------------------------|
A|------------------------------|------------------------------------|---------------------------|
E|-3----------------------------|-3----------------------------------|-3----3---3---3---3--------|


G|-------5---5--5--5--5--5---|---------------------------|---------------10--------------------|
D|-5-------------------------|------5---5---5---5--------|-------------------12--10--8--10-8---|
A|-5-------------------------|---------------------------|-10--10-10-10------------------------|
E|---------------------------|-3-------------------------|-------------------------------------|


G|---------------------------|-----------------------------------|---------------------------|
D|--------------5---5--------|-----5---5-------------------------|---------------------------|
A|---------------------------|-----------------------------------|---------------------------|
E|-3----3---3----------------|-3--------------0--1---1---1---2---|-3----3---3---3---3--------|


G|-------------------------10-12---|------12-10--10-12--10--12-10-----|-10------------------------------------|
D|----------------8--10-12---------|------------------------------12--|-----12--11-10-8---10-8------8---------|
A|----------8--10------------------|----------------------------------|-------------------------10-----10-8---|
E|-3-------------------------------|-3--------------------------------|---------------------------------------|


G|------------------------------------------|----------------19----|-----------------------------|
D|------5--5--5--5--5--5--5--5-----7--7--7--|-5--5--5--------------|------5---5---5--5--5--------|
A|------------------------------------------|----------------------|-----------------------------|
E|-3----------------------------5-----------|----------------------|-3---------------------------|


G|--------|------------------------------------------|---------------------------------|
D|--------|------5--3--------------------------------|------5--3-----------------------|
A|--------|------------5--4--3--0--1--3--1--0--1--3--|------------5--4--3--0-----------|
E|-3------|-3----------------------------------------|-3----------------------1---1----|


G|------------------------------------------|-----------------------------------------|
D|------5--3--------------------------------|------0--3-------------------------------|
A|------------5--4--3--0--1--3--1--0--1--3--|-------------3--1--3---3--1--3--1--------|
E|-3----------------------------------------|-3---------------------------------3--1--|


G|------------------------------------------|---------------------------------|------------------------------------------|
D|------5--3--------------------------------|------5--3-----------------------|------5--3--------------------------------|
A|------------5--4--3--0--1--3--1--0--1--3--|------------5--4--3--0-----------|------------5--4--3--0--1--3--1--0--1--3--|
E|-3----------------------------------------|-3----------------------1---1----|-3----------------------------------------|


G|-----------------------------------------|---------------------------|---------------------------|
D|------0--3-------------------------------|------5---5---5---5--------|------5---5---5---5--------|
A|-------------3--1--3---3--1--3--1--------|---------------------------|---------------------------|
E|-3---------------------------------3--1--|-3-------------------------|-3-------------------------|


G|---------------------------|---------------------------|-----------------------------------------------|
D|------5---5---5---5--------|------5---5---5---5--------|-----0--3-----0--3-----------3--------3--------|
A|---------------------------|---------------------------|--------------------5--4--5-----4--5-----1-----|
E|-3-------------------------|-3-------------------------|-3------------------------------------------1--|


G|-------------------------------------------------|-----------------------------------------------|
D|----------------------------------7-----8-----10-|-----------------------------------------------|
A|-------------------------------------------------|-----------------------------3-----------1--0--|
E|-3--3-----3-----3--3--3-----3--5-----6-----8-----|-3--3-----3------3--3-----3-----3--1--3--------|


G|-------------------------------------------|---------------------------------------------|
D|-------------------------------------------|---------------------------------------------|
A|-----3-----1-----1--3--1-----1--3----------|------------------------------3--1-----1--0--|
E|-3------3-----3-----------3--------0----1--|-3----3-----3--3--3-----3-----------3--------|


G|---------------------------------------------|--------------------------------------|
D|----------------------------3---------3------|---------3--2-----3-------------------|
A|-------------------1--3--5---------5-----5---|----------------------1------1--3-----|
E|-3--3-----3--3--3----------------------------|-3---------------------------------1--|


G|---------------------------------------|---------------------------------------------|
D|---------------------------7-------8---|---------------------------3-----3--5--8--7--|
A|---------------------------------------|------------------------5-----5--------------|
E|-3--3-----3-----3--3---5-------6-------|-3----3-----3--3--3--------------------------|


G|----------------------------------10------|-----------------------------------------------|
D|-------------------3--5--8--10-12----12---|----------------------------------------3------|
A|----------------5-------------------------|----------------------------1-----3--5---------|
E|-3--3-----3-------------------------------|-3--3-----3--3--3--1--2--3---------------------|


G|---------------------------------|
D|-2---3---2-----------------------|
A|-------------3---1---3---1---0---|
E|---------------------------------|