Menu:

 

Search:

 

red hot chili peppers - by the way:

 



Title: I Like Dirt
Artist: 
Album: Californication
Author: Red Hot Chili Peppers


Track 1: Frusciante

E|-7----7----------|-7----7----------|-7----7----------|-7----7-----------------------------|
B|-7----7----------|-7----7----------|-7----7----------|-7----7---------------------7-------|
G|-7----7----------|-7----7----------|-7----7----------|-7----7--------7-7-7-7------7-------|
D|-----------------|-----------------|-----------------|------------------------------------|
A|-----------------|-----------------|-----------------|------------------------------------|
E|-----------------|-----------------|-----------------|------------------------------------|


E|-7--7--7---7--7--7--7---7---7-------7--|-7--7--7---7---7--7---7--7--7-------7--|
B|-7--7--7---7--7--7--7---7---7-------7--|-7--7--7---7---7--7---7--7--7-------7--|
G|-7--7--7---7--7--7--7---7---7-------7--|-7--7--7---7---7--7---7--7--7-------7--|
D|---------------------------------------|---------------------------------------|
A|---------------------------------------|---------------------------------------|
E|---------------------------------------|---------------------------------------|


E|-7--7--10--10-10-10-----7---7-------7--|-7--7--7---7---7--7---7--7-----7--7--7--7--|
B|-7--7--7---7--7--7------7---7-------7--|-7--7--7---7---7--7---7--7-----7--7--7--7--|
G|-7--7--7---7--7--7------7---7-------7--|-7--7--7---7---7--7---7--7-----7--7--7--7--|
D|---------------------------------------|-------------------------------------------|
A|---------------------------------------|-------------------------------------------|
E|---------------------------------------|-------------------------------------------|


E|-7--7--7---7---7--7---7--7--7-------7--|-7--7--10--10-10-7--7---7---7-------7--|
B|-7--7--7---7---7--7---7--7--7-------7--|-7--7--7---7--7--7--7---7---7-------7--|
G|-7--7--7---7---7--7---7--7--7-------7--|-7--7--7---7--7--7--7---7---7-------7--|
D|---------------------------------------|---------------------------------------|
A|---------------------------------------|---------------------------------------|
E|---------------------------------------|---------------------------------------|


E|-7--7--7---7---7--7---7--7--7-------7--|-7--7--7---7---7--7---7--7--7-------7--|
B|-7--7--7---7---7--7---7--7--7-------7--|-7--7--7---7---7--7---7--7--7-------7--|
G|-7--7--7---7---7--7---7--7--7-------7--|-7--7--7---7---7--7---7--7--7-------7--|
D|---------------------------------------|---------------------------------------|
A|---------------------------------------|---------------------------------------|
E|---------------------------------------|---------------------------------------|


E|-7--7--10--10--10-10--10-10-10------10-|-10-10-10--10--10-10--10-10-10--10-10-10-|
B|-7--7--7---7---7--7---7--7--7-------7--|-7--7--7---7---7--7---7--7--7---7--7--7--|
G|-7--7--7---7---7--7---7--7--7-------7--|-7--7--7---7---7--7---7--7--7---7--7--7--|
D|---------------------------------------|-----------------------------------------|
A|---------------------------------------|-----------------------------------------|
E|---------------------------------------|-----------------------------------------|


E|-7--7--7---7---7--7---7--7--7-------7--|-7--7--10--10--10-10--10-10-10------10-|
B|-7--7--7---7---7--7---7--7--7-------7--|-7--7--7---7---7--7---7--7--7-------7--|
G|-7--7--7---7---7--7---7--7--7-------7--|-7--7--7---7---7--7---7--7--7-------7--|
D|---------------------------------------|---------------------------------------|
A|---------------------------------------|---------------------------------------|
E|---------------------------------------|---------------------------------------|


E|-7--7--7---7---7--7---7--7--10------7--|-7--7--7---7--7--7--7---7---7-------7--|
B|-7--7--7---7---7--7---7--7--7-------7--|-7--7--7---7--7--7--7---7---7-------7--|
G|-7--7--7---7---7--7---7--7--7-------7--|-7--7--7---7--7--7--7---7---7-------7--|
D|---------------------------------------|---------------------------------------|
A|---------------------------------------|---------------------------------------|
E|---------------------------------------|---------------------------------------|


E|-7--7--10--10--10-10--10-10-10------10-|-10-10-10--10--10-10--10-10-10------10-|
B|-7--7--7---7---7--7---7--7--7-------7--|-7--7--7---7---7--7---7--7--7-------7--|
G|-7--7--7---7---7--7---7--7--7-------7--|-7--7--7---7---7--7---7--7--7-------7--|
D|---------------------------------------|---------------------------------------|
A|---------------------------------------|---------------------------------------|
E|---------------------------------------|---------------------------------------|


E|-7--7--7---7---7--7---7-----------|-7--7--7---7---7--7---7-----------|----------------------------------|
B|-7--7--7---7---7--7---7-----------|-7--7--7---7---7--7---7-----------|----------------------------------|
G|-7--7--7---7---7--7---7-----------|-7--7--7---7---7--7---7-----------|-7-------------7------------------|
D|----------------------------------|----------------------------------|----9---9---------9---9-----------|
A|----------------------------------|----------------------------------|----------------------------------|
E|----------------------------------|----------------------------------|----------------------------------|


E|----------------------------------|-7--7--7---7---7--10--10-10-10------7--|-7--7--7---7---7--7---7--7--7-------7--|
B|----------------------------------|-7--7--7---7---7--7---7--7--7-------7--|-7--7--7---7---7--7---7--7--7-------7--|
G|-7-------------7------------------|-7--7--7---7---7--7---7--7--7-------7--|-7--7--7---7---7--7---7--7--7-------7--|
D|----9---9---------9---9-----------|---------------------------------------|---------------------------------------|
A|----------------------------------|---------------------------------------|---------------------------------------|
E|----------------------------------|---------------------------------------|---------------------------------------|


E|-7--7--7---7---7--7---7--7--7-------7--|-7--7--7---7---7--7---7--7--7---7----|-7--7--7---7---7--7---7--7--7-------7--|
B|-7--7--7---7---7--7---7--7--7-------7--|-7--7--7---7---7--7---7--7--7---7----|-7--7--7---7---7--7---7--7--7-------7--|
G|-7--7--7---7---7--7---7--7--7-------7--|-7--7--7---7---7--7---7--7--7---7----|-7--7--7---7---7--7---7--7--7-------7--|
D|---------------------------------------|-------------------------------------|---------------------------------------|
A|---------------------------------------|-------------------------------------|---------------------------------------|
E|---------------------------------------|-------------------------------------|---------------------------------------|


E|-7--7--7---7---7--7---7--7--7-------7--|-7--7--7---7---7--7---7--7--7-------7--|
B|-7--7--7---7---7--7---7--7--7-------7--|-7--7--7---7---7--7---7--7--7-------7--|
G|-7--7--7---7---7--7---7--7--7-------7--|-7--7--7---7---7--7---7--7--7-------7--|
D|---------------------------------------|---------------------------------------|
A|---------------------------------------|---------------------------------------|
E|---------------------------------------|---------------------------------------|


E|-7--7--7---7---7--7---7--7--7-------7--|-7--7--7---7---7--7---7--7--7-------7--|
B|-7--7--7---7---7--7---7--7--7-------7--|-7--7--7---7---7--7---7--7--7-------7--|
G|-7--7--7---7---7--7---7--7--7-------7--|-7--7--7---7---7--7---7--7--7-------7--|
D|---------------------------------------|---------------------------------------|
A|---------------------------------------|---------------------------------------|
E|---------------------------------------|---------------------------------------|


E|-7--7--7---7---7--7---7--7--7--7--7--7---|-7--7--7---7---7--7---7--7--10------7--|
B|-7--7--7---7---7--7---7--7--7--7--7--7---|-7--7--7---7---7--7---7--7--7-------7--|
G|-7--7--7---7---7--7---7--7--7--7--7--7---|-7--7--7---7---7--7---7--7--7-------7--|
D|-----------------------------------------|---------------------------------------|
A|-----------------------------------------|---------------------------------------|
E|-----------------------------------------|---------------------------------------|


E|-7--7--7---7---7--7---7--7--7-------7--|---------------------------------|---------------------------------|
B|-7--7--7---7---7--7---7--7--7-------7--|---------------------------------|---------------------------------|
G|-7--7--7---7---7--7---7--7--7-------7--|-8-------------------------------|-8-------------------------------|
D|---------------------------------------|-----8---10----------------------|-----8---10----------------------|
A|---------------------------------------|-------------8---10--6---8-------|-------------8---10--6---8-------|
E|---------------------------------------|-----------------------------8---|-----------------------------8---|


E|---------------------------------|---------------------------------|-7--7--7---7---7--7---7--7--10------7--|
B|---------------------------------|-8-------------------------------|-7--7--7---7---7--7---7--7--7-------7--|
G|-8-------------------------------|-----8---10------8---------------|-7--7--7---7---7--7---7--7--7-------7--|
D|-----8---10----------------------|-------------10------8---10------|---------------------------------------|
A|-------------8---10--6---8-------|-----------------------------8---|---------------------------------------|
E|-----------------------------8---|---------------------------------|---------------------------------------|


E|-7--7--10--7---7--7---7--7--7-------7--|-7--7--7---7---7--7---7--7--7-------7--|
B|-7--7--7---7---7--7---7--7--7-------7--|-7--7--7---7---7--7---7--7--7-------7--|
G|-7--7--7---7---7--7---7--7--7-------7--|-7--7--7---7---7--7---7--7--7-------7--|
D|---------------------------------------|---------------------------------------|
A|---------------------------------------|---------------------------------------|
E|---------------------------------------|---------------------------------------|


E|-7--7--7---7---7--7---7--7--7--------|-7--7--7---7---7--7---7-----------|-7--7--7---7---7--7---7-----------|
B|-7--7--7---7---7--7---7--7--7--------|-7--7--7---7---7--7---7-----------|-7--7--7---7---7--7---7-----------|
G|-7--7--7---7---7--7---7--7--7--------|-7--7--7---7---7--7---7-----------|-7--7--7---7---7--7---7-----------|
D|-------------------------------------|----------------------------------|----------------------------------|
A|-------------------------------------|----------------------------------|----------------------------------|
E|-------------------------------------|----------------------------------|----------------------------------|


E|----------------------------------|----------------------------------|-7----7----------|
B|----------------------------------|----------------------------------|-7----7----------|
G|-7-------------7------------------|-7-------------7------------------|-7----7----------|
D|----9---9---------9---9-----------|----9---9---------9---9-----------|-----------------|
A|----------------------------------|----------------------------------|-----------------|
E|----------------------------------|----------------------------------|-----------------|


E|-7----7----------|-7----7----------|-7----7------------------|-7--7--7---7---7--7---7--7--7-------7--|
B|-7----7----------|-7----7----------|-7----7------------------|-7--7--7---7---7--7---7--7--7-------7--|
G|-7----7----------|-7----7----------|-7----7--------9----11---|-7--7--7---7---7--7---7--7--7-------7--|
D|-----------------|-----------------|-------------------------|---------------------------------------|
A|-----------------|-----------------|-------------------------|---------------------------------------|
E|-----------------|-----------------|-------------------------|---------------------------------------|


E|-7--7--7---7---7--7---7--7--7-------7--|-7--7--7---7---7--7---7--7--7-------7--|
B|-7--7--7---7---7--7---7--7--7-------7--|-7--7--7---7---7--7---7--7--7-------7--|
G|-7--7--7---7---7--7---7--7--7-------7--|-7--7--7---7---7--7---7--7--7-------7--|
D|---------------------------------------|---------------------------------------|
A|---------------------------------------|---------------------------------------|
E|---------------------------------------|---------------------------------------|


E|-7--7--7---7---7--7---7--7--7-------7--|-7--7--7---7---7--7---7--7--7-------7--|
B|-7--7--7---7---7--7---7--7--7-------7--|-7--7--7---7---7--7---7--7--7-------7--|
G|-7--7--7---7---7--7---7--7--7-------7--|-7--7--7---7---7--7---7--7--7-------7--|
D|---------------------------------------|---------------------------------------|
A|---------------------------------------|---------------------------------------|
E|---------------------------------------|---------------------------------------|


E|-7--7--7---7---7--7---7--7--7-------7--|-7--7--7---7---7--7---7--7--7-------7--|
B|-7--7--7---7---7--7---7--7--7-------7--|-7--7--7---7---7--7---7--7--7-------7--|
G|-7--7--7---7---7--7---7--7--7-------7--|-7--7--7---7---7--7---7--7--7-------7--|
D|---------------------------------------|---------------------------------------|
A|---------------------------------------|---------------------------------------|
E|---------------------------------------|---------------------------------------|


E|-7--7--7---7---7--7---7--7--7-------7--|-7--7--7---7---7--7---7-----------|-7--7--7---7---7--7---7-----------|
B|-7--7--7---7---7--7---7--7--7-------7--|-7--7--7---7---7--7---7-----------|-7--7--7---7---7--7---7-----------|
G|-7--7--7---7---7--7---7--7--7-------7--|-7--7--7---7---7--7---7-----------|-7--7--7---7---7--7---7-----------|
D|---------------------------------------|----------------------------------|----------------------------------|
A|---------------------------------------|----------------------------------|----------------------------------|
E|---------------------------------------|----------------------------------|----------------------------------|


E|----------------------------------|----------------------------------|-7--7--7---7--7--7--7---7---10-------|
B|----------------------------------|----------------------------------|-7--7--7---7--7--7--7---7---7--------|
G|-7-------------7------------------|-7-------------7------------------|-7--7--7---7--7--7--7---7---7--------|
D|----9---9---------9---9-----------|----9---9---------9---9-----------|-------------------------------------|
A|----------------------------------|----------------------------------|-------------------------------------|
E|----------------------------------|----------------------------------|-------------------------------------|


E|-7--7--7---7--7--7--10--10--7-------7--|-7--7--10--10--10-10--10-10-10------7--|
B|-7--7--7---7--7--7--7---7---7-------7--|-7--7--7---7---7--7---7--7--7-------7--|
G|-7--7--7---7--7--7--7---7---7-------7--|-7--7--7---7---7--7---7--7--7-------7--|
D|---------------------------------------|---------------------------------------|
A|---------------------------------------|---------------------------------------|
E|---------------------------------------|---------------------------------------|


E|-7--7--7---7---7--7---7---7-------|
B|-7--7--7---7---7--7---7---7-------|
G|-7--7--7---7---7--7---7---7-------|
D|----------------------------------|
A|----------------------------------|
E|----------------------------------|





Track 2: Frusciante solo with wah

E|--------|--------|--------|--------|--------|--------|--------|--------|--------|
B|--------|--------|--------|--------|--------|--------|--------|--------|--------|
G|--------|--------|--------|--------|--------|--------|--------|--------|--------|
D|--------|--------|--------|--------|--------|--------|--------|--------|--------|
A|--------|--------|--------|--------|--------|--------|--------|--------|--------|
E|--------|--------|--------|--------|--------|--------|--------|--------|--------|


E|--------|--------|--------|--------|--------|--------|--------|--------|--------|
B|--------|--------|--------|--------|--------|--------|--------|--------|--------|
G|--------|--------|--------|--------|--------|--------|--------|--------|--------|
D|--------|--------|--------|--------|--------|--------|--------|--------|--------|
A|--------|--------|--------|--------|--------|--------|--------|--------|--------|
E|--------|--------|--------|--------|--------|--------|--------|--------|--------|


E|--------|--------|--------|--------|--------|--------|--------|--------|--------|
B|--------|--------|--------|--------|--------|--------|--------|--------|--------|
G|--------|--------|--------|--------|--------|--------|--------|--------|--------|
D|--------|--------|--------|--------|--------|--------|--------|--------|--------|
A|--------|--------|--------|--------|--------|--------|--------|--------|--------|
E|--------|--------|--------|--------|--------|--------|--------|--------|--------|


E|--------|--------|--------|--------|--------|--------|--------|--------|--------|
B|--------|--------|--------|--------|--------|--------|--------|--------|--------|
G|--------|--------|--------|--------|--------|--------|--------|--------|--------|
D|--------|--------|--------|--------|--------|--------|--------|--------|--------|
A|--------|--------|--------|--------|--------|--------|--------|--------|--------|
E|--------|--------|--------|--------|--------|--------|--------|--------|--------|


E|--------|--------|--------|--------|--------|--------|--------|--------|--------|
B|--------|--------|--------|--------|--------|--------|--------|--------|--------|
G|--------|--------|--------|--------|--------|--------|--------|--------|--------|
D|--------|--------|--------|--------|--------|--------|--------|--------|--------|
A|--------|--------|--------|--------|--------|--------|--------|--------|--------|
E|--------|--------|--------|--------|--------|--------|--------|--------|--------|


E|--------|--------|-----------------------|----------------|---------------------------------------|
B|--------|--------|-----------------------|----------------|---------------------------------------|
G|--------|--------|-----------------------|----------------|---------------------------------------|
D|--------|--------|-----------------------|--------5-------|-9------9--7------5---7---5---7--5-----|
A|--------|--------|-------------------5---|-7----------7---|---------------------------------------|
E|--------|--------|------------5--7-------|----------------|---------------------------------------|


E|-----------------------|------------------|-----------------|-----------------|------------------------------------------------------|
B|-5---------------------|------------------|-----------------|-----------------|---------7--10-7-----7--10-7-----7--10-7-----7--10-7--|
G|----4---7---7-----7----|-7----------------|-------------7---|-------------9---|-9---9------------9-----------9-----------9-----------|
D|-----------------------|--------9---7-----|-9---------------|-9---------------|------------------------------------------------------|
A|-----------------------|------------------|-----------------|-----------------|------------------------------------------------------|
E|-----------------------|------------------|-----------------|-----------------|------------------------------------------------------|


E|--------------------------------------------------------------|--------10--|------------------|
B|-7--10-7--------7--10-7-----7--10-7-----7--10-7-----7--10--10-|------------|-12---------------|
G|----------9--9-----------9-----------9-----------9------------|------------|-------------9----|
D|--------------------------------------------------------------|------------|------------------|
A|--------------------------------------------------------------|------------|------------------|
E|--------------------------------------------------------------|------------|------------------|


E|----------------------------------|------14--------12-14-12-|-----------------------|
B|--------------12--12--12-12-12-12-|-12---17-----------------|-12-14--14-------------|
G|-9--7-----------------------------|-------------------------|-----------------------|
D|----------------------------------|-------------------------|-----------------------|
A|----------------------------------|-------------------------|-----------------------|
E|----------------------------------|-------------------------|-----------------------|


E|-----------------------------------|-------------------------------------------------------------|
B|---------------------------12--15--|-12-15-12-------12-15-12-------12-15-12-------12-15-12-------|
G|----12-----14--14------14----------|----------14-14----------14-14----------14-14----------14-14-|
D|-14--------------------------------|-------------------------------------------------------------|
A|-----------------------------------|-------------------------------------------------------------|
E|-----------------------------------|-------------------------------------------------------------|


E|---------------------------------------------------------|--------|--------|--------|
B|-12-15-12-------12-15-12-------12-15-12-------12-15-12---|--------|--------|--------|
G|----------14-14----------14-14----------14-14------------|--------|--------|--------|
D|---------------------------------------------------------|--------|--------|--------|
A|---------------------------------------------------------|--------|--------|--------|
E|---------------------------------------------------------|--------|--------|--------|


E|--------|
B|--------|
G|--------|
D|--------|
A|--------|
E|--------|





Track 3: Flea

G|-----------------|-----------------|-----------------|-----------------|---------------------------------------------|
D|-----------------|-----------------|-----------------|-----------------|--------9---------------9-----7--7--8--9-----|
A|-----------------|-----------------|-----------------|-----------------|---------------------------------------------|
E|-5----7----------|-5----7----------|-5----7----------|-5----7----------|-5--7---------5--5--7------------------------|


G|---------------------------------------------|-------------------------------------------|
D|--------9---------------9-----7--7--8--9-----|--------9---------------9-----7--7--9------|
A|---------------------------------------------|-------------------------------------------|
E|-5--7---------5--5--7------------------------|-5--7---------5--5--7----------------------|


G|---------------------------------------------|-------------------------------------------|
D|--------9---------------9-----7--7--8--9-----|--------9---------------9-----7--7--9------|
A|---------------------------------------------|-------------------------------------------|
E|-5--7---------5--5--7------------------------|-5--7---------5--5--7----------------------|


G|---------------------------------------------|-------------------------------------------|
D|--------9---------------9-----7--7--8--9-----|--------9---------------9-----7--7--9------|
A|---------------------------------------------|-------------------------------------------|
E|-5--7---------5--5--7------------------------|-5--7---------5--5--7----------------------|


G|---------------------------------------------|-------------------------------------------|
D|--------9---------------9-----7--7--8--9-----|--------9---------------9-----7--7--9------|
A|---------------------------------------------|-------------------------------------------|
E|-5--7---------5--5--7------------------------|-5--7---------5--5--7----------------------|


G|-------------------------------------------|-------------------------------------------|
D|--------9----------------------------------|--------9---------------9-----7--7--9------|
A|------------------------7--5---------------|-------------------------------------------|
E|-5--7---------5--5--7---------7-----5--2---|-5--7---------5--5--7----------------------|


G|-------------------------------------------|-------------------------------------------|
D|--------9---------------9-----7--7--8------|--------9---------------9-----7--7--9------|
A|-------------------------------------------|-------------------------------------------|
E|-5--7---------5--5--7----------------------|-5--7---------5--5--7----------------------|


G|---------------------------------------------|-------------------------------------------|
D|--------9---------------9-----7--7--8--9-----|--------9---------------9-----7--7--9------|
A|---------------------------------------------|-------------------------------------------|
E|-5--7---------5--5--7------------------------|-5--7---------5--5--7----------------------|


G|---------------------------------------------|----------------------------------|
D|--------9---------------9-----7--7--8--9-----|----------------------------------|
A|---------------------------------------------|-5-------------5------------------|
E|-5--7---------5--5--7------------------------|----7---7---------7---7-----------|


G|----------------------------------|----------------------------------|----------------------------------|
D|----------------------------------|----------------------------------|----------------------------------|
A|-5-------------5------------------|-5-------------5------------------|-5-------------5------------------|
E|----7---7---------7---7-----------|----7---7---------7---7-----------|----7---7---------7---7-----------|


G|-------------------------------------------|---------------------------------------------|
D|--------9---------------9-----7--7--9------|--------9---------------9-----7--7--8--9-----|
A|-------------------------------------------|---------------------------------------------|
E|-5--7---------5--5--7----------------------|-5--7---------5--5--7------------------------|


G|-------------------------------------------|---------------------------------------------|
D|--------9---------------9-----7--7--9------|--------9---------------9-----7--7--8--9-----|
A|-------------------------------------------|---------------------------------------------|
E|-5--7---------5--5--7----------------------|-5--7---------5--5--7------------------------|


G|-------------------------------------------|---------------------------------------------|
D|--------9---------------9-----7--7--9------|--------9-----9--7---------------------------|
A|-------------------------------------------|--------------------9--7--9--7------5--------|
E|-5--7---------5--5--7----------------------|-5--7----------------------------------7--5--|


G|-------------------------------------------|---------------------------------------------|
D|--------9---------------9-----7--7--9------|--------9---------------9-----7--7--8--9-----|
A|-------------------------------------------|---------------------------------------------|
E|-5--7---------5--5--7----------------------|-5--7---------5--5--7------------------------|


G|-------------------------------------------|---------------------------------------|
D|--------9---------------9-----7--7--9------|--------9------------------------------|
A|-------------------------------------------|------------------------7---5----------|
E|-5--7---------5--5--7----------------------|-5--7---------5--5--7-----------7--5---|


G|-------------------------------------------|---------------------------------------------|
D|--------9---------------9-----7--7--9------|--------9---------------9-----7--7--8--9-----|
A|-------------------------------------------|---------------------------------------------|
E|-5--7---------5--5--7----------------------|-5--7---------5--5--7------------------------|


G|----------------------|----------------------|----------------------|---------------------------------|
D|----------------------|----------------------|----------------------|-13------10------8---------------|
A|----------------------|----------------------|----------------------|-----13------10------6---8-------|
E|-8-------------8---8--|-8-------------8---8--|-8-------------8---8--|-----------------------------8---|


G|-------------------------------------------|---------------------------------------------|
D|--------9---------------9-----7--7--9------|--------9---------------9-----7--7--8--9-----|
A|-------------------------------------------|---------------------------------------------|
E|-5--7---------5--5--7----------------------|-5--7---------5--5--7------------------------|


G|-------------------------------------------|---------------------------------------------|
D|--------9---------------9-----7--7--9------|--------9---------------9-----7--7--8--9-----|
A|-------------------------------------------|---------------------------------------------|
E|-5--7---------5--5--7----------------------|-5--7---------5--5--7------------------------|


G|----------------------------------|----------------------------------|----------------------------------|
D|----------------------------------|----------------------------------|----------------------------------|
A|-5-------------5------------------|-5-------------5------------------|-5-------------5------------------|
E|----7---7---------7---7-----------|----7---7---------7---7-----------|----7---7---------7---7-----------|


G|----------------------------------|-----------------|-----------------|-----------------|
D|----------------------------------|-----------------|-----------------|-----------------|
A|-5-------------5------------------|-5----7----------|-5----7----------|-5----7----------|
E|----7---7---------7---7-----------|-----------------|-----------------|-----------------|


G|-----------------|-------------------------------------------|---------------------------------------------|
D|-----------------|--------9---------------9-----7--7--9------|--------9---------------9-----7--7--8--9-----|
A|-5----7----------|-------------------------------------------|---------------------------------------------|
E|-----------------|-5--7---------5--5--7----------------------|-5--7---------5--5--7------------------------|


G|-------------------------------------------|---------------------------------------------|
D|--------9---------------9-----7--7--9------|--------9------------------------------------|
A|-------------------------------------------|------------------------5--5--5--5-----------|
E|-5--7---------5--5--7----------------------|-5--7---------5--5--7---------------7--5--5--|


G|-------------------------------------------|---------------------------------------------|
D|--------9---------------9-----7--7--9------|--------9---------------9-----7--7--8--9-----|
A|-------------------------------------------|---------------------------------------------|
E|-5--7---------5--5--7----------------------|-5--7---------5--5--7------------------------|


G|-------------------------------------------|---------------------------------------------|
D|--------9---------------9-----7--7--9------|--------9---------------9-----7--7--8--9-----|
A|-------------------------------------------|---------------------------------------------|
E|-5--7---------5--5--7----------------------|-5--7---------5--5--7------------------------|


G|----------------------------------|----------------------------------------|----------------------------------|
D|----------------------------------|-------------------------------7--5-----|----------------------------------|
A|-5-------------5------------------|-5-------------5---------------------7--|-5-------------5------------------|
E|----7---7---------7---7-----------|----7---7---------7---7-----------------|----7---7---------7---7-----------|


G|----------------------------------|--------|--------|--------|--------|
D|----------------------------------|--------|--------|--------|--------|
A|-5-------------5------------------|--------|--------|--------|--------|
E|----7---7---------7---7-----------|--------|--------|--------|--------|