Menu:

 

Search:

 

red hot chili peppers - aeroplane:

 



Title: Pea
Artist: 
Album: One Hot Minute
Author: Flea


Track 1: Guitar

E|---------------------------|---------------------------|---------------------------|
B|---------------------------|---------------------------|---------------------------|
G|---------------------------|---------------------------|---------------------------|
D|-3----3---3---3----3---3---|---------------------------|---------------------------|
A|---------------------------|-4----4---4---4----4---4---|-3----3---3---3----3---3---|
E|---------------------------|---------------------------|---------------------------|


E|---------------------------|---------------------------|---------------------------|
B|---------------------------|---------------------------|---------------------------|
G|---------------------------|---------------------------|---------------------------|
D|---------------------------|-3----3---3---3----3---3---|---------------------------|
A|-1--------1---1----1---1---|---------------------------|-4----4---4---4--------4---|
E|---------------------------|---------------------------|---------------------------|


E|---------------------------|---------------------------|---------------------------|
B|---------------------------|---------------------------|---------------------------|
G|---------------------------|---------------------------|---------------------------|
D|---------------------------|---------------------------|-3----3---3---3----3---3---|
A|-3----3---3---3----3---3---|-1----1---1---1----1---1---|---------------------------|
E|---------------------------|---------------------------|---------------------------|


E|---------------------------|---------------------------|---------------------------|
B|---------------------------|---------------------------|---------------------------|
G|---------------------------|---------------------------|---------------------------|
D|---------------------------|---------------------------|---------------------------|
A|-4----4---4---4--------4---|-3----3---3---3--------3---|-1----1---1---1----1---1---|
E|---------------------------|---------------------------|---------------------------|


E|---------------------------|---------------------------|---------------------------|
B|---------------------------|---------------------------|---------------------------|
G|---------------------------|---------------------------|---------------------------|
D|-3----3---3---3----3---3---|---------------------------|---------------------------|
A|---------------------------|-4----4---4---4----4---4---|-3----3---3---3--------3---|
E|---------------------------|---------------------------|---------------------------|


E|---------------------------|---------------------------|---------------------------|
B|---------------------------|---------------------------|---------------------------|
G|---------------------------|---------------------------|-3----3---3---3----3---3---|
D|---------------------------|-5----5---5---5----5---5---|---------------------------|
A|-1----1---1---1----1---1---|---------------------------|---------------------------|
E|---------------------------|------4--------------------|---------------------------|


E|---------------------------|-----------------------------------------|---------------------------|
B|---------------------------|-----------------------------------------|---------------------------|
G|---------------------------|-----------------------------------------|---------------------------|
D|-3----3---3---3----3---3---|-3---3---3--3--3---3--3--3---3-----3--4--|-5----5---5---5----5---5---|
A|---------------------------|--------------------------------5--------|---------------------------|
E|---------------------------|-----------------------------------------|---------------------------|


E|---------------------------|---------------------------|---------------------------------|
B|---------------------------|---------------------------|---------------------------------|
G|-3--------3---3----3---3---|---------------------------|---------------------------------|
D|---------------------------|-3----3---3---3----3---3---|-3---3---3---3-------3-------3---|
A|---------------------------|---------------------------|---------------------------------|
E|---------------------------|---------------------------|---------------------------------|


E|---------------------------|------------------------|---------------------------|
B|---------------------------|------------------------|---------------------------|
G|---------------------------|------------------------|---------------------------|
D|-2----2---2---2--------2---|--------------0----3----|-2----2---2---2--------2---|
A|---------------------------|-3----3---3-------------|---------------------------|
E|---------------------------|------------------------|---------------------------|


E|------------------------|---------------------------|------------------------|---------------------------|
B|------------------------|---------------------------|------------------------|---------------------------|
G|------------------------|---------------------------|------------------------|---------------------------|
D|--------------0---------|-2----2---2---2----2---2---|--------------0----3----|-2----2---2---2----2---2---|
A|-3----3---3--------0----|---------------------------|-3--------3-------------|---------------------------|
E|------------------------|---------------------------|------------------------|---------------------------|


E|------------------------------|------------------------------|------------------------------|
B|------------------------------|------------------------------|------------------------------|
G|------------------------------|------------------------------|------------------------------|
D|-0----0---0---3---3---3---2---|-2---2---2----2--2---2----2---|-0----0---0---3---3---3---2---|
A|------------------------------|------------------------------|------------------------------|
E|------------------------------|------------------------------|------------------------------|


E|---------------------------------|---------------------------------|---------------------------------|
B|---------------------------------|---------------------------------|---------------------------------|
G|---------------------------------|---------------------------------|---------------------------------|
D|-2---2---2---2---2---2---2---2---|-0---0---0---0---3---3---3---2---|-2---2---2---2---2---2---2---2---|
A|---------------------------------|---------------------------------|---------------------------------|
E|---------------------------------|---------------------------------|---------------------------------|


E|---------------------------------|-------------------|
B|---------------------------------|-------------------|
G|---------------------------------|-------------------|
D|-0---0---0---0---3---3---3---2---|-2-----------------|
A|---------------------------------|-------------------|
E|---------------------------------|-------0--0--0-----|





Track 2: Flea - Vocals

E|-----------------------|--------------------|------------------------|---------------------------|
B|-----------------------|--------------------|------------------------|---------------------------|
G|-----------------------|--------------------|------------------------|---------------------------|
D|-------3-------3-------|-6---8--------------|--------------5---------|-5---6---5---6---5---3-----|
A|-----------3-------3---|--------------------|----------3---------3---|---------------------------|
E|-----------------------|--------------------|------------------------|---------------------------|


E|-----------------------|---------------------------|-----------------|------------------------------|
B|-----------------------|---------------------------|-----------------|------------------------------|
G|-----------------------|---------------------------|-----------------|------------------------------|
D|-------3-------3-------|-8---6-------------6-------|-5---------------|-6---6---6----5---3---3-------|
A|-----------3-------3---|-----------------------3---|-----------------|------------------------------|
E|-----------------------|---------------------------|-----------------|------------------------------|


E|-----------------------|--------------------|------------------------|--------------------|
B|-----------------------|--------------6-----|-5----------------------|--------------------|
G|-----------------------|--------------------|------------------------|--------------------|
D|---------------3-------|-6---8--------------|--------------5---------|-5---6---6----3-----|
A|-----------3-------3---|--------------------|----------3---------3---|--------------------|
E|-----------------------|--------------------|------------------------|--------------------|


E|-----------------------|----------------------|------------------------|---------------------------|
B|-----------------------|----------------------|------------------------|---------------------------|
G|-----------------------|-5--3-----------------|------------------------|---------------------------|
D|---------------3-------|-------6--------------|--------------5---------|-5---6---5---6---3---------|
A|-----------6-------3---|----------------------|----------3---------3---|---------------------------|
E|-----------------------|----------------------|------------------------|---------------------------|


E|--------------------|--------------------|-----------------|--------|-----------------|
B|--------------------|--------------------|-----------------|--------|-----------------|
G|--------------------|--------------------|-----------------|--------|-----------------|
D|--------------------|-3-----3------------|-3---------------|--------|-----------6-----|
A|-----------11---4---|-----------10---4---|-----------------|--------|-----------11----|
E|--------------------|--------------------|-----------------|--------|-----------------|


E|---------------------|----------------------|--------|--------------------|-----------------|
B|---------------------|----------------------|--------|----------------5---|-1---1-----------|
G|---------------------|----------------------|--------|-----------7--------|-----------------|
D|-3---15----15--17----|-18--17-15-15---------|--------|-------5------------|-----------------|
A|-8---------8---10----|-8--------------------|--------|--------------------|-----------------|
E|---------------------|----------------------|--------|--------------------|-----------------|


E|---------------------------|------------------------|-----------------------|------------------------------|
B|---------------------------|------------------------|-----------------------|-5-----------------------6----|
G|---------9-------9---9-----|------------------------|-------4---5---7---7---|-----5---5-------7---7--------|
D|-----7-------9-------------|-10--10-----------------|-----------------------|-------------7----------------|
A|---------------------------|--------------12--------|-----------------------|------------------------------|
E|---------------------------|------------------------|-----------------------|------------------------------|


E|--------|--------------------|-----------------|--------------------|-----------------|
B|--------|-------6---6----5---|-5---------------|--------------------|-----------------|
G|--------|-7------------------|-----------------|-7------------------|-----------------|
D|--------|--------------------|-----------------|-------8---8----9---|-9---------------|
A|--------|--------------------|-----------------|--------------------|-----------------|
E|--------|--------------------|-----------------|--------------------|-----------------|


E|--------------------|-----------------|-----------------------|-----------------|
B|-------7---7--------|-----------------|-----------------------|-----------------|
G|-7-----12--12---9---|-9---------------|-7---------------------|-----------------|
D|-12-------------14--|-14--------------|-------8---9---8---9---|-9---------------|
A|--------------------|-----------------|-----------------------|-----------------|
E|--------------------|-----------------|-----------------------|-----------------|





Track 3: Flea - Bass

G|---------------------------|---------------------------|---------------------------|
D|-3----3---3---3----3---3---|---------------------------|---------------------------|
A|---------------------------|-4----4---4---4----4---4---|-3----3---3---3----3---3---|
E|---------------------------|---------------------------|---------------------------|


G|---------------------------|---------------------------|---------------------------|
D|---------------------------|-3----3---3---3----3---3---|---------------------------|
A|-1--------1---1----1---1---|---------------------------|-4----4---4---4--------4---|
E|---------------------------|---------------------------|---------------------------|


G|---------------------------|---------------------------|---------------------------|
D|---------------------------|---------------------------|-3----3---3---3----3---3---|
A|-3----3---3---3----3---3---|-1----1---1---1----1---1---|---------------------------|
E|---------------------------|---------------------------|---------------------------|


G|---------------------------|---------------------------|---------------------------|
D|---------------------------|---------------------------|---------------------------|
A|-4----4---4---4--------4---|-3----3---3---3--------3---|-1----1---1---1----1---1---|
E|---------------------------|---------------------------|---------------------------|


G|---------------------------|---------------------------|---------------------------|
D|-3----3---3---3----3---3---|---------------------------|---------------------------|
A|---------------------------|-4----4---4---4----4---4---|-3----3---3---3--------3---|
E|---------------------------|---------------------------|---------------------------|


G|---------------------------|---------------------------|-3----3---3---3----3---3---|
D|---------------------------|-5----5---5---5----5---5---|---------------------------|
A|-1----1---1---1----1---1---|---------------------------|---------------------------|
E|---------------------------|------4--------------------|---------------------------|


G|---------------------------|-----------------------------------------|---------------------------|
D|-3----3---3---3----3---3---|-3---3---3--3--3---3--3--3---3-----3--4--|-5----5---5---5----5---5---|
A|---------------------------|--------------------------------5--------|---------------------------|
E|---------------------------|-----------------------------------------|---------------------------|


G|-3--------3---3----3---3---|---------------------------|---------------------------------|
D|---------------------------|-3----3---3---3----3---3---|-3---3---3---3-------3-------3---|
A|---------------------------|---------------------------|---------------------------------|
E|---------------------------|---------------------------|---------------------------------|


G|---------------------------|------------------------|---------------------------|
D|-2----2---2---2--------2---|--------------0----3----|-2----2---2---2--------2---|
A|---------------------------|-3----3---3-------------|---------------------------|
E|---------------------------|------------------------|---------------------------|


G|------------------------|---------------------------|------------------------|---------------------------|
D|--------------0---------|-2----2---2---2----2---2---|--------------0----3----|-2----2---2---2----2---2---|
A|-3----3---3--------0----|---------------------------|-3--------3-------------|---------------------------|
E|------------------------|---------------------------|------------------------|---------------------------|


G|------------------------------|------------------------------|------------------------------|
D|-0----0---0---3---3---3---2---|-2---2---2----2--2---2----2---|-0----0---0---3---3---3---2---|
A|------------------------------|------------------------------|------------------------------|
E|------------------------------|------------------------------|------------------------------|


G|---------------------------------|---------------------------------|---------------------------------|
D|-2---2---2---2---2---2---2---2---|-0---0---0---0---3---3---3---2---|-2---2---2---2---2---2---2---2---|
A|---------------------------------|---------------------------------|---------------------------------|
E|---------------------------------|---------------------------------|---------------------------------|


G|---------------------------------|-------------------|
D|-0---0---0---0---3---3---3---2---|-2-----------------|
A|---------------------------------|-------------------|
E|---------------------------------|-------0--0--0-----|