Menu:

 

Search:

 

pyre - war of sages:

 



Title: The War Of Sages
Artist: 
Album: 
Author: Cary Robbins


Track 1: Lead I

 C|---------------------------------|---------------------------------|---------------------------------|
 G|---------------------------------|---------------------------------|---------------------------------|
D#|---------7-----------11----------|-9-----------7---------------7---|---------7-----------11----------|
A#|-9---9-------9---9-------9---9---|-----9---9-------9---9---11------|-9---9-------9---9-------9---9---|
 F|---------------------------------|---------------------------------|---------------------------------|
 C|---------------------------------|---------------------------------|---------------------------------|


 C|---------------------------------|---------------------------------|---------------------------------|
 G|---------------------------------|---------------------------------|---------------------------------|
D#|-9-----------7---------------7---|---------7-----------11----------|-9-----------7---------------7---|
A#|-----9---9-------9---9---11------|---------------------------------|-------------------------11------|
 F|---------------------------------|-10--10------10--10------10--10--|-----10--10------10--10----------|
 C|---------------------------------|---------------------------------|---------------------------------|


 C|---------------------------------|---------------------------------|---------------------------------|
 G|---------------------------------|---------------------------------|---------------------------------|
D#|---------7-----------11----------|-9-----------7---------------7---|---------7-----------11----------|
A#|---------------------------------|-------------------------11------|-9---9-------9---9-------9---9---|
 F|-10--10------10--10------10--10--|-----10--10------10--10----------|---------------------------------|
 C|---------------------------------|---------------------------------|---------------------------------|


 C|---------------------------------|---------------------------------|---------------------------------|
 G|---------------------------------|---------------------------------|---------------------------------|
D#|-9-----------7---------------7---|---------7-----------11----------|-9-----------7---------------7---|
A#|-----9---9-------9---9---11------|-9---9-------9---9-------9---9---|-----9---9-------9---9---11------|
 F|---------------------------------|---------------------------------|---------------------------------|
 C|---------------------------------|---------------------------------|---------------------------------|


 C|---------------------------------|---------------------------------|---------------------------------|
 G|---------------------------------|---------------------------------|---------------------------------|
D#|---------7-----------11----------|-9-----------7---------------7---|---------7-----------9---11--9---|
A#|---------------------------------|-------------------------11------|-7---7-------7---7---------------|
 F|-10--10------10--10------10--10--|-----10--10------10--10----------|---------------------------------|
 C|---------------------------------|---------------------------------|---------------------------------|


 C|--------|---------------------------------|---------------------------------|---------------------------------|
 G|--------|---------------------------------|---------------------------------|---------------------------------|
D#|-9------|---------------------------------|---------------------------------|---------------------------------|
A#|--------|---------------------------------|---------------------------------|---------------------------------|
 F|--------|---------5-----------9-----------|-7-----------5-------------------|---------5-----------9-----------|
 C|--------|-7---7-------7---7-------7---7---|-----7---7-------7---7---9---5---|-7---7-------7---7-------7---7---|


 C|---------------------------------|---------------------------------|---------------------------------|
 G|---------------------------------|---------------------------------|---------------------------------|
D#|---------------------------------|---------------------------------|---------------------------------|
A#|---------------------------------|---------------------------------|---------------------------------|
 F|-7-----------5-------------------|---------5-----------9-----------|-7-----------5-------------------|
 C|-----7---7-------7---7---9---5---|-7---7-------7---7-------7---7---|-----7---7-------7---7---9---5---|


 C|---------------------------------|---------------------------------|---------------------------------|
 G|---------------------------------|---------------------------------|---------------------------------|
D#|---------------------------------|---------------------------------|---------------------------------|
A#|---------------------------------|---------------------------------|---------------------------------|
 F|---------5-----------9-----------|-7-----------5-------------------|---------5-----------9-----------|
 C|-7---7-------7---7-------7---7---|-----7---7-------7---7---9---5---|-7---7-------7---7-------7---7---|


 C|---------------------------------|---------------------------------|---------------------------------|
 G|---------------------------------|---------------------------------|---------------------------------|
D#|---------------------------------|---------------------------------|---------------------------------|
A#|---------------------------------|---------------------------------|---------------------------------|
 F|-7-----------5-------------------|---------5-----------9-----------|-7-----------5-------------------|
 C|-----7---7-------7---7---9---5---|-7---7-------7---7-------7---7---|-----7---7-------7---7---9---5---|


 C|---------------------------------|---------------------------------|---------------------------------|
 G|---------------------------------|---------------------------------|---------------------------------|
D#|---------------------------------|---------------------------------|---------------------------------|
A#|---------------------------------|---------------------------------|---------------------------------|
 F|---------5-----------9-----------|-7-----------5-------------------|---------5-----------9-----------|
 C|-7---7-------7---7-------7---7---|-----7---7-------7---7---9---5---|-7---7-------7---7-------7---7---|


 C|---------------------------------|---------------------------------|---------------------------------|
 G|---------------------------------|---------------------------------|---------------------------------|
D#|---------------------------------|-2-----------0-------0-----------|-----------------------------2---|
A#|---------------------------------|-2-----------2-------0-------0---|-----------------------------2---|
 F|-7-----------5-------------------|-0---0---0---3---3---2---2---2---|-------------2-------3-------0---|
 C|-----7---7-------7---7---9---5---|-----------------------------3---|-3---3---3---3---3---5---0-------|


 C|---------------------------------|---------------------------------|---------------------------------|
 G|---------------------------------|---------------------------------|---------------------------------|
D#|-------------0-------0-----------|---------------------------------|-2-----------0-------0-----------|
A#|-------------2-------0-------3---|-3---3-------2---2---2---2---2---|-2-----------2-------0-------0---|
 F|-0---0---0---3---3---2---2---3---|-3---3-------2---2---2---2---2---|-0---0---0---3---3---2---2---2---|
 C|-----------------------------1---|-1---1---1---0---0---0---0---0---|-----------------------------3---|


 C|---------------------------------|---------------------------------|---------------------------------|
 G|---------------------------------|---------------------------------|---------------------------------|
D#|-----------------------------2---|-------------0-------0-----------|---------------------------------|
A#|-----------------------------2---|-------------2-------0-------3---|-3---3-------2---2---2---2---2---|
 F|-------------2-------3-------0---|-0---0---0---3---3---2---2---3---|-3---3-------2---2---2---2---2---|
 C|-3---3---3---3---3---5---0-------|-----------------------------1---|-1---1---1---0---0---0---0---0---|


 C|---------------------------------|---------------------------------|---------------------------------|
 G|---------------------------------|---------------------------------|---------------------------------|
D#|-9---9-------9---9---9---9-------|-5---5-------5---5---5---5-------|-7---7-------7---7---7---7-------|
A#|-9---9-------9---9---9---9-------|-5---5-------5---5---5---5-------|-7---7-------7---7---7---7-------|
 F|-7---7-------7---7---7---7-------|-3---3-------3---3---3---3-------|-5---5-------5---5---5---5-------|
 C|---------0-------------------0---|---------0-------------------0---|---------0-------------------0---|


 C|---------------------------------|---------------------------------|---------------------------------|
 G|---------------------------------|---------------------------------|---------------------------------|
D#|-8---8-------8---8---8---8---8---|-9---9-------9---9---9---9-------|-5---5-------5---5---5---5-------|
A#|-9---9-------9---9---9---9---9---|-9---9-------9---9---9---9-------|-5---5-------5---5---5---5-------|
 F|-6---6-------6---6---6---6---6---|-7---7-------7---7---7---7-------|-3---3-------3---3---3---3-------|
 C|---------0-----------------------|---------0-------------------0---|---------0-------------------0---|


 C|---------------------------------|---------------------------------|------------------------------|
 G|---------------------------------|---------------------------------|------0---8---10--12--8---10--|
D#|-7---7-------7---7---7---7-------|-8---8-------8---8---8---8---8---|------------------------------|
A#|-7---7-------7---7---7---7-------|-9---9-------9---9---9---9---9---|------------------------------|
 F|-5---5-------5---5---5---5-------|-6---6-------6---6---6---6---6---|------------------------------|
 C|---------0-------------------0---|---------0-----------------------|------------------------------|


 C|------------------------|------------------------------|------------------------|
 G|-10---8----7----7---8---|-8----0---8---10--12--8---10--|-10---8----7----7---8---|
D#|------------------------|------------------------------|------------------------|
A#|------------------------|------------------------------|------------------------|
 F|------------------------|------------------------------|------------------------|
 C|------------------------|------------------------------|------------------------|


 C|------------------------------|------------------------|------------------------------|
 G|-8----0---8---10--12--8---10--|-10---8----7----7---8---|-8----0---8---10--12--8---10--|
D#|------------------------------|------------------------|------------------------------|
A#|------------------------------|------------------------|------------------------------|
 F|------------------------------|------------------------|------------------------------|
 C|------------------------------|------------------------|------------------------------|


 C|------------------------|------------------------------10--12--14--|-12---0----14---0----|
 G|-10---8----7----7---8---|-8----8---10--12--10--12--13--------------|---------------------|
D#|------------------------|------------------------------------------|---------------------|
A#|------------------------|------------------------------------------|---------------------|
 F|------------------------|------------------------------------------|---------------------|
 C|------------------------|------------------------------------------|---------------------|


 C|-15---0----17---19---|-20--19-20-19-----19--19----------12--|-12--12--12------12--12--14--15--|
 G|---------------------|--------------22----------12--13------|-------------12------------------|
D#|---------------------|--------------------------------------|---------------------------------|
A#|---------------------|--------------------------------------|---------------------------------|
 F|---------------------|--------------------------------------|---------------------------------|
 C|---------------------|--------------------------------------|---------------------------------|


 C|-15--15--15------14--15--14--17--|-17--19--20--22--22--22--19--20--|-20--19-20-19-----19--19----------12--|
 G|-------------13------------------|---------------------------------|--------------22----------12--13------|
D#|---------------------------------|---------------------------------|--------------------------------------|
A#|---------------------------------|---------------------------------|--------------------------------------|
 F|---------------------------------|---------------------------------|--------------------------------------|
 C|---------------------------------|---------------------------------|--------------------------------------|


 C|-12--12--12------12--12--14--15--|-15--15--15------14--15--14--17--|-17--17--15--15--12--12------------|
 G|-------------12------------------|-------------13------------------|-------------------------13--12-12-|
D#|---------------------------------|---------------------------------|-----------------------------------|
A#|---------------------------------|---------------------------------|-----------------------------------|
 F|---------------------------------|---------------------------------|-----------------------------------|
 C|---------------------------------|---------------------------------|-----------------------------------|


 C|---------------------|------------------------------|------------------------|------------------------------|
 G|-13---12---10---8----|-8----0---8---10--12--8---10--|-10---8----7----7---8---|-8----0---8---10--12--8---10--|
D#|---------------------|------------------------------|------------------------|------------------------------|
A#|---------------------|------------------------------|------------------------|------------------------------|
 F|---------------------|------------------------------|------------------------|------------------------------|
 C|---------------------|------------------------------|------------------------|------------------------------|


 C|------------------------|------------------------------|------------------------|
 G|-10---8----7----7---8---|-8----0---8---10--12--8---10--|-10---8----7----7---8---|
D#|------------------------|------------------------------|------------------------|
A#|------------------------|------------------------------|------------------------|
 F|------------------------|------------------------------|------------------------|
 C|------------------------|------------------------------|------------------------|


 C|------------------------------|---------------------|---------------------------------|
 G|-8----0---8---10--12--8---10--|-10---8----7----7----|---------------------------------|
D#|------------------------------|---------------------|-9---9-------9---9---9---9-------|
A#|------------------------------|---------------------|-9---9-------9---9---9---9-------|
 F|------------------------------|---------------------|-7---7-------7---7---7---7-------|
 C|------------------------------|---------------------|---------0-------------------0---|


 C|---------------------------------|---------------------------------|---------------------------------|
 G|---------------------------------|---------------------------------|---------------------------------|
D#|-5---5-------5---5---5---5-------|-7---7-------7---7---7---7-------|-8---8-------8---8---8---8---8---|
A#|-5---5-------5---5---5---5-------|-7---7-------7---7---7---7-------|-9---9-------9---9---9---9---9---|
 F|-3---3-------3---3---3---3-------|-5---5-------5---5---5---5-------|-6---6-------6---6---6---6---6---|
 C|---------0-------------------0---|---------0-------------------0---|---------0-----------------------|


 C|---------------------------------|---------------------------------|---------------------------------|
 G|---------------------------------|---------------------------------|---------------------------------|
D#|-9---9-------9---9---9---9-------|-5---5-------5---5---5---5-------|-7---7-------7---7---7---7-------|
A#|-9---9-------9---9---9---9-------|-5---5-------5---5---5---5-------|-7---7-------7---7---7---7-------|
 F|-7---7-------7---7---7---7-------|-3---3-------3---3---3---3-------|-5---5-------5---5---5---5-------|
 C|---------0-------------------0---|---------0-------------------0---|---------0-------------------0---|


 C|---------------------------------|---------------------------------|------------------------------|
 G|---------------------------------|---------------------------------|------3---11--13--15--11--13--|
D#|-8---8-------8---8---8---8---8---|-8---8-------8---8---8---8---8---|------------------------------|
A#|-9---9-------9---9---9---9---9---|-9---9-------9---9---9---9---9---|------------------------------|
 F|-6---6-------6---6---6---6---6---|-6---6-------6---6---6---6---6---|------------------------------|
 C|---------0-----------------------|---------0-----------------------|------------------------------|


 C|------------------------|------------------------------|------------------------|
 G|-13---11---10---10--11--|-11---3---11--13--15--11--13--|-13---11---10---10--11--|
D#|------------------------|------------------------------|------------------------|
A#|------------------------|------------------------------|------------------------|
 F|------------------------|------------------------------|------------------------|
 C|------------------------|------------------------------|------------------------|


 C|------------------------------|------------------------|------------------------------|
 G|-11---3---11--13--15--11--13--|-13---11---10---10--11--|-11---3---11--13--15--11--13--|
D#|------------------------------|------------------------|------------------------------|
A#|------------------------------|------------------------|------------------------------|
 F|------------------------------|------------------------|------------------------------|
 C|------------------------------|------------------------|------------------------------|


 C|---------------------|---------------------------------|---------------------------------|
 G|-13---11---10---10---|---------------------------------|---------------------------------|
D#|---------------------|---------------------------------|---------------------------------|
A#|---------------------|---------3-----------7-----------|-5-----------3---------------3---|
 F|---------------------|-5---5-------5---5-------5---5---|-----5---5-------5---5---7-------|
 C|---------------------|---------------------------------|---------------------------------|


 C|---------------------------------|---------------------------------|---------------------------------|
 G|---------------------------------|---------------------------------|---------------------------------|
D#|---------------------------------|---------------------------------|---------------------------------|
A#|---------3-----------7-----------|-5-----------3---------------3---|---------3-----------7-----------|
 F|-5---5-------5---5-------5---5---|-----5---5-------5---5---7-------|-5---5-------5---5-------5---5---|
 C|---------------------------------|---------------------------------|---------------------------------|


 C|---------------------------------|---------------------------------|---------------------------------|
 G|---------------------------------|---------------------------------|---------------------------------|
D#|---------------------------------|---------------------------------|---------------------------------|
A#|-5-----------3---------------3---|---------3-----------7-----------|-5-----------3---------------3---|
 F|-----5---5-------5---5---7-------|-5---5-------5---5-------5---5---|-----5---5-------5---5---7-------|
 C|---------------------------------|---------------------------------|---------------------------------|


 C|---------------------------------|---------------------------------|---------------------------------|
 G|---------------------------------|---------------------------------|---------------------------------|
D#|---------------------------------|---------------------------------|---------------------------------|
A#|---------3-----------7-----------|-5-----------3---------------3---|---------3-----------7-----------|
 F|-5---5-------5---5-------5---5---|-----5---5-------5---5---7-------|-5---5-------5---5-------5---5---|
 C|---------------------------------|---------------------------------|---------------------------------|


 C|---------------------------------|---------------------------------|---------------------------------|
 G|---------------------------------|---------------------------------|---------------------------------|
D#|---------------------------------|---------------------------------|---------------------------------|
A#|-5-----------3---------------3---|---------3-----------7-----------|-5-----------3---------------3---|
 F|-----5---5-------5---5---7-------|-5---5-------5---5-------5---5---|-----5---5-------5---5---7-------|
 C|---------------------------------|---------------------------------|---------------------------------|


 C|---------------------------------|---------------------------------|---------------------------------|
 G|---------------------------------|---------------------------------|---------------------------------|
D#|---------------------------------|---------------------------------|-2-----------0-------0-----------|
A#|---------3-----------7-----------|-5-----------3-------------------|-2-----------2-------0-------0---|
 F|-5---5-------5---5-------5---5---|-----5---5-------5---5---7---3---|-0---0---0---3---3---2---2---2---|
 C|---------------------------------|---------------------------------|-----------------------------3---|


 C|---------------------------------|---------------------------------|---------------------------------|
 G|---------------------------------|---------------------------------|---------------------------------|
D#|-----------------------------2---|-------------0-------0-----------|---------------------------------|
A#|-----------------------------2---|-------------2-------0-------3---|-3---3-------2---2---2---2---2---|
 F|-------------2-------3-------0---|-0---0---0---3---3---2---2---3---|-3---3-------2---2---2---2---2---|
 C|-3---3---3---3---3---5---0-------|-----------------------------1---|-1---1---1---0---0---0---0---0---|


 C|---------------------------------|---------------------------------|---------------------------------|
 G|---------------------------------|---------------------------------|---------------------------------|
D#|-2-----------0-------0-----------|-----------------------------2---|-------------0-------0-----------|
A#|-2-----------2-------0-------0---|-----------------------------2---|-------------2-------0-------3---|
 F|-0---0---0---3---3---2---2---2---|-------------2-------3-------0---|-0---0---0---3---3---2---2---3---|
 C|-----------------------------3---|-3---3---3---3---3---5---0-------|-----------------------------1---|


 C|---------------------------------|---------------------------------|---------------------------------|
 G|---------------------------------|---------------------------------|---------------------------------|
D#|---------------------------------|---------------------------------|-----------------------------2---|
A#|-3---3-------2---2---2-------3---|-3---3-------2---2---2-------3---|-3---3-------2---2---2-------2---|
 F|-3---3-------2---2---2-------3---|-3---3-------2---2---2-------3---|-3---3-------2---2---2-------0---|
 C|-1---1---1---0---0---0---0---1---|-1---1---1---0---0---0---0---1---|-1---1---1---0---0---0---0-------|


 C|---------------------------------------|--------|--------|--------|--------|--------|
 G|---------------------------------------|--------|--------|--------|--------|--------|
D#|-2---------2---------2-------------2---|--------|--------|--------|--------|--------|
A#|-2---------2---------2---------5---2---|--------|--------|--------|--------|--------|
 F|-0---0--0--0---0--0--0---0--0--5---0---|--------|--------|--------|--------|--------|
 C|-------------------------------3-------|--------|--------|--------|--------|--------|


 C|--------|--------|--------|--------|--------|--------|--------|--------|--------|
 G|--------|--------|--------|--------|--------|--------|--------|--------|--------|
D#|--------|--------|--------|--------|--------|--------|--------|--------|--------|
A#|--------|--------|--------|--------|--------|--------|--------|--------|--------|
 F|--------|--------|--------|--------|--------|--------|--------|--------|--------|
 C|--------|--------|--------|--------|--------|--------|--------|--------|--------|


 C|--------|----------------|---------------------------------------|---------------------------------------|
 G|--------|------------13--|-13--13-13-13--13-13-13--13-13-13--15--|-15--15-15-15--15-15-15--15-15-15------|
D#|--------|----------------|---------------------------------------|-----------------------------------12--|
A#|--------|----------------|---------------------------------------|---------------------------------------|
 F|--------|----------------|---------------------------------------|---------------------------------------|
 C|--------|----------------|---------------------------------------|---------------------------------------|


 C|---------------------------------------|---------------------------------|---------------------------------------|
 G|---------------------------------------|---------12--13--15--13--12--13--|-13--13-13-13--13-13-13--13-13-13--15--|
D#|-12--12-12-12--12-12-12--12-12-12--14--|-14--14--------------------------|---------------------------------------|
A#|---------------------------------------|---------------------------------|---------------------------------------|
 F|---------------------------------------|---------------------------------|---------------------------------------|
 C|---------------------------------------|---------------------------------|---------------------------------------|


 C|---------------------------------------|---------------------------------------|
 G|-15--15-15-15--15-15-15--15-15-15------|---------------------------------------|
D#|-----------------------------------12--|-12--12-12-12--12-12-12--12-12-12--14--|
A#|---------------------------------------|---------------------------------------|
 F|---------------------------------------|---------------------------------------|
 C|---------------------------------------|---------------------------------------|


 C|---------------------------------|------------------------------|------------------------------|
 G|---------12--13--15--13--12--13--|-13------12--13--15--13--12---|------0---8---10--12--8---10--|
D#|-14--14--------------------------|-----14-----------------------|------------------------------|
A#|---------------------------------|------------------------------|------------------------------|
 F|---------------------------------|------------------------------|------------------------------|
 C|---------------------------------|------------------------------|------------------------------|


 C|------------------------|------------------------------|------------------------|
 G|-10---8----7----7---8---|-8----0---8---10--12--8---10--|-10---8----7----7---8---|
D#|------------------------|------------------------------|------------------------|
A#|------------------------|------------------------------|------------------------|
 F|------------------------|------------------------------|------------------------|
 C|------------------------|------------------------------|------------------------|


 C|------------------------------|------------------------|------------------------------|
 G|-8----0---8---10--12--8---10--|-10---8----7----7---8---|-8----0---8---10--12--8---10--|
D#|------------------------------|------------------------|------------------------------|
A#|------------------------------|------------------------|------------------------------|
 F|------------------------------|------------------------|------------------------------|
 C|------------------------------|------------------------|------------------------------|


 C|------------------------|------------------------------10--12--14--|-12---0----------|
 G|-10---8----7----7---8---|-8----8---10--12--10--12--13--------------|-----------------|
D#|------------------------|------------------------------------------|-----------------|
A#|------------------------|------------------------------------------|-----------------|
 F|------------------------|------------------------------------------|-----------------|
 C|------------------------|------------------------------------------|-----------------|





Track 2: Lead II

 C|--------|--------|--------|--------|--------|--------|--------|--------|--------|
 G|--------|--------|--------|--------|--------|--------|--------|--------|--------|
D#|--------|--------|--------|--------|--------|--------|--------|--------|--------|
A#|--------|--------|--------|--------|--------|--------|--------|--------|--------|
 F|--------|--------|--------|--------|--------|--------|--------|--------|--------|
 C|--------|--------|--------|--------|--------|--------|--------|--------|--------|


 C|--------|--------|--------|--------|--------|--------|--------|--------|--------|
 G|--------|--------|--------|--------|--------|--------|--------|--------|--------|
D#|--------|--------|--------|--------|--------|--------|--------|--------|--------|
A#|--------|--------|--------|--------|--------|--------|--------|--------|--------|
 F|--------|--------|--------|--------|--------|--------|--------|--------|--------|
 C|--------|--------|--------|--------|--------|--------|--------|--------|--------|


 C|--------|--------|--------|--------|--------|--------|--------|--------|--------|
 G|--------|--------|--------|--------|--------|--------|--------|--------|--------|
D#|--------|--------|--------|--------|--------|--------|--------|--------|--------|
A#|--------|--------|--------|--------|--------|--------|--------|--------|--------|
 F|--------|--------|--------|--------|--------|--------|-5------|-5------|-2------|
 C|--------|--------|--------|--------|--------|--------|--------|--------|--------|


 C|--------|--------|--------|--------|--------|--------|--------|--------|--------|
 G|--------|--------|--------|--------|--------|--------|--------|--------|--------|
D#|--------|--------|--------|--------|--------|--------|--------|--------|--------|
A#|--------|--------|--------|--------|--------|--------|--------|--------|--------|
 F|-4------|-5------|-5------|-2------|-4------|--------|--------|--------|--------|
 C|--------|--------|--------|--------|--------|--------|--------|--------|--------|


 C|--------|--------|--------|--------|--------|--------|--------|--------|--------|
 G|--------|--------|--------|--------|--------|--------|--------|--------|--------|
D#|--------|--------|--------|--------|--------|--------|--------|--------|--------|
A#|--------|--------|--------|--------|--------|--------|--------|--------|--------|
 F|--------|--------|--------|--------|--------|--------|--------|--------|--------|
 C|--------|--------|--------|--------|--------|--------|--------|--------|--------|


 C|--------|--------|--------|------------------------------|------------------------|
 G|--------|--------|--------|------0---12--13--15--12--13--|-13---12---10-----------|
D#|--------|--------|--------|------------------------------|----------------7---9---|
A#|--------|--------|--------|------------------------------|------------------------|
 F|--------|--------|--------|------------------------------|------------------------|
 C|--------|--------|--------|------------------------------|------------------------|


 C|------------------------------|------------------------|------------------------------|
 G|------------------------------|----------------10------|------0---12--13--15--12--13--|
D#|-9----0---9---11--12--9---11--|-11---9----7--------9---|-9----------------------------|
A#|------------------------------|------------------------|------------------------------|
 F|------------------------------|------------------------|------------------------------|
 C|------------------------------|------------------------|------------------------------|


 C|------------------------|------------------------------|------------------------|
 G|-13---12---10-----------|------------------------------|----------------10------|
D#|----------------7---9---|-9----0---9---11--12--9---11--|-11---9----7--------9---|
A#|------------------------|------------------------------|------------------------|
 F|------------------------|------------------------------|------------------------|
 C|------------------------|------------------------------|------------------------|


 C|------------------------------------------|---------------------|---------------------|
 G|------------------------------12--13--15--|-13---0----15---0----|-17---0----19---20---|
D#|-9----9---11--12--11--12--14--------------|---------------------|---------------------|
A#|------------------------------------------|---------------------|---------------------|
 F|------------------------------------------|---------------------|---------------------|
 C|------------------------------------------|---------------------|---------------------|


 C|---------------------------------|-------------|--------|----------------|--------------------------------------|
 G|-22--20--19----------------------|-------------|--------|--------20--22--|-22--20-22-20-19--20--20----------13--|
D#|-------------21--20--------------|-------------|--------|----------------|--------------------------12--14------|
A#|---------------------21--19--17--|-17----------|--------|----------------|--------------------------------------|
 F|---------------------------------|-------------|--------|----------------|--------------------------------------|
 C|---------------------------------|-------------|--------|----------------|--------------------------------------|


 C|---------------------------------|-------------15--17--19--20--22--|-22--20--19--19--15--15--17--15-15-|
 G|-13--13--13------13--13--15--17--|-17--17--17----------------------|-----------------------------------|
D#|-------------12------------------|---------------------------------|-----------------------------------|
A#|---------------------------------|---------------------------------|-----------------------------------|
 F|---------------------------------|---------------------------------|-----------------------------------|
 C|---------------------------------|---------------------------------|-----------------------------------|


 C|-17---15---14---12---|-12---0-----------------------|------------------------|------------------------------|
 G|---------------------|----------12--13--15--12--13--|-13---12---10-----------|------------------------------|
D#|---------------------|------------------------------|----------------7---9---|-9----0---9---11--12--9---11--|
A#|---------------------|------------------------------|------------------------|------------------------------|
 F|---------------------|------------------------------|------------------------|------------------------------|
 C|---------------------|------------------------------|------------------------|------------------------------|


 C|------------------------|------------------------------|------------------------|
 G|----------------10------|------0---12--13--15--12--13--|-13---12---10-----------|
D#|-11---9----7--------9---|-9----------------------------|----------------7---9---|
A#|------------------------|------------------------------|------------------------|
 F|------------------------|------------------------------|------------------------|
 C|------------------------|------------------------------|------------------------|


 C|------------------------------|---------------------|--------|--------|--------|
 G|------------------------------|----------------10---|--------|--------|--------|
D#|-9----0---9---11--12--9---11--|-11---9----7---------|--------|--------|--------|
A#|------------------------------|---------------------|--------|--------|--------|
 F|------------------------------|---------------------|--------|--------|--------|
 C|------------------------------|---------------------|--------|--------|--------|


 C|--------|--------|--------|--------|--------|--------|------------------------------|
 G|--------|--------|--------|--------|--------|--------|------3---15--16--18--15--16--|
D#|--------|--------|--------|--------|--------|--------|------------------------------|
A#|--------|--------|--------|--------|--------|--------|------------------------------|
 F|--------|--------|--------|--------|--------|--------|------------------------------|
 C|--------|--------|--------|--------|--------|--------|------------------------------|


 C|------------------------|------------------------------|------------------------|
 G|-16---15---13-----------|------------------------------|----------------13------|
D#|----------------10--12--|-12---3---12--14--15--12--14--|-14---12---10-------12--|
A#|------------------------|------------------------------|------------------------|
 F|------------------------|------------------------------|------------------------|
 C|------------------------|------------------------------|------------------------|


 C|------------------------------|------------------------|------------------------------|
 G|------3---15--16--18--15--16--|-16---15---13-----------|------------------------------|
D#|-12---------------------------|----------------10--12--|-12---3---12--14--15--12--14--|
A#|------------------------------|------------------------|------------------------------|
 F|------------------------------|------------------------|------------------------------|
 C|------------------------------|------------------------|------------------------------|


 C|---------------------|---------------------------------|---------------------------------|
 G|----------------13---|---------------------------------|---------------------------------|
D#|-14---12---10--------|---------------------------------|---------------------------------|
A#|---------------------|---------------------------------|---------------------------------|
 F|---------------------|---------5-----------8-----------|-7-----------5---------------5---|
 C|---------------------|-7---7-------7---7-------7---7---|-----7---7-------7---7---8-------|


 C|---------------------------------|---------------------------------|---------------------------------|
 G|---------------------------------|---------------------------------|---------------------------------|
D#|---------------------------------|---------------------------------|---------------------------------|
A#|---------------------------------|---------------------------------|---------------------------------|
 F|---------5-----------8-----------|-7-----------5---------------5---|---------5-----------8-----------|
 C|-7---7-------7---7-------7---7---|-----7---7-------7---7---8-------|-7---7-------7---7-------7---7---|


 C|---------------------------------|---------------------------------|---------------------------------|
 G|---------------------------------|---------------------------------|---------------------------------|
D#|---------------------------------|---------------------------------|---------------------------------|
A#|---------------------------------|---------------------------------|---------------------------------|
 F|-7-----------5---------------5---|---------5-----------8-----------|-7-----------5---------------5---|
 C|-----7---7-------7---7---8-------|-7---7-------7---7-------7---7---|-----7---7-------7---7---8-------|


 C|---------------------------------|---------------------------------|---------------------------------|
 G|---------------------------------|---------------------------------|---------------------------------|
D#|---------------------------------|---------------------------------|---------------------------------|
A#|---------------------------------|---------------------------------|---------------------------------|
 F|---------5-----------8-----------|-7-----------5---------------5---|---------5-----------8-----------|
 C|-7---7-------7---7-------7---7---|-----7---7-------7---7---8-------|-7---7-------7---7-------7---7---|


 C|---------------------------------|---------------------------------|---------------------------------|
 G|---------------------------------|---------------------------------|---------------------------------|
D#|---------------------------------|---------------------------------|---------------------------------|
A#|---------------------------------|---------------------------------|---------------------------------|
 F|-7-----------5---------------5---|---------5-----------8-----------|-7-----------5---------------5---|
 C|-----7---7-------7---7---8-------|-7---7-------7---7-------7---7---|-----7---7-------7---7---8-------|


 C|---------------------------------|---------------------------------|--------|--------|
 G|---------------------------------|---------------------------------|--------|--------|
D#|---------------------------------|---------------------------------|--------|--------|
A#|---------------------------------|---------------------------------|--------|--------|
 F|---------5-----------8-----------|-7-----------5-------------------|--------|--------|
 C|-7---7-------7---7-------7---7---|-----7---7-------7---7---8---5---|--------|--------|


 C|--------|--------|--------|--------|--------|--------|--------|--------|--------|
 G|--------|--------|--------|--------|--------|--------|--------|--------|--------|
D#|--------|--------|--------|--------|--------|--------|--------|--------|--------|
A#|--------|--------|--------|--------|--------|--------|--------|--------|--------|
 F|--------|--------|--------|--------|--------|--------|--------|--------|--------|
 C|--------|--------|--------|--------|--------|--------|--------|--------|--------|


 C|--------|--------|--------|--------|--------|--------|--------|--------|--------|
 G|--------|--------|--------|--------|--------|--------|--------|--------|--------|
D#|--------|--------|--------|--------|--------|--------|--------|--------|--------|
A#|--------|--------|--------|--------|--------|--------|--------|--------|--------|
 F|--------|--------|--------|--------|--------|--------|--------|--------|--------|
 C|--------|--------|--------|--------|--------|--------|--------|--------|--------|


 C|--------|--------|--------|--------|--------|--------|------------12--|-12------------------------------------|
 G|--------|--------|--------|--------|--------|--------|----------------|-----10-10-10--10-10-10--10-10-10--12--|
D#|--------|--------|--------|--------|--------|--------|----------------|---------------------------------------|
A#|--------|--------|--------|--------|--------|--------|----------------|---------------------------------------|
 F|--------|--------|--------|--------|--------|--------|----------------|---------------------------------------|
 C|--------|--------|--------|--------|--------|--------|----------------|---------------------------------------|


 C|---------------------------------------|---------------------------------------|
 G|-12--12-12-12--12-12-12--12-12-12--13--|-13--13-13-13--13-13-13--13-13-13--13--|
D#|---------------------------------------|---------------------------------------|
A#|---------------------------------------|---------------------------------------|
 F|---------------------------------------|---------------------------------------|
 C|---------------------------------------|---------------------------------------|


 C|---------10--12--13--12--10--12--|-12--12-12-12--12-12-12--12-12-12--13--|-13--13-13-13--13-13-13--13-13-13--15--|
 G|-13--13--------------------------|---------------------------------------|---------------------------------------|
D#|---------------------------------|---------------------------------------|---------------------------------------|
A#|---------------------------------|---------------------------------------|---------------------------------------|
 F|---------------------------------|---------------------------------------|---------------------------------------|
 C|---------------------------------|---------------------------------------|---------------------------------------|


 C|-15--15-15-15--15-15-15--13-13-13--12--|-12------10--12--13--12--10--12--|-12------10--12--13--12--10---|
 G|---------------------------------------|-----13--------------------------|-----13-----------------------|
D#|---------------------------------------|---------------------------------|------------------------------|
A#|---------------------------------------|---------------------------------|------------------------------|
 F|---------------------------------------|---------------------------------|------------------------------|
 C|---------------------------------------|---------------------------------|------------------------------|


 C|------------------------------|------------------------|------------------------------|
 G|------0---12--13--15--12--13--|-13---12---10-----------|------------------------------|
D#|------------------------------|----------------7---9---|-9----0---9---11--12--9---11--|
A#|------------------------------|------------------------|------------------------------|
 F|------------------------------|------------------------|------------------------------|
 C|------------------------------|------------------------|------------------------------|


 C|------------------------|------------------------------|------------------------|
 G|----------------10------|------0---12--13--15--12--13--|-13---12---10-----------|
D#|-11---9----7--------9---|-9----------------------------|----------------7---9---|
A#|------------------------|------------------------------|------------------------|
 F|------------------------|------------------------------|------------------------|
 C|------------------------|------------------------------|------------------------|


 C|------------------------------|------------------------|------------------------------------------|
 G|------------------------------|----------------10------|------------------------------12--13--15--|
D#|-9----0---9---11--12--9---11--|-11---9----7--------9---|-9----9---11--12--11--12--14--------------|
A#|------------------------------|------------------------|------------------------------------------|
 F|------------------------------|------------------------|------------------------------------------|
 C|------------------------------|------------------------|------------------------------------------|


 C|-----------------|
 G|-13---0----------|
D#|-----------------|
A#|-----------------|
 F|-----------------|
 C|-----------------|





Track 3: Acoustic III

 C|--------|--------|--------|--------|--------|--------|--------|--------|--------|
 G|--------|--------|--------|--------|--------|--------|--------|--------|--------|
D#|--------|--------|--------|--------|--------|--------|--------|--------|--------|
A#|--------|--------|--------|--------|--------|--------|--------|--------|--------|
 F|--------|--------|--------|--------|--------|--------|--------|--------|--------|
 C|--------|--------|--------|--------|--------|--------|--------|--------|--------|


 C|--------|--------|--------|--------|--------|--------|--------|--------|--------|
 G|--------|--------|--------|--------|--------|--------|--------|--------|--------|
D#|--------|--------|--------|--------|--------|--------|--------|--------|--------|
A#|--------|--------|--------|--------|--------|--------|--------|--------|--------|
 F|--------|--------|--------|--------|--------|--------|--------|--------|--------|
 C|--------|--------|--------|--------|--------|--------|--------|--------|--------|


 C|--------|--------|--------|--------|--------|--------|--------|--------|--------|
 G|--------|--------|--------|--------|--------|--------|--------|--------|--------|
D#|--------|--------|--------|--------|--------|--------|--------|--------|--------|
A#|--------|--------|--------|--------|--------|--------|--------|--------|--------|
 F|--------|--------|--------|--------|--------|--------|--------|--------|--------|
 C|--------|--------|--------|--------|--------|--------|--------|--------|--------|


 C|--------|--------|--------|--------|--------|--------|--------|--------|--------|
 G|--------|--------|--------|--------|--------|--------|--------|--------|--------|
D#|--------|--------|--------|--------|--------|--------|--------|--------|--------|
A#|--------|--------|--------|--------|--------|--------|--------|--------|--------|
 F|--------|--------|--------|--------|--------|--------|--------|--------|--------|
 C|--------|--------|--------|--------|--------|--------|--------|--------|--------|


 C|--------|--------|--------|--------|--------|--------|--------|--------|--------|
 G|--------|--------|--------|--------|--------|--------|--------|--------|--------|
D#|--------|--------|--------|--------|--------|--------|--------|--------|--------|
A#|--------|--------|--------|--------|--------|--------|--------|--------|--------|
 F|--------|--------|--------|--------|--------|--------|--------|--------|--------|
 C|--------|--------|--------|--------|--------|--------|--------|--------|--------|


 C|--------|--------|--------|--------|--------|--------|--------|--------|--------|
 G|--------|--------|--------|--------|--------|--------|--------|--------|--------|
D#|--------|--------|--------|--------|--------|--------|--------|--------|--------|
A#|--------|--------|--------|--------|--------|--------|--------|--------|--------|
 F|--------|--------|--------|--------|--------|--------|--------|--------|--------|
 C|--------|--------|--------|--------|--------|--------|--------|--------|--------|


 C|--------|--------|--------|--------|--------|--------|--------|--------|--------|
 G|--------|--------|--------|--------|--------|--------|--------|--------|--------|
D#|--------|--------|--------|--------|--------|--------|--------|--------|--------|
A#|--------|--------|--------|--------|--------|--------|--------|--------|--------|
 F|--------|--------|--------|--------|--------|--------|--------|--------|--------|
 C|--------|--------|--------|--------|--------|--------|--------|--------|--------|


 C|--------|--------|--------|--------|--------|--------|--------|--------|--------|
 G|--------|--------|--------|--------|--------|--------|--------|--------|--------|
D#|--------|--------|--------|--------|--------|--------|--------|--------|--------|
A#|--------|--------|--------|--------|--------|--------|--------|--------|--------|
 F|--------|--------|--------|--------|--------|--------|--------|--------|--------|
 C|--------|--------|--------|--------|--------|--------|--------|--------|--------|


 C|--------|--------|--------|--------|--------|--------|--------|--------|--------|
 G|--------|--------|--------|--------|--------|--------|--------|--------|--------|
D#|--------|--------|--------|--------|--------|--------|--------|--------|--------|
A#|--------|--------|--------|--------|--------|--------|--------|--------|--------|
 F|--------|--------|--------|--------|--------|--------|--------|--------|--------|
 C|--------|--------|--------|--------|--------|--------|--------|--------|--------|


 C|--------|--------|--------|--------|--------|--------|--------|--------|--------|
 G|--------|--------|--------|--------|--------|--------|--------|--------|--------|
D#|--------|--------|--------|--------|--------|--------|--------|--------|--------|
A#|--------|--------|--------|--------|--------|--------|--------|--------|--------|
 F|--------|--------|--------|--------|--------|--------|--------|--------|--------|
 C|--------|--------|--------|--------|--------|--------|--------|--------|--------|


 C|--------|--------|--------|--------|--------|--------|--------|--------|--------|
 G|--------|--------|--------|--------|--------|--------|--------|--------|--------|
D#|--------|--------|--------|--------|--------|--------|--------|--------|--------|
A#|--------|--------|--------|--------|--------|--------|--------|--------|--------|
 F|--------|--------|--------|--------|--------|--------|--------|--------|--------|
 C|--------|--------|--------|--------|--------|--------|--------|--------|--------|


 C|--------|--------|--------|--------|--------|--------|--------|--------|--------|
 G|--------|--------|--------|--------|--------|--------|--------|--------|--------|
D#|--------|--------|--------|--------|--------|--------|--------|--------|--------|
A#|--------|--------|--------|--------|--------|--------|--------|--------|--------|
 F|--------|--------|--------|--------|--------|--------|--------|--------|--------|
 C|--------|--------|--------|--------|--------|--------|--------|--------|--------|


 C|--------|--------|--------|--------|--------|--------|--------|--------|--------|
 G|--------|--------|--------|--------|--------|--------|--------|--------|--------|
D#|--------|--------|--------|--------|--------|--------|--------|--------|--------|
A#|--------|--------|--------|--------|--------|--------|--------|--------|--------|
 F|--------|--------|--------|--------|--------|--------|--------|--------|--------|
 C|--------|--------|--------|--------|--------|--------|--------|--------|--------|


 C|--------|--------|--------|-0-------------------------------|-0-------------------------------|
 G|--------|--------|--------|-----1---------------------------|-----1---------------------------|
D#|--------|--------|--------|---------2---------------2-------|---------0---------------0-------|
A#|--------|--------|--------|-------------2-------2-----------|-------------2-------2-----------|
 F|--------|--------|--------|-----------------0-----------3---|-----------------3---------------|
 C|--------|--------|--------|---------------------------------|-----------------------------3---|


 C|-3-------------------------------|---------------------------------|-0-------------------------------|
 G|-----3---------------------------|---------------------------------|-----1---------------------------|
D#|---------0---------------0-------|---------2-----------------------|---------2---------------2-------|
A#|-------------0-------0-----------|-----3-------------------0-------|-------------2-------2-----------|
 F|-----------------2---------------|-3-------------------2-------0---|-----------------0-----------3---|
 C|-----------------------------1---|-------------1---3---------------|---------------------------------|


 C|-0-------------------------------|-3-------------------------------|---------------------------------|
 G|-----1---------------------------|-----3---------------------------|---------------------------------|
D#|---------0---------------0-------|---------0---------------0-------|---------2-----------------------|
A#|-------------2-------2-----------|-------------0-------0-----------|-----3-------------------0-------|
 F|-----------------3---------------|-----------------2---------------|-3-------------------2-------0---|
 C|-----------------------------3---|-----------------------------1---|-------------1---3---------------|


 C|-0-------------------------------|-0-------------------------------|-3-------------------------------|
 G|-----1---------------------------|-----1---------------------------|-----3---------------------------|
D#|---------2---------------2-------|---------0---------------0-------|---------0---------------0-------|
A#|-------------2-------2-----------|-------------2-------2-----------|-------------0-------0-----------|
 F|-----------------0-----------3---|-----------------3---------------|-----------------2---------------|
 C|---------------------------------|-----------------------------3---|-----------------------------1---|


 C|---------------------------------|-0-------------------------------|-0-------------------------------|
 G|---------------------------------|-----1---------------------------|-----1---------------------------|
D#|---------2-----------------------|---------2---------------2-------|---------0---------------0-------|
A#|-----3-------------------0-------|-------------2-------2-----------|-------------2-------2-----------|
 F|-3-------------------2-------0---|-----------------0-----------3---|-----------------3---------------|
 C|-------------1---3---------------|---------------------------------|-----------------------------3---|


 C|-3-------------------------------|---------------------------------|--------|--------|
 G|-----3---------------------------|---------------------------------|--------|--------|
D#|---------0---------------0-------|---------2-----------------------|--------|--------|
A#|-------------0-------0-----------|-----3-------------------0-------|--------|--------|
 F|-----------------2---------------|-3-------------------2-----------|--------|--------|
 C|-----------------------------1---|-------------1---3---------------|--------|--------|


 C|--------|--------|--------|--------|--------|--------|--------|--------|--------|
 G|--------|--------|--------|--------|--------|--------|--------|--------|--------|
D#|--------|--------|--------|--------|--------|--------|--------|--------|--------|
A#|--------|--------|--------|--------|--------|--------|--------|--------|--------|
 F|--------|--------|--------|--------|--------|--------|--------|--------|--------|
 C|--------|--------|--------|--------|--------|--------|--------|--------|--------|


 C|--------|--------|--------|--------|--------|--------|--------|--------|
 G|--------|--------|--------|--------|--------|--------|--------|--------|
D#|--------|--------|--------|--------|--------|--------|--------|--------|
A#|--------|--------|--------|--------|--------|--------|--------|--------|
 F|--------|--------|--------|--------|--------|--------|--------|--------|
 C|--------|--------|--------|--------|--------|--------|--------|--------|





Track 4: Acoustic I

 C|--------|--------|--------|--------|--------|--------|--------|--------|--------|
 G|--------|--------|--------|--------|--------|--------|--------|--------|--------|
D#|--------|--------|--------|--------|--------|--------|--------|--------|--------|
A#|--------|--------|--------|--------|--------|--------|--------|--------|--------|
 F|--------|--------|--------|--------|--------|--------|--------|--------|--------|
 C|--------|--------|--------|--------|--------|--------|--------|--------|--------|


 C|--------|--------|--------|--------|--------|--------|--------|--------|--------|
 G|--------|--------|--------|--------|--------|--------|--------|--------|--------|
D#|--------|--------|--------|--------|--------|--------|--------|--------|--------|
A#|--------|--------|--------|--------|--------|--------|--------|--------|--------|
 F|--------|--------|--------|--------|--------|--------|--------|--------|--------|
 C|--------|--------|--------|--------|--------|--------|--------|--------|--------|


 C|--------|--------|--------|--------|--------|--------|--------|--------|--------|
 G|--------|--------|--------|--------|--------|--------|--------|--------|--------|
D#|--------|--------|--------|--------|--------|--------|--------|--------|--------|
A#|--------|--------|--------|--------|--------|--------|--------|--------|--------|
 F|--------|--------|--------|--------|--------|--------|--------|--------|--------|
 C|--------|--------|--------|--------|--------|--------|--------|--------|--------|


 C|--------|--------|--------|--------|--------|--------|--------|--------|--------|
 G|--------|--------|--------|--------|--------|--------|--------|--------|--------|
D#|--------|--------|--------|--------|--------|--------|--------|--------|--------|
A#|--------|--------|--------|--------|--------|--------|--------|--------|--------|
 F|--------|--------|--------|--------|--------|--------|--------|--------|--------|
 C|--------|--------|--------|--------|--------|--------|--------|--------|--------|


 C|--------|--------|--------|--------|--------|--------|--------|--------|--------|
 G|--------|--------|--------|--------|--------|--------|--------|--------|--------|
D#|--------|--------|--------|--------|--------|--------|--------|--------|--------|
A#|--------|--------|--------|--------|--------|--------|--------|--------|--------|
 F|--------|--------|--------|--------|--------|--------|--------|--------|--------|
 C|--------|--------|--------|--------|--------|--------|--------|--------|--------|


 C|--------|--------|--------|--------|--------|--------|--------|--------|--------|
 G|--------|--------|--------|--------|--------|--------|--------|--------|--------|
D#|--------|--------|--------|--------|--------|--------|--------|--------|--------|
A#|--------|--------|--------|--------|--------|--------|--------|--------|--------|
 F|--------|--------|--------|--------|--------|--------|--------|--------|--------|
 C|--------|--------|--------|--------|--------|--------|--------|--------|--------|


 C|--------|--------|--------|--------|--------|--------|--------|--------|--------|
 G|--------|--------|--------|--------|--------|--------|--------|--------|--------|
D#|--------|--------|--------|--------|--------|--------|--------|--------|--------|
A#|--------|--------|--------|--------|--------|--------|--------|--------|--------|
 F|--------|--------|--------|--------|--------|--------|--------|--------|--------|
 C|--------|--------|--------|--------|--------|--------|--------|--------|--------|


 C|--------|--------|--------|--------|--------|--------|--------|--------|--------|
 G|--------|--------|--------|--------|--------|--------|--------|--------|--------|
D#|--------|--------|--------|--------|--------|--------|--------|--------|--------|
A#|--------|--------|--------|--------|--------|--------|--------|--------|--------|
 F|--------|--------|--------|--------|--------|--------|--------|--------|--------|
 C|--------|--------|--------|--------|--------|--------|--------|--------|--------|


 C|--------|--------|--------|--------|--------|--------|--------|--------|--------|
 G|--------|--------|--------|--------|--------|--------|--------|--------|--------|
D#|--------|--------|--------|--------|--------|--------|--------|--------|--------|
A#|--------|--------|--------|--------|--------|--------|--------|--------|--------|
 F|--------|--------|--------|--------|--------|--------|--------|--------|--------|
 C|--------|--------|--------|--------|--------|--------|--------|--------|--------|


 C|--------|--------|--------|--------|--------|--------|--------|--------|--------|
 G|--------|--------|--------|--------|--------|--------|--------|--------|--------|
D#|--------|--------|--------|--------|--------|--------|--------|--------|--------|
A#|--------|--------|--------|--------|--------|--------|--------|--------|--------|
 F|--------|--------|--------|--------|--------|--------|--------|--------|--------|
 C|--------|--------|--------|--------|--------|--------|--------|--------|--------|


 C|--------|--------|--------|--------|--------|--------|--------|--------|--------|
 G|--------|--------|--------|--------|--------|--------|--------|--------|--------|
D#|--------|--------|--------|--------|--------|--------|--------|--------|--------|
A#|--------|--------|--------|--------|--------|--------|--------|--------|--------|
 F|--------|--------|--------|--------|--------|--------|--------|--------|--------|
 C|--------|--------|--------|--------|--------|--------|--------|--------|--------|


 C|--------|--------|--------|--------|--------|--------|--------|--------|--------|
 G|--------|--------|--------|--------|--------|--------|--------|--------|--------|
D#|--------|--------|--------|--------|--------|--------|--------|--------|--------|
A#|--------|--------|--------|--------|--------|--------|--------|--------|--------|
 F|--------|--------|--------|--------|--------|--------|--------|--------|--------|
 C|--------|--------|--------|--------|--------|--------|--------|--------|--------|


 C|--------|--------|--------|--------|--------|--------|--------|--------|--------|
 G|--------|--------|--------|--------|--------|--------|--------|--------|--------|
D#|--------|--------|--------|--------|--------|--------|--------|--------|--------|
A#|--------|--------|--------|--------|--------|--------|--------|--------|--------|
 F|--------|--------|--------|--------|--------|--------|--------|--------|--------|
 C|--------|--------|--------|--------|--------|--------|--------|--------|--------|


 C|--------|--------|--------|--------|--------|--------|--------|--------|--------|
 G|--------|--------|--------|--------|--------|--------|--------|--------|--------|
D#|--------|--------|--------|--------|--------|--------|--------|--------|--------|
A#|--------|--------|--------|--------|--------|--------|--------|--------|--------|
 F|--------|--------|--------|--------|--------|--------|--------|--------|--------|
 C|--------|--------|--------|--------|--------|--------|--------|--------|--------|


 C|--------|----------------|---------------------------------------|---------------------------------------|
 G|--------|------------13--|-13--13-13-13--13-13-13--13-13-13--15--|-15--15-15-15--15-15-15--15-15-15------|
D#|--------|----------------|---------------------------------------|-----------------------------------12--|
A#|--------|----------------|---------------------------------------|---------------------------------------|
 F|--------|----------------|---------------------------------------|---------------------------------------|
 C|--------|----------------|---------------------------------------|---------------------------------------|


 C|---------------------------------------|---------------------------------|---------------------------------------|
 G|---------------------------------------|---------12--13--15--13--12--13--|-13--13-13-13--13-13-13--13-13-13--15--|
D#|-12--12-12-12--12-12-12--12-12-12--14--|-14--14--------------------------|---------------------------------------|
A#|---------------------------------------|---------------------------------|---------------------------------------|
 F|---------------------------------------|---------------------------------|---------------------------------------|
 C|---------------------------------------|---------------------------------|---------------------------------------|


 C|---------------------------------------|---------------------------------------|
 G|-15--15-15-15--15-15-15--15-15-15------|---------------------------------------|
D#|-----------------------------------12--|-12--12-12-12--12-12-12--12-12-12--14--|
A#|---------------------------------------|---------------------------------------|
 F|---------------------------------------|---------------------------------------|
 C|---------------------------------------|---------------------------------------|


 C|---------------------------------|--------|--------|--------|--------|--------|
 G|---------12--13--15--13--12------|--------|--------|--------|--------|--------|
D#|-14--14--------------------------|--------|--------|--------|--------|--------|
A#|---------------------------------|--------|--------|--------|--------|--------|
 F|---------------------------------|--------|--------|--------|--------|--------|
 C|---------------------------------|--------|--------|--------|--------|--------|


 C|--------|--------|--------|--------|--------|--------|--------|--------|--------|
 G|--------|--------|--------|--------|--------|--------|--------|--------|--------|
D#|--------|--------|--------|--------|--------|--------|--------|--------|--------|
A#|--------|--------|--------|--------|--------|--------|--------|--------|--------|
 F|--------|--------|--------|--------|--------|--------|--------|--------|--------|
 C|--------|--------|--------|--------|--------|--------|--------|--------|--------|


 C|--------|--------|--------|--------|--------|
 G|--------|--------|--------|--------|--------|
D#|--------|--------|--------|--------|--------|
A#|--------|--------|--------|--------|--------|
 F|--------|--------|--------|--------|--------|
 C|--------|--------|--------|--------|--------|





Track 5: Acoustic II

 C|--------|--------|--------|--------|--------|--------|--------|--------|--------|
 G|--------|--------|--------|--------|--------|--------|--------|--------|--------|
D#|--------|--------|--------|--------|--------|--------|--------|--------|--------|
A#|--------|--------|--------|--------|--------|--------|--------|--------|--------|
 F|--------|--------|--------|--------|--------|--------|--------|--------|--------|
 C|--------|--------|--------|--------|--------|--------|--------|--------|--------|


 C|--------|--------|--------|--------|--------|--------|--------|--------|--------|
 G|--------|--------|--------|--------|--------|--------|--------|--------|--------|
D#|--------|--------|--------|--------|--------|--------|--------|--------|--------|
A#|--------|--------|--------|--------|--------|--------|--------|--------|--------|
 F|--------|--------|--------|--------|--------|--------|--------|--------|--------|
 C|--------|--------|--------|--------|--------|--------|--------|--------|--------|


 C|--------|--------|--------|--------|--------|--------|--------|--------|--------|
 G|--------|--------|--------|--------|--------|--------|--------|--------|--------|
D#|--------|--------|--------|--------|--------|--------|--------|--------|--------|
A#|--------|--------|--------|--------|--------|--------|--------|--------|--------|
 F|--------|--------|--------|--------|--------|--------|--------|--------|--------|
 C|--------|--------|--------|--------|--------|--------|--------|--------|--------|


 C|--------|--------|--------|--------|--------|--------|--------|--------|--------|
 G|--------|--------|--------|--------|--------|--------|--------|--------|--------|
D#|--------|--------|--------|--------|--------|--------|--------|--------|--------|
A#|--------|--------|--------|--------|--------|--------|--------|--------|--------|
 F|--------|--------|--------|--------|--------|--------|--------|--------|--------|
 C|--------|--------|--------|--------|--------|--------|--------|--------|--------|


 C|--------|--------|--------|--------|--------|--------|--------|--------|--------|
 G|--------|--------|--------|--------|--------|--------|--------|--------|--------|
D#|--------|--------|--------|--------|--------|--------|--------|--------|--------|
A#|--------|--------|--------|--------|--------|--------|--------|--------|--------|
 F|--------|--------|--------|--------|--------|--------|--------|--------|--------|
 C|--------|--------|--------|--------|--------|--------|--------|--------|--------|


 C|--------|--------|--------|--------|--------|--------|--------|--------|--------|
 G|--------|--------|--------|--------|--------|--------|--------|--------|--------|
D#|--------|--------|--------|--------|--------|--------|--------|--------|--------|
A#|--------|--------|--------|--------|--------|--------|--------|--------|--------|
 F|--------|--------|--------|--------|--------|--------|--------|--------|--------|
 C|--------|--------|--------|--------|--------|--------|--------|--------|--------|


 C|--------|--------|--------|--------|--------|--------|--------|--------|--------|
 G|--------|--------|--------|--------|--------|--------|--------|--------|--------|
D#|--------|--------|--------|--------|--------|--------|--------|--------|--------|
A#|--------|--------|--------|--------|--------|--------|--------|--------|--------|
 F|--------|--------|--------|--------|--------|--------|--------|--------|--------|
 C|--------|--------|--------|--------|--------|--------|--------|--------|--------|


 C|--------|--------|--------|--------|--------|--------|--------|--------|--------|
 G|--------|--------|--------|--------|--------|--------|--------|--------|--------|
D#|--------|--------|--------|--------|--------|--------|--------|--------|--------|
A#|--------|--------|--------|--------|--------|--------|--------|--------|--------|
 F|--------|--------|--------|--------|--------|--------|--------|--------|--------|
 C|--------|--------|--------|--------|--------|--------|--------|--------|--------|


 C|--------|--------|--------|--------|--------|--------|--------|--------|--------|
 G|--------|--------|--------|--------|--------|--------|--------|--------|--------|
D#|--------|--------|--------|--------|--------|--------|--------|--------|--------|
A#|--------|--------|--------|--------|--------|--------|--------|--------|--------|
 F|--------|--------|--------|--------|--------|--------|--------|--------|--------|
 C|--------|--------|--------|--------|--------|--------|--------|--------|--------|


 C|--------|--------|--------|--------|--------|--------|--------|--------|--------|
 G|--------|--------|--------|--------|--------|--------|--------|--------|--------|
D#|--------|--------|--------|--------|--------|--------|--------|--------|--------|
A#|--------|--------|--------|--------|--------|--------|--------|--------|--------|
 F|--------|--------|--------|--------|--------|--------|--------|--------|--------|
 C|--------|--------|--------|--------|--------|--------|--------|--------|--------|


 C|--------|--------|--------|--------|--------|--------|--------|--------|--------|
 G|--------|--------|--------|--------|--------|--------|--------|--------|--------|
D#|--------|--------|--------|--------|--------|--------|--------|--------|--------|
A#|--------|--------|--------|--------|--------|--------|--------|--------|--------|
 F|--------|--------|--------|--------|--------|--------|--------|--------|--------|
 C|--------|--------|--------|--------|--------|--------|--------|--------|--------|


 C|--------|--------|--------|--------|--------|--------|--------|--------|--------|
 G|--------|--------|--------|--------|--------|--------|--------|--------|--------|
D#|--------|--------|--------|--------|--------|--------|--------|--------|--------|
A#|--------|--------|--------|--------|--------|--------|--------|--------|--------|
 F|--------|--------|--------|--------|--------|--------|--------|--------|--------|
 C|--------|--------|--------|--------|--------|--------|--------|--------|--------|


 C|--------|--------|--------|--------|--------|--------|--------|--------|--------|
 G|--------|--------|--------|--------|--------|--------|--------|--------|--------|
D#|--------|--------|--------|--------|--------|--------|--------|--------|--------|
A#|--------|--------|--------|--------|--------|--------|--------|--------|--------|
 F|--------|--------|--------|--------|--------|--------|--------|--------|--------|
 C|--------|--------|--------|--------|--------|--------|--------|--------|--------|


 C|--------|--------|--------|--------|--------|--------|--------|--------|--------|
 G|--------|--------|--------|--------|--------|--------|--------|--------|--------|
D#|--------|--------|--------|--------|--------|--------|--------|--------|--------|
A#|--------|--------|--------|--------|--------|--------|--------|--------|--------|
 F|--------|--------|--------|--------|--------|--------|--------|--------|--------|
 C|--------|--------|--------|--------|--------|--------|--------|--------|--------|


 C|--------|--------|--------|--------|--------|----------------|---------------------------------------|
 G|--------|--------|--------|--------|--------|------------10--|-10--10-10-10--10-10-10--10-10-10--12--|
D#|--------|--------|--------|--------|--------|----------------|---------------------------------------|
A#|--------|--------|--------|--------|--------|----------------|---------------------------------------|
 F|--------|--------|--------|--------|--------|----------------|---------------------------------------|
 C|--------|--------|--------|--------|--------|----------------|---------------------------------------|


 C|---------------------------------------|---------------------------------------|
 G|-12--12-12-12--12-12-12--12-12-12--13--|-13--13-13-13--13-13-13--13-13-13--13--|
D#|---------------------------------------|---------------------------------------|
A#|---------------------------------------|---------------------------------------|
 F|---------------------------------------|---------------------------------------|
 C|---------------------------------------|---------------------------------------|


 C|---------10--12--13--12--10------|--------|--------|--------|--------|--------|
 G|-13--13--------------------------|--------|--------|--------|--------|--------|
D#|---------------------------------|--------|--------|--------|--------|--------|
A#|---------------------------------|--------|--------|--------|--------|--------|
 F|---------------------------------|--------|--------|--------|--------|--------|
 C|---------------------------------|--------|--------|--------|--------|--------|


 C|--------|--------|--------|--------|--------|--------|--------|--------|--------|
 G|--------|--------|--------|--------|--------|--------|--------|--------|--------|
D#|--------|--------|--------|--------|--------|--------|--------|--------|--------|
A#|--------|--------|--------|--------|--------|--------|--------|--------|--------|
 F|--------|--------|--------|--------|--------|--------|--------|--------|--------|
 C|--------|--------|--------|--------|--------|--------|--------|--------|--------|


 C|--------|--------|--------|--------|--------|
 G|--------|--------|--------|--------|--------|
D#|--------|--------|--------|--------|--------|
A#|--------|--------|--------|--------|--------|
 F|--------|--------|--------|--------|--------|
 C|--------|--------|--------|--------|--------|





Track 6: Rhythm

 C|--------|--------|--------|--------|--------|--------|--------|--------|--------|
 G|--------|--------|--------|--------|--------|--------|--------|--------|--------|
D#|--------|--------|--------|--------|--------|--------|--------|--------|--------|
A#|--------|--------|--------|--------|--------|--------|--------|--------|--------|
 F|--------|--------|--------|--------|--------|--------|--------|--------|--------|
 C|--------|--------|--------|--------|--------|--------|--------|--------|--------|


 C|--------|--------|--------|--------|--------|--------|--------|--------|--------|
 G|--------|--------|--------|--------|--------|--------|--------|--------|--------|
D#|--------|--------|--------|--------|--------|--------|--------|--------|--------|
A#|--------|--------|--------|--------|--------|--------|--------|--------|--------|
 F|--------|--------|--------|--------|--------|--------|--------|--------|--------|
 C|--------|--------|--------|--------|--------|--------|--------|--------|--------|


 C|--------|--------|--------|--------|--------|--------|--------|--------|--------|
 G|--------|--------|--------|--------|--------|--------|--------|--------|--------|
D#|--------|--------|--------|--------|--------|--------|--------|--------|--------|
A#|--------|--------|--------|--------|--------|--------|--------|--------|--------|
 F|--------|--------|--------|--------|--------|--------|--------|--------|--------|
 C|--------|--------|--------|--------|--------|--------|--------|--------|--------|


 C|--------|--------|--------|--------|--------|--------|--------|--------|--------|
 G|--------|--------|--------|--------|--------|--------|--------|--------|--------|
D#|--------|--------|--------|--------|--------|--------|--------|--------|--------|
A#|--------|--------|--------|--------|--------|--------|--------|--------|--------|
 F|--------|--------|--------|--------|--------|--------|--------|--------|--------|
 C|--------|--------|--------|--------|--------|--------|--------|--------|--------|


 C|--------|--------|--------|--------|--------|--------|--------|--------|--------|
 G|--------|--------|--------|--------|--------|--------|--------|--------|--------|
D#|--------|--------|--------|--------|--------|--------|--------|--------|--------|
A#|--------|--------|--------|--------|--------|--------|--------|--------|--------|
 F|--------|--------|--------|--------|--------|--------|--------|--------|--------|
 C|--------|--------|--------|--------|--------|--------|--------|--------|--------|


 C|--------|--------|--------|--------|--------|--------|--------|--------|--------|
 G|--------|--------|--------|--------|--------|--------|--------|--------|--------|
D#|--------|--------|--------|--------|--------|--------|--------|--------|--------|
A#|--------|--------|--------|--------|--------|--------|--------|--------|--------|
 F|--------|--------|--------|--------|--------|--------|--------|--------|--------|
 C|--------|--------|--------|--------|--------|--------|--------|--------|--------|


 C|--------|--------|--------|--------|--------|--------|--------|--------|--------|
 G|--------|--------|--------|--------|--------|--------|--------|--------|--------|
D#|--------|--------|--------|--------|--------|--------|--------|--------|--------|
A#|--------|--------|--------|--------|--------|--------|--------|--------|--------|
 F|--------|--------|--------|--------|--------|--------|--------|--------|--------|
 C|--------|--------|--------|--------|--------|--------|--------|--------|--------|


 C|--------|--------|--------|--------|--------|--------|--------|--------|--------|
 G|--------|--------|--------|--------|--------|--------|--------|--------|--------|
D#|--------|--------|--------|--------|--------|--------|--------|--------|--------|
A#|--------|--------|--------|--------|--------|--------|--------|--------|--------|
 F|--------|--------|--------|--------|--------|--------|--------|--------|--------|
 C|--------|--------|--------|--------|--------|--------|--------|--------|--------|


 C|--------|--------|--------|--------|--------|--------|--------|--------|--------|
 G|--------|--------|--------|--------|--------|--------|--------|--------|--------|
D#|--------|--------|--------|--------|--------|--------|--------|--------|--------|
A#|--------|--------|--------|--------|--------|--------|--------|--------|--------|
 F|--------|--------|--------|--------|--------|--------|--------|--------|--------|
 C|--------|--------|--------|--------|--------|--------|--------|--------|--------|


 C|--------|--------|--------|--------|--------|--------|--------|--------|--------|
 G|--------|--------|--------|--------|--------|--------|--------|--------|--------|
D#|--------|--------|--------|--------|--------|--------|--------|--------|--------|
A#|--------|--------|--------|--------|--------|--------|--------|--------|--------|
 F|--------|--------|--------|--------|--------|--------|--------|--------|--------|
 C|--------|--------|--------|--------|--------|--------|--------|--------|--------|


 C|--------|--------|--------|--------|--------|--------|--------|--------|--------|
 G|--------|--------|--------|--------|--------|--------|--------|--------|--------|
D#|--------|--------|--------|--------|--------|--------|--------|--------|--------|
A#|--------|--------|--------|--------|--------|--------|--------|--------|--------|
 F|--------|--------|--------|--------|--------|--------|--------|--------|--------|
 C|--------|--------|--------|--------|--------|--------|--------|--------|--------|


 C|--------|--------|--------|--------|--------|--------|--------|--------|--------|
 G|--------|--------|--------|--------|--------|--------|--------|--------|--------|
D#|--------|--------|--------|--------|--------|--------|--------|--------|--------|
A#|--------|--------|--------|--------|--------|--------|--------|--------|--------|
 F|--------|--------|--------|--------|--------|--------|--------|--------|--------|
 C|--------|--------|--------|--------|--------|--------|--------|--------|--------|


 C|--------|--------|--------|--------|--------|--------|--------|--------|--------|
 G|--------|--------|--------|--------|--------|--------|--------|--------|--------|
D#|--------|--------|--------|--------|--------|--------|--------|--------|--------|
A#|--------|--------|--------|--------|--------|--------|--------|--------|--------|
 F|--------|--------|--------|--------|--------|--------|--------|--------|--------|
 C|--------|--------|--------|--------|--------|--------|--------|--------|--------|


 C|--------|--------|--------|--------|--------|--------|--------|--------|--------|
 G|--------|--------|--------|--------|--------|--------|--------|--------|--------|
D#|--------|--------|--------|--------|--------|--------|--------|--------|--------|
A#|--------|--------|--------|--------|--------|--------|--------|--------|--------|
 F|--------|--------|--------|--------|--------|--------|--------|--------|--------|
 C|--------|--------|--------|--------|--------|--------|--------|--------|--------|


 C|--------|--------|--------|--------|--------|--------|--------|--------|--------|
 G|--------|--------|--------|--------|--------|--------|--------|--------|--------|
D#|--------|--------|--------|--------|--------|--------|--------|--------|--------|
A#|--------|--------|--------|--------|--------|--------|--------|--------|--------|
 F|--------|--------|--------|--------|--------|--------|--------|--------|--------|
 C|--------|--------|--------|--------|--------|--------|--------|--------|--------|


 C|----------------|-----------------------------------|-----------------------------------|
 G|----------------|-----------------------------------|-----------------------------------|
D#|------------2---|-2---2---2-------2---------2---5---|-5---5---5-------5---------5-------|
A#|------------2---|-2---2---2-------2---2--2--2---5---|-5---5---5-------5---5--5--5---5---|
 F|------------0---|-0---0---0---0---0---0--0--0---3---|-3---3---3---3---3---3--3--3---5---|
 C|----------------|-----------------------------------|-------------------------------3---|


 C|-----------------------------------|-----------------------------------|-----------------------------------|
 G|-----------------------------------|-----------------------------------|-----------------------------------|
D#|-----------------------------------|-------------------------------2---|-2---2---2-------2---------2---5---|
A#|-5---5---5-------5---------5---3---|-3---3---3-------5---------5---2---|-2---2---2-------2---2--2--2---5---|
 F|-5---5---5-------5---5--5--5---3---|-3---3---3-------5---5--5--5---0---|-0---0---0---0---0---0--0--0---3---|
 C|-3---3---3---3---3---3--3--3---1---|-1---1---1---0---3---3--3--3-------|-----------------------------------|


 C|-----------------------------------|-----------------------------------|-----------------------------------|
 G|-----------------------------------|-----------------------------------|-----------------------------------|
D#|-5---5---5-------5---------5-------|-----------------------------------|-----------------------------------|
A#|-5---5---5-------5---5--5--5---5---|-5---5---5-------5---------5---3---|-3---3---3-------5---------5---3---|
 F|-3---3---3---3---3---3--3--3---5---|-5---5---5-------5---5--5--5---3---|-3---3---3-------5---5--5--5---3---|
 C|-------------------------------3---|-3---3---3---3---3---3--3--3---1---|-1---1---1---0---3---3--3--3---1---|


 C|-----------------------------------|--------|--------|--------|--------|--------|
 G|-----------------------------------|--------|--------|--------|--------|--------|
D#|-----------------------------------|--------|--------|--------|--------|--------|
A#|-3---3---3-------5---------5---5---|--------|--------|--------|--------|--------|
 F|-3---3---3-------5---5--5--5---5---|--------|--------|--------|--------|--------|
 C|-1---1---1---0---3---3--3--3---3---|--------|--------|--------|--------|--------|


 C|--------|--------|--------|--------|--------|
 G|--------|--------|--------|--------|--------|
D#|--------|--------|--------|--------|--------|
A#|--------|--------|--------|--------|--------|
 F|--------|--------|--------|--------|--------|
 C|--------|--------|--------|--------|--------|





Track 7: Bass

D#|--------|--------|--------|--------|--------|--------|--------|--------|--------|
A#|--------|--------|--------|--------|--------|--------|--------|--------|--------|
 F|--------|--------|--------|--------|--------|--------|--------|--------|--------|
 C|--------|--------|--------|--------|--------|--------|--------|--------|--------|


D#|--------|--------|--------|--------|--------|--------|--------|-----------------------------------------|
A#|--------|--------|--------|--------|--------|--------|--------|-----------------------------------------|
 F|--------|--------|--------|--------|--------|--------|--------|-2---2--2--2---2--2--2---2--2--2---2--2--|
 C|--------|--------|--------|--------|--------|--------|--------|-----------------------------------------|


D#|-----------------------------------------|-----------------------------------------|
A#|-----------------------------------------|-----------------------------------------|
 F|-2---2--2--2---2--2--2---2--2--2---2--2--|-----------------------------------------|
 C|-----------------------------------------|-3---3--3--3---3--3--3---3--3--3---3--3--|


D#|-------------------------------------|-----------------------------------------|
A#|-------------------------------------|-----------------------------------------|
 F|-0---0--0--0---0--0--0---0---0---0---|-2---2--2--2---2--2--2---2--2--2---2--2--|
 C|-------------------------------------|-----------------------------------------|


D#|-----------------------------------------|-----------------------------------------|
A#|-----------------------------------------|-----------------------------------------|
 F|-2---2--2--2---2--2--2---2--2--2---2--2--|-----------------------------------------|
 C|-----------------------------------------|-3---3--3--3---3--3--3---3--3--3---3--3--|


D#|-------------------------------------|-------------------------------|-----------------------------------------|
A#|-------------------------------------|-------------------------------|-----------------------------------------|
 F|-0---0--0--0---0--0--0---0---0---0---|-2---------2---2--2--2---2--2--|-2---2--2--2---2--2--2---2--2--2---2--2--|
 C|-------------------------------------|-------------------------------|-----------------------------------------|


D#|-----------------------------------------|-------------------------------------|
A#|-----------------------------------------|-------------------------------------|
 F|-----------------------------------------|-0---0--0--0---0--0--0---0---0---0---|
 C|-3---3--3--3---3--3--3---3--3--3---3--3--|-------------------------------------|


D#|-----------------------------------------|-----------------------------------------|
A#|-----------------------------------------|-----------------------------------------|
 F|-2---2--2--2---2--2--2---2--2--2---2--2--|-2---2--2--2---2--2--2---2--2--2---2--2--|
 C|-----------------------------------------|-----------------------------------------|


D#|-------------------------------------------|-------------------------------------------|
A#|-------------------------------------------|-------------------------------------------|
 F|-------------------------------------------|-0---0--0--0---0--0--0---0--0--0--0--0--0--|
 C|-3---3--3--3---3--3--3---3--3--3--3--3--3--|-------------------------------------------|


D#|---------------------------------|---------------------------------|---------------------------------|
A#|---------------------------------|---------------------------------|---------------------------------|
 F|-0---0---0---3---3---2---2-------|---------------------0---0---0---|-0---0---0---3---3---2---2-------|
 C|-----------------------------3---|-3---3---3---3---3---------------|-----------------------------1---|


D#|---------------------------------|---------------------------------|---------------------------------|
A#|---------------------------------|---------------------------------|---------------------------------|
 F|---------------------------------|-0---0---0---3---3---2---2-------|---------------------0---0---0---|
 C|-1---1---1---0---0---0---0---0---|-----------------------------3---|-3---3---3---3---3---------------|


D#|---------------------------------|---------------------------------|---------------------------------|
A#|---------------------------------|---------------------------------|---------------------7-----------|
 F|-0---0---0---3---3---2---2-------|---------------------------------|-7---7-------7---7-------10--9---|
 C|-----------------------------1---|-1---1---1---0---0---0---0---0---|---------------------------------|


D#|---------------------------------|---------------------------------|---------------------------------|
A#|---------------------------------|---------------------------------|---------------------------------|
 F|---------------------------------|---------------------10--9---7---|-6---6-------6---6---9---10--9---|
 C|-8---8-------8---8---10--12--10--|-10--10------10--10--------------|---------------------------------|


D#|---------------------------------|---------------------------------|---------------------------------|
A#|---------------------7-----------|---------------------------------|---------------------------------|
 F|-7---7-------7---7-------10--9---|---------------------------------|---------------------10--9---7---|
 C|---------------------------------|-8---8-------8---8---10--12--10--|-10--10------10--10--------------|


D#|--------------------------------|---------------------------------|---------------------------------|
A#|--------------------------------|---------------------------------|---------------------------------|
 F|-6---6-------6---6---9--10-9----|---------------------------------|-3---3---3---3---3---3---3---3---|
 C|--------------------------------|-0---0---0---0---0---0---0---0---|---------------------------------|


D#|---------------------------------|---------------------------------|---------------------------------|
A#|---------------------------------|---------------------------------|---------------------------------|
 F|---------------------------------|-2---2---2---2---0---0---0---0---|---------------------------------|
 C|-3---3---3---3---3---3---3---3---|---------------------------------|-0---0---0---0---0---0---0---0---|


D#|---------------------------------|---------------------------------|---------------------------------|
A#|---------------------------------|---------------------------------|---------------------------------|
 F|-3---3---3---3---3---3---3---3---|---------------------------------|-2---2---2---2---0---0---0---0---|
 C|---------------------------------|-3---3---3---3---3---3---3---3---|---------------------------------|


D#|---------------------------------|---------------------------------|---------------------------------|
A#|---------------------------------|---------------------------------|---------------------------------|
 F|-0---0---2---2---3---3---5---5---|-7---7---7---7---7---7---7---7---|-5---5---5---5---5---5---5---5---|
 C|---------------------------------|---------------------------------|---------------------------------|


D#|---------------------------------|-----------------------------------|-----------------------------------|
A#|---------------------------------|-----------------------------------|-----------------------------------|
 F|-3---3---3---2---2---2---5---7---|-7---7--7--7---7---7---7---7---3---|-3---3--3--3---3---3---3---3---5---|
 C|---------------------------------|-----------------------------------|-----------------------------------|


D#|-----------------------------------|---------------------------------|-----------------------------------|
A#|-----------------------------------|---------------------------------|-----------------------------------|
 F|-5---5--5--5---5---5---5---5-------|-------------0---0---2---5---7---|-7---7--7--7---7---7---7---7---3---|
 C|-------------------------------3---|-3---3---------------------------|-----------------------------------|


D#|-----------------------------------|-----------------------------------|------------------------------|
A#|-----------------------------------|-----------------------------------|------------------------------|
 F|-3---3--3--3---3---3---3---3---5---|-5---5--5--5---5---5---5---5-------|-------------0---0---2---5----|
 C|-----------------------------------|-------------------------------3---|-3---3------------------------|


D#|---------------------------------|---------------------------------|---------------------------------|
A#|---------------------------------|---------------------------------|---------------------------------|
 F|---------------------------------|-3---3---3---3---3---3---3---3---|---------------------------------|
 C|-0---0---0---0---0---0---0---0---|---------------------------------|-3---3---3---3---3---3---3---3---|


D#|---------------------------------|---------------------------------|---------------------------------|
A#|---------------------------------|---------------------------------|---------------------------------|
 F|-2---2---2---2---0---0---0---0---|---------------------------------|-3---3---3---3---3---3---3---3---|
 C|---------------------------------|-0---0---0---0---0---0---0---0---|---------------------------------|


D#|---------------------------------|---------------------------------|---------------------------------|
A#|---------------------------------|---------------------------------|---------------------7-----------|
 F|---------------------------------|-2---2---2---2---0---0---0---0---|-7---7-------7---7-------10--9---|
 C|-3---3---3---3---3---3---3---3---|---------------------------------|---------------------------------|


D#|---------------------------------|---------------------------------|---------------------------------|
A#|---------------------------------|---------------------------------|---------------------------------|
 F|---------------------------------|---------------------10--9---7---|-6---6-------6---6---9---10--9---|
 C|-8---8-------8---8---10--12--10--|-10--10------10--10--------------|---------------------------------|


D#|---------------------------------|---------------------------------|---------------------------------|
A#|---------------------7-----------|---------------------------------|---------------------------------|
 F|-7---7-------7---7-------10--9---|---------------------------------|---------------------10--9---7---|
 C|---------------------------------|-8---8-------8---8---10--12--10--|-10--10------10--10--------------|


D#|---------------------------------|--------------------------------|---------------------------------|
A#|---------------------------------|--------------------------------|---------------------------------|
 F|-6---6-------6---6---9---10--9---|-6---6-------6---6---9--10-9----|---------------------------------|
 C|---------------------------------|--------------------------------|-3---3---3---3---3---3---3---3---|


D#|---------------------------------|---------------------------------|---------------------------------|
A#|---------------------------------|---------------------------------|---------------------------------|
 F|-6---6---6---6---6---6---6---6---|---------------------------------|-5---5---5---5---3---3---3---3---|
 C|---------------------------------|-6---6---6---6---6---6---6---6---|---------------------------------|


D#|---------------------------------|---------------------------------|---------------------------------|
A#|---------------------------------|---------------------------------|---------------------------------|
 F|---------------------------------|-6---6---6---6---6---6---6---6---|---------------------------------|
 C|-3---3---3---3---3---3---3---3---|---------------------------------|-6---6---6---6---6---6---6---6---|


D#|---------------------------------|-----------------------------7---|-7---5---------------------------|
A#|---------------------------------|---------------------7---7-------|---------8---7---5---------------|
 F|-5---5---5---5---3---3---3---3---|-5---5---5---5---5---------------|---------------------8---7---5---|
 C|---------------------------------|---------------------------------|---------------------------------|


D#|-----------------------------3---|-3---3---5---3---2---3---2---0---|-----------------------------7---|
A#|---------------------5---5-------|---------------------------------|---------------------7---7-------|
 F|-3---3---3---3---3---------------|---------------------------------|-5---5---5---5---5---------------|
 C|---------------------------------|---------------------------------|---------------------------------|


D#|-7---5---------------------------|-----------------------------3---|-3---3---5---3---2---3---2---0---2---0-------|
A#|---------8---7---5---------------|---------------------5---5-------|-----------------------------------------3---|
 F|---------------------8---7---5---|-3---3---3---3---3---------------|---------------------------------------------|
 C|---------------------------------|---------------------------------|---------------------------------------------|


D#|---------------------------------|------------------------------|---------------------------------|
A#|---------------------------------|------------------------------|---------------------------------|
 F|-5---5---5---5---5---5---5---5---|-5---5---5---5---5----5---3---|-1---1---1---1---1---1---1---3---|
 C|---------------------------------|------------------------------|---------------------------------|


D#|---------------------------------|---------------------------------|------------------------------|
A#|---------------------5---3---2---|---------------------------------|------------------------------|
 F|-3---3---3---3---3---------------|-5---5---5---5---5---5---5---5---|-5---5---5---5---5----5---3---|
 C|---------------------------------|---------------------------------|------------------------------|


D#|---------------------------------|---------------------------------|---------------------------------|
A#|---------------------------------|---------------------------------|---------------------------------|
 F|-1---1---1---1---1---1---1---3---|-3---3---3---3---3---3---3---1---|-0---0---0---3---3---2---2-------|
 C|---------------------------------|---------------------------------|-----------------------------3---|


D#|---------------------------------|---------------------------------|---------------------------------|
A#|---------------------------------|---------------------------------|---------------------------------|
 F|---------------------0---0---0---|-0---0---0---3---3---2---2-------|---------------------------------|
 C|-3---3---3---3---3---------------|-----------------------------1---|-1---1---1---0---0---0---0---0---|


D#|---------------------------------|---------------------------------|---------------------------------|
A#|---------------------------------|---------------------------------|---------------------------------|
 F|-0---0---0---3---3---2---2-------|---------------------0---0---0---|-0---0---0---3---3---2---2-------|
 C|-----------------------------3---|-3---3---3---3---3---------------|-----------------------------1---|


D#|---------------------------------|---------------------------------|---------------------------------|
A#|---------------------------------|---------------------------------|---------------------------------|
 F|---------------------------------|---------------------------------|-----------------------------0---|
 C|-1---1---1---0---0---0---0---1---|-1---1---1---0---0---0---0---1---|-1---1---1---0---0---0---0-------|


D#|----------------|--------|--------|--------|--------|--------|--------|--------|
A#|----------------|--------|--------|--------|--------|--------|--------|--------|
 F|-0----------0---|--------|--------|--------|--------|--------|--------|--------|
 C|--------3-------|--------|--------|--------|--------|--------|--------|--------|


D#|--------|--------|--------|--------|--------|--------|--------|--------|----------------|
A#|--------|--------|--------|--------|--------|--------|--------|--------|----------------|
 F|--------|--------|--------|--------|--------|--------|--------|--------|------------0---|
 C|--------|--------|--------|--------|--------|--------|--------|--------|----------------|


D#|---------------------------------------|---------------------------------------|
A#|---------------------------------------|---------------------------------------|
 F|-0---0--0--0---0--0--0---0--0--0---3---|-3---3--3--3---3--3--3---3--3--3-------|
 C|---------------------------------------|-----------------------------------3---|


D#|---------------------------------------|---------------------------------|---------------------------------------|
A#|---------------------------------------|---------------------------------|---------------------------------------|
 F|---------------------------------------|-----------------------------0---|-0---0--0--0---0--0--0---0--0--0---3---|
 C|-3---3--3--3---3--3--3---3--3--3---1---|-1---1---1---1---3---3---3-------|---------------------------------------|


D#|---------------------------------------|---------------------------------------|
A#|---------------------------------------|---------------------------------------|
 F|-3---3--3--3---3--3--3---3--3--3-------|---------------------------------------|
 C|-----------------------------------3---|-3---3--3--3---3--3--3---3--3--3---1---|


D#|---------------------------------|---------------------------|---------------------------------|
A#|---------------------------------|---------------------------|---------------------------------|
 F|---------------------------------|---------------------------|---------------------------------|
 C|-1---1---1---1---3---3---3---1---|-1---1---1---1---3----1----|-0---0---0---0---0---0---0---0---|


D#|---------------------------------|---------------------------------|---------------------------------|
A#|---------------------------------|---------------------------------|---------------------------------|
 F|-3---3---3---3---3---3---3---3---|---------------------------------|-2---2---2---2---0---0---0---0---|
 C|---------------------------------|-3---3---3---3---3---3---3---3---|---------------------------------|


D#|---------------------------------|---------------------------------|---------------------------------|
A#|---------------------------------|---------------------------------|---------------------------------|
 F|---------------------------------|-3---3---3---3---3---3---3---3---|---------------------------------|
 C|-0---0---0---0---0---0---0---0---|---------------------------------|-3---3---3---3---3---3---3---3---|


D#|---------------------------------|---------------------------------|-------------|
A#|---------------------------------|---------------------------------|-------------|
 F|-2---2---2---2---0---0---0---0---|-0---0---2---2---3---3---5---5---|-7-----------|
 C|---------------------------------|---------------------------------|-0-----------|