Menu:

 

Search:

 

patrick francis - passeig de gracia:

 



Title: Passeig de Gracia
Artist: 
Album: 
Author: Patrick Francis


Track 1: Classical guitar

E|-----------------------------------------------------------------|-----------------------------------0-0-0---0-0-0---0-0-0---0-0-0-|
B|---1-1-1---1-1-1---1-1-1---1-1-1---1-1-1---1-1-1---1-1-1---1-1-1-|---1-1-1---1-1-1---1-1-1---1-1-1---------------------------------|
G|-----------------2-----------------------2-----------------------|-2-----------------------------------------------2---------------|
D|---------2---------------2-------3-----------------------2-------|---------2-------3-------2---------------2---------------2-------|
A|-0-----------------------------------------------0---------------|---------------------------------0-------------------------------|
E|-----------------------------------------------------------------|-----------------------------------------------------------------|


E|-----------------------------------------------------------------|-----------------------------------------------------------------|
B|---3-3-3---3-3-3---1-1-1---1-1-1---1-1-1---1-1-1---1-1-1---1-1-1-|---0-0-0---0-0-0---0-0-0---0-0-0---0-0-0---0-0-0---0-0-0---0-0-0-|
G|-2---------------2-------------------------------0---------------|-----------------1-------------------------------1---------------|
D|---------3---------------3---------------0---------------0-------|---------2---------------2---------------2---------------2-------|
A|-----------------------------------------------------------------|-----------------------------------------------------------------|
E|---------------------------------3-------------------------------|-4-------------------------------0-------------------------------|


E|-----------------------------------------------------------------|-----------------------------------------------------------------|
B|---3-3-3---3-3-3---1-1-1---0-0-0---0-0-0---0-0-0---1-1-1---1-1-1-|---1-1-1---1-1-1---1-1-1---1-1-1---1-1-1---1-1-1---3-3-3---3-3-3-|
G|-1---------------1-------------------------------2---------------|---------2-----------------------2-----------------------2-------|
D|---------2---------------2---------------2---------------2-------|-3-----------------------2---------------2-------3---------------|
A|---------------------------------0-------------------------------|-----------------0-----------------------------------------------|
E|-----------------------------------------------------------------|-----------------------------------------------------------------|


E|---0-0-0---0-0-0---0-0-0---0-0-0---------------------------------|-----------------------------------------------------------------|
B|-----------------------------------3-3-3---3-3-3---1-1-1---1-1-1-|---1-1-1---1-1-1---1-1-1---1-1-1---0-0-0---0-0-0---0-0-0---0-0-0-|
G|-----------------2---------------2---------------2---------------|-----------------0-------------------------------1---------------|
D|---------2---------------2---------------3---------------3-------|---------0---------------0---------------2---------------2-------|
A|-0---------------------------------------------------------------|-----------------------------------------------------------------|
E|-----------------------------------------------------------------|-3-------------------------------4-------------------------------|


E|-----------------------------------------------------------------|-----------------------------------------------------------0-0-0-|
B|---0-0-0---0-0-0---0-0-0---0-0-0---3-3-3---3-3-3---1-1-1---0-0-0-|---0-0-0---0-0-0---1-1-1---1-1-1---2-2-2---2-2-2---3-3-3---------|
G|-----------------1---------------1---------------1---------------|-----------------2---------------0---------------0---------------|
D|---------2---------------2---------------2---------------2-------|---------2---------------2---------------2---------------2-------|
A|-----------------------------------------------------------------|-0---------------------------------------------------------------|
E|-0---------------------------------------------------------------|-----------------------------------------------------------------|


E|---6-6-6---6-6-6---6-6-6---6-6-6---5-5-5---5-5-5---3-3-3---3-3-3-|---1-1-1---1-1-1---1-1-1---1-1-1---0-0-0---0-0-0-----------------|
B|-----------------3---------------3---------------3---------------|-----------------0---------------0-----------------3-3-3---3-3-3-|
G|---------3---------------3---------------3---------------3-------|-------------------------------------------------4---------------|
D|-0---------------------------------------------------------------|---------3---------------3---------------3---------------3-------|
A|-----------------------------------------------------------------|-----------------------------------------------------------------|
E|-----------------------------------------------------------------|-4---------------------------------------------------------------|


E|---------------------------------------------------0-0-0---0-0-0-|-----------------------------------------------------------------|
B|---1-1-1---1-1-1---1-1-1---1-1-1---3-3-3---3-3-3-----------------|---0-0-0---0-0-0---0-0-0---0-0-0---1-1-1---1-1-1---0-0-0---0-0-0-|
G|-----------------2-----------------------------------------------|-----------------2-------------------------------1---------------|
D|---------3---------------3---------------0---------------2-------|---------1---------------1---------------2---------------2-------|
A|-0---------------------------------------------------------------|-----------------------------------------------------------------|
E|---------------------------------3---------------2---------------|-1-------------------------------0-------------------------------|


E|-----------------------------------------------------------------|---3-3-3---3-3-3---1-1-1---0-0-0---------------------------------|
B|---2-2-2---2-2-2---2-2-2---2-2-2---2-2-2---2-2-2---2-2-2---2-2-2-|-----------------------------------3-3-3---3-3-3---1-1-1---0-0-0-|
G|-----------------2-------------------------------3---------------|-----------------2-------------------------------1---------------|
D|---------2---------------2---------------2---------------2-------|---------0---------------0---------------0---------------0-------|
A|-0---------------------------------------------------------------|-----------------------------------------------------------------|
E|---------------------------------3-------------------------------|-1-------------------------------1-------------------------------|


E|-----------------------------------0-0-0---0-0-0---0-0-0---0-0-0-|-----------------------------------------------------------------|
B|---1-1-1---1-1-1---1-1-1---1-1-1-----------------1---------------|---0-0-0---0-0-0---0-0-0---0-0-0---1-1-1---1-1-1---0-0-0---0-0-0-|
G|-----------------2-----------------------2---------------2-------|-----------------2---------------1---------------1---------------|
D|---------3---------------3-------4-------------------------------|---------1---------------1---------------2---------------0-------|
A|-0---------------------------------------------------------------|-----------------------------------------------------------------|
E|-----------------------------------------------------------------|-1---------------------------------------------------------------|


E|-----------------------------------------------------------------|-----------------------------------------------------------------|
B|-----------------------------------------------------------------|-----------------------------------------------------------------|
G|---2-2-2---2-2-2---2-2-2---2-2-2---2-2-2---2-2-2---2-2-2---2-2-2-|---2-2-2---2-2-2---2-2-2---2-2-2---2-2-2---2-2-2---2-2-2---2-2-2-|
D|-----------------2---------------3-------------------------------|-2---------------3-------------------------------2---------------|
A|-0-------3---------------3---------------2-------0-------3-------|---------3---------------2---------------3---------------3-------|
E|-----------------------------------------------------------------|---------------------------------5-------------------------------|


E|-----------------------------------------|-----0---0----------|
B|-------------------------------------0---|---------10---------|
G|---2-2-2---2-2-2-----------------2-------|-5-------10---------|
D|-3-----------------------2---3-----------|---------10---------|
A|---------2-----------3-------------------|---------0----------|
E|-----------------5-----------------------|--------------------|





Track 2: Untitled

G|--------|--------|--------|--------|--------|--------|--------|--------|--------|
D|--------|--------|--------|--------|--------|--------|--------|--------|--------|
A|--------|--------|--------|--------|--------|--------|--------|--------|--------|
E|--------|--------|--------|--------|--------|--------|--------|--------|--------|


G|--------|--------|--------|--------|--------|--------|--------|--------|--------|
D|--------|--------|--------|--------|--------|--------|--------|--------|--------|
A|--------|--------|--------|--------|--------|--------|--------|--------|--------|
E|--------|--------|--------|--------|--------|--------|--------|--------|--------|


G|--------|--------|--------|--------|
D|--------|--------|--------|--------|
A|--------|--------|--------|--------|
E|--------|--------|--------|--------|