Menu:

 

Search:

 

pantera - well meet again:

 



Title: We'll Meet Again
Artist: 
Album: Power Metal
Author: Pantera


Track 1: Dimebag (Diamond) Darrell 

E|---------------------------------|------------|---------------------------------|
B|---------------------------------|------------|---------------------------------|
G|---------------------------------|------------|-----------------------------7---|
D|-4---------------4-----------2---|-2----------|-4---------------4-----------7---|
A|-4---------------4-----------2---|-2------2---|-4---------------4-----------5---|
E|-2---2---2---2-------2---2-------|--------0---|-2---2---2---2-------2---2-------|


E|------------|---------------------------------|------------|---------------------------------|
B|------------|---------------------------------|------------|---------------------------------|
G|-7----------|---------------------------------|------------|-----------------------------7---|
D|-7----------|-4---------------4-----------2---|-2----------|-4---------------4-----------7---|
A|-5------2---|-4---------------4-----------2---|-2------2---|-4---------------4-----------5---|
E|--------0---|-2---2---2---2-------2---2---0---|-0------0---|-2---2---2---2-------2---2-------|


E|------------|---------------------------------|------------------------------|---------------------------------|
B|------------|---------------------------------|------------------------------|---------------------9-----------|
G|-7----------|-11------11------11--11------9---|-9------------9---------------|-11------11------11--8-------9---|
D|-7----------|-11------11------11--11------9---|-9------------9---------------|-11------11------11----------9---|
A|-5------5---|-----9-------9-----------9-------|------6---7-------7-------7---|-----9-------9-----------9-------|
E|------------|---------------------------------|------------------------------|---------------------------------|


E|------------------------------|---------------------------------|------------------------------|
B|------------------------------|---------------------------------|------------------------------|
G|-9------------9---------------|-11------11------11--11------9---|-9------------9---------------|
D|-9------------9---------------|-11------11------11--11------9---|-9------------9---------------|
A|------6---7-------7-------7---|-----9-------9-----------9-------|------6---7-------7-------7---|
E|------------------------------|---------------------------------|------------------------------|


E|---------------------------------|---------------------------|---------------------------------|
B|---------------------9-----------|---------------------------|---------------------------------|
G|-11------11------11--8-------9---|-9----6---6---7---7---9----|---------------------------------|
D|-11------11------11----------9---|-9----6---6---7---7---9----|-4---------------4-----------2---|
A|-----9-------9-----------9-------|---------------------------|-4---------------4-----------2---|
E|---------------------------------|---------------------------|-2---2---2---2-------2---2-------|


E|------------|---------------------------------|------------|---------------------------------|
B|------------|---------------------------------|------------|---------------------------------|
G|------------|---------------------------------|------------|---------------------------------|
D|-2----------|-4---------------4-----------2---|-2----------|-4---------------4-----------2---|
A|-2------2---|-4---------------4-----------2---|-2------2---|-4---------------4-----------2---|
E|--------0---|-2---2---2---2-------2---2-------|--------0---|-2---2---2---2-------2---2-------|


E|------------|------------|------------|---------------------------------|------------------------------|
B|------------|------------|------------|---------------------------------|------------------------------|
G|------------|-7----------|------------|---------------------------------|------------------------------|
D|-2----------|-7------7---|-7----------|-4---------------4-----------2---|-2------------2---------------|
A|-2------2---|-5------7---|-7------2---|-4---------------4-----------2---|-2------------2---------------|
E|--------0---|--------5---|-5------0---|-2---2---2---2-------2---2-------|------0---0-------0---0---0---|


E|---------------------------------|------------------------------|---------------------------------|
B|---------------------------------|------------------------------|---------------------------------|
G|---------------------------------|------------------------------|---------------------------------|
D|-4---------------4-----------2---|-2------------2---------------|-4---------------4-----------2---|
A|-4---------------4-----------2---|-2------------2---------------|-4---------------4-----------2---|
E|-2---2---2---2-------2---2-------|------0---0-------0---0---0---|-2---2---2---2-------2---2-------|


E|------------------------------|---------------------------------|---------------------------------|
B|------------------------------|---------------------------------|---------------------------------|
G|------------------------------|---------------------------------|---------------------------------|
D|-2------------2---------------|-4-------------------------------|---------------------------------|
A|-2------------2---------------|-4-------------------------------|-----4---4---4---4---4---4-------|
E|------0---0-------0-------0---|-2---2---2---2---2---2---2---2---|-2---2---2---2---2---2---2-------|


E|-9---9---9---9---9--------9--9--|-7---7---7---7---7-------7---7--7--|-5---5---5---5---5-------7---5--5--|
B|-5---5---5---5---5--------5--5--|-4---4---4---4---4-------4---4--4--|-2---2---2---2---2-------4---2--2--|
G|--------------------------------|-----------------------------------|-----------------------------------|
D|--------------------------------|-----------------------------------|-----------------------------------|
A|--------------------------------|-----------------------------------|-----------------------------------|
E|--------------------------------|-----------------------------------|-----------------------------------|


E|-4---4---4---4---4---------|---------------------------------|------------------------------|
B|-0---0---0---0---0---------|---------------------------------|------------------------------|
G|---------------------------|-11--11------9---9-------11------|------------------------------|
D|---------------------------|-11--11------9---9-------11--12--|-12---1---1---12------14------|
A|---------------------------|-----------------------------12--|-12---1---1---12------12------|
E|---------------------------|---------------------------------|------------------------------|


E|---------------------------------|-------------|---------------------------------|
B|---------------------------------|-------------|---------------------------------|
G|-11--11------9---9-------11------|-------------|-11--11------9---9-------11------|
D|-11--11------9---9-------11--12--|-12----------|-11--11------9---9-------11--12--|
A|-------------------------9---12--|-12----------|-----------------------------12--|
E|---------------------------------|-------------|---------------------------------|


E|------------------------------|---------------------------------|---------------------------|
B|------------------------------|---------------------------------|---------------------------|
G|------------------------------|-11--11------9---9---------------|---------------------------|
D|-12---1---1---12------14------|-11--11------9---9-------12--12--|---------2-------4---------|
A|-12---1---1---12------12------|-------------------------12--12--|-----4-------4--------2----|
E|------------------------------|---------------------------------|---------------------------|


E|---------------------------------|---------------------------|---------------------------------|
B|---------------------------------|---------------------------|---------------------9-----------|
G|-11--9---11------11--11------9---|-9------------9------------|-11------11--9---11--8-------9---|
D|-11--9---11------11--11------9---|-9------------9------------|-11------11--9---11----------9---|
A|-------------9-----------9-------|------6---7-------7----7---|-----9-------------------9-------|
E|---------------------------------|---------------------------|---------------------------------|


E|---------------------------|---------------------------------|---------------------------|
B|---------------------------|---------------------------------|---------------------------|
G|-9------------9------------|-11--9---11------11--11------9---|-9------------9------------|
D|-9------------9------------|-11--9---11------11--11------9---|-9------------9------------|
A|------6---7-------7----7---|-------------9-----------9-------|------6---7-------7----7---|
E|---------------------------|---------------------------------|---------------------------|


E|---------------------------------|---------------------------|---------------------------------|
B|---------------------9-----------|---------------------------|---------------------------------|
G|-11------11--9---11--8-------9---|-9----6---6---7---7---9----|---------------------------------|
D|-11------11--9---11----------9---|-9----6---6---7---7---9----|-4---------------4-----------2---|
A|-----9-------------------9-------|---------------------------|-4---------------4-----------2---|
E|---------------------------------|---------------------------|-2---2---2---2-------2---2-------|


E|------------------------------|---------------------------------|------------------------------|
B|------------------------------|---------------------------------|------------------------------|
G|------------------------------|---------------------------------|------------------------------|
D|-2------------2---------------|-4---------------4-----------2---|-2------------2---------------|
A|-2------------2---------------|-4---------------4-----------2---|-2------------2---------------|
E|------0---0-------0-------0---|-2---2---2---2-------2---2-------|------0---0-------0-------0---|


E|---------------------------------|------------------------------|---------------------------------|
B|---------------------------------|------------------------------|---------------------------------|
G|---------------------------------|------------------------------|---------------------------------|
D|-4---------------4-----------2---|-2------------2---------------|-4-------------------------------|
A|-4---------------4-----------2---|-2------------2---------------|-4-------------------------------|
E|-2---2---2---2-------2---2-------|------0---0-------0-------0---|-2---2---2---2---2---2---2---2---|


E|---------------------------------|-9---9---9---9---9--------9--9--|-7---7---7---7---7-------7---7--7--|
B|---------------------------------|-5---5---5---5---5--------5--5--|-4---4---4---4---4-------4---4--4--|
G|---------------------------------|--------------------------------|-----------------------------------|
D|---------------------------------|--------------------------------|-----------------------------------|
A|-----4---4---4---4---4---4---4---|--------------------------------|-----------------------------------|
E|-2---2---2---2---2---2---2---2---|--------------------------------|-----------------------------------|


E|-5---5---5---5---5-------7---5--5--|-4---4---4---4---4---------|---------------------------------|
B|-2---2---2---2---2-------4---2--2--|-0---0---0---0---0---------|---------------------------------|
G|-----------------------------------|---------------------------|-11--11------9---9-------11------|
D|-----------------------------------|---------------------------|-11--11------9---9-------11--12--|
A|-----------------------------------|---------------------------|-----------------------------12--|
E|-----------------------------------|---------------------------|---------------------------------|


E|------------------------------|---------------------------------|-------------|---------------------------------|
B|------------------------------|---------------------------------|-------------|---------------------------------|
G|------------------------------|-11--11------9---9-------11------|-------------|-11--11------9---9-------11------|
D|-12---1---1---12------14------|-11--11------9---9-------11--12--|-12----------|-11--11------9---9-------11--12--|
A|-12---1---1---12------12------|-------------------------9---12--|-12----------|-----------------------------12--|
E|------------------------------|---------------------------------|-------------|---------------------------------|


E|------------------------------|---------------------------------|-------------|-------17----------------|
B|------------------------------|---------------------------------|-------3-----|-17-17-----17--17----17--|
G|------------------------------|-11--11------9---9-------11------|-------------|-------------------------|
D|-12---1---1---12------14------|-11--11------9---9-------11--12--|-12----12----|-------------------------|
A|-12---1---1---12------12------|-------------------------9---12--|-12----12----|-------------------------|
E|------------------------------|-----------------------------10--|-10----10----|-------------------------|


E|--------|-------------------16--|-16--16--16--16--16--16--19------|------19--------17------|
B|-17-----|-17----17--17----------|-----------------------------15--|-15-------14--------15--|
G|--------|-----------------------|---------------------------------|------------------------|
D|--------|-----------------------|---------------------------------|------------------------|
A|--------|-----------------------|---------------------------------|------------------------|
E|--------|-----------------------|---------------------------------|------------------------|


E|------19------------------|-17--------17--------19--------19--------|-21--------22--22----22-22-|
B|-15-------14----14--14-14-|-----14-14-----15-15-----15-15-----17-17-|-----17-17--------------22-|
G|--------------------------|-----------------------------------------|---------------------------|
D|--------------------------|-----------------------------------------|---------------------------|
A|--------------------------|-----------------------------------------|---------------------------|
E|--------------------------|-----------------------------------------|---------------------------|


E|---------17-19---------17-19---------|-17-19---------17-19-21-19-17-16-17-21-19-17-16-17-|
B|-21---21-------21---21-------21---21-|-------21---21-------------------------------------|
G|-------------------------------------|---------------------------------------------------|
D|-------------------------------------|---------------------------------------------------|
A|-------------------------------------|---------------------------------------------------|
E|-------------------------------------|---------------------------------------------------|


E|-22-19-17-16-17-21-19-17-16-17-22-19-17-16-17-16----------16-|-17-16---16-------14--14--14--------|
B|-------------------------------------------------17-15-17----|------------17-15-------------15-17-|
G|-------------------------------------------------------------|------------------------------------|
D|-------------------------------------------------------------|------------------------------------|
A|-------------------------------------------------------------|------------------------------------|
E|-------------------------------------------------------------|------------------------------------|


E|--------------------------------------------------|-------------------------------------------------------------------|
B|------17-15---------15-14----14-15-14----14-15-14-|----14-17-14----17-17-14----17-14-17-14----14-17-14-17-14----14-17-|
G|-18---------18-16---------17----------17----------|-17----------17----------17-------------17----------------17-------|
D|--------------------------------------------------|-------------------------------------------------------------------|
A|--------------------------------------------------|-------------------------------------------------------------------|
E|--------------------------------------------------|-------------------------------------------------------------------|


E|-------------------------------------------------------17-17-------|-----------------------|
B|-19-14----19-17-14-17-14----19-17-14-17-14-------------------17----|-----------------------|
G|-------17----------------17----------------17-16-14-------------17-|-1614---14----14-------|
D|----------------------------------------------------14-------------|-----16----------------|
A|-------------------------------------------------------------------|-----------------------|
E|-------------------------------------------------------------------|-----------------------|


E|-------------------------------------------------|-------------------------------------------------|
B|-15-14-15-12-15-10-10-9--10-7--10-5--15-14-15-12-|-15-10-10-9--10-7--10-3--15-14-15-12-15-10-10-7--|
G|-------------------------------------------------|-------------------------------------------------|
D|-------------------------------------------------|-------------------------------------------------|
A|-------------------------------------------------|-------------------------------------------------|
E|-------------------------------------------------|-------------------------------------------------|


E|-------------------------------------------|-------------------------------|-------------------------------2---|
B|-10-5--10-2--------------------------------|-------------------------------|---------------------------2-------|
G|-------------4---4---4---4--4--4--4--4--4--|-4--4--4--4--4--4--4--4--4-----|---------------1---2---4-----------|
D|-------------------------------------------|-------------------------------|-2---4-----4-----------------------|
A|-------------------------------------------|-------------------------------|-----------------------------------|
E|-------------------------------------------|-------------------------------|-----------------------------------|


E|-1---2---2---4---5---7---9--10-9---7-------7-----|-------------------------------|
B|---------------------------------------9---------|-------------------------------|
G|----------------------------------------------11-|-11----11--11--11--11--11--11--|
D|-------------------------------------------------|-------------------------------|
A|-------------------------------------------------|-------------------------------|
E|-------------------------------------------------|-------------------------------|


E|--------------------|-14---14----14--14--|-14-----------|-21--------21------21-22-21---17-21-|
B|--------------------|--------------------|--------17-17-|-----17-17-----17-------------------|
G|-11--11--11----11---|--------------------|--------------|------------------------------------|
D|--------------------|--------------------|--------------|------------------------------------|
A|--------------------|--------------------|--------------|------------------------------------|
E|--------------------|--------------------|--------------|------------------------------------|


E|-21--17-21-21--17-21-17--17--17------|-14---14----14-14-14--|-14-----14---|-17--14--17--17--14--12--12--9---12--12--9---7---|
B|-------------------------------------|----------------------|-------------|-------------------------------------------------|
G|-------------------------------------|----------------------|-------------|-------------------------------------------------|
D|-------------------------------------|----------------------|-------------|-------------------------------------------------|
A|-------------------------------------|----------------------|-------------|-------------------------------------------------|
E|-------------------------------------|----------------------|-------------|-------------------------------------------------|


E|-8---7---5---7---8---7---5----5----|---------------------------------|------------------------------|
B|-----------------------------------|---------------------------------|------------------------------|
G|-----------------------------------|-11--11------9---9---------------|------------------------------|
D|-----------------------------------|-11--11------9---9-------12--12--|-12---1---1---12------14------|
A|-----------------------------------|-------------------------12--12--|-12---1---1---12------12------|
E|-----------------------------------|---------------------------------|------------------------------|


E|---------------------------------|-----------------|---------------------------------|
B|---------------------------------|-----------------|---------------------------------|
G|-11--11------9---9---------------|-----------------|-11--11------9---9---------------|
D|-11--11------9---9-------12--12--|-12--------------|-11--11------9---9-------12--12--|
A|-------------------------12--12--|-12--------------|-------------------------12--12--|
E|---------------------------------|-----------------|---------------------------------|


E|------------------------------|---------------------------------|-----------------|
B|------------------------------|---------------------------------|-----------------|
G|------------------------------|-11--11------9---9---------------|-----------------|
D|-12---1---1---12------14------|-11--11------9---9-------12--12--|-12--------------|
A|-12---1---1---12------12------|-------------------------12--12--|-12--------------|
E|------------------------------|---------------------------------|-----------------|


E|---------------------------------|------------------------------|---------------------------------|
B|---------------------------------|------------------------------|---------------------------------|
G|-11--11------9---9---------------|------------------------------|-11--11------9---9---------------|
D|-11--11------9---9-------12--12--|-12---1---1---12------14------|-11--11------9---9-------12--12--|
A|-------------------------12--12--|-12---1---1---12------12------|-------------------------12--12--|
E|---------------------------------|------------------------------|---------------------------------|


E|-----------------|---------------------------------|------------------------------|
B|-----------------|---------------------------------|------------------------------|
G|-----------------|-11--11------9---9---------------|------------------------------|
D|-12--------------|-11--11------9---9-------12--12--|-12---1---1---12------14------|
A|-12--------------|-------------------------12--12--|-12---1---1---12------12------|
E|-----------------|---------------------------------|------------------------------|


E|---------------------------------|-----------------|---------------------------------|
B|---------------------------------|-----------------|---------------------------------|
G|-11--11------9---9---------------|-----------------|---------------------------------|
D|-11--11------9---9-------12--12--|-12--------------|-------------------------7---7---|
A|-------------------------12--12--|-12--------------|-4---4---4---2---2---2---5---5---|
E|---------------------------------|-----------------|-2---2---2---0---0---0-----------|


E|---------------------------------|---------------------------------|---------------------------------|
B|---------------------------------|---------------------------------|---------------------------------|
G|---------------------------------|---------------------------------|---------------------------------|
D|-7---7---7---7---7---7---7-------|-------------------------2---2---|-2---2---2---2---2---2---2---2---|
A|-5---5---5---5---5---5---5-------|-4---4---4---2---2---2---0---0---|-0---0---0---0---0---0---0---0---|
E|-----------------------------0---|-2---2---2---0---0---0-----------|---------------------------------|


E|---------------------------------|---------------------------------|---------------------------------|
B|---------------------------------|---------------------------------|---------------------------------|
G|---------------------------------|---------------------------------|---------------------------------|
D|-------------------------7---7---|-7---7---7---7---7---7---7-------|-------------------------2---2---|
A|-4---4---4---2---2---2---5---5---|-5---5---5---5---5---5---5-------|-4---4---4---2---2---2---0---0---|
E|-2---2---2---0---0---0-----------|-----------------------------0---|-2---2---2---0---0---0-----------|


E|---------------------------------|-14----14----|-14--14--14--16--17--16-17-16-14-16-14----14-|
B|---------------------------------|-------------|---------------------------------------17----|
G|---------------------------------|-------------|---------------------------------------------|
D|-2---2---2---2---2---2---2---2---|-------------|---------------------------------------------|
A|-0---0---0---0---0---0---0---0---|-------------|---------------------------------------------|
E|---------------------------------|-------------|---------------------------------------------|


E|------------|-14--14----------|------------------------------------14-|-17-16-14-16-16-14----14-----------|
B|-17--17-----|-----------------|-12--12--10--------10--10--------------|-------------------17----17--17----|
G|------------|-----------14----|------------13-11----------11-9--------|-----------------------------------|
D|------------|-----------------|---------------------------------11----|-----------------------------------|
A|------------|-----------------|---------------------------------------|-----------------------------------|
E|------------|-----------------|---------------------------------------|-----------------------------------|


E|-14-16-14----14--------17-17-------16-16-------|-14-14-------12-12-----------------|
B|----------17----17-17--------------------------|-----------------------------------|
G|-----------------------------14-14-------13-13-|-------11-11-------9--9--11---11---|
D|-----------------------------------------------|-----------------------------------|
A|-----------------------------------------------|-----------------------------------|
E|-----------------------------------------------|-----------------------------------|


E|-----------------------|-------------------------------------|-----------------------|
B|-----------------------|------------------2------------------|-----------10--9-------|
G|-----------1---2---4---|-4---2--4--2--1--------4--2--1---1---|-11----11----------11--|
D|-4-----4---------------|-------------------------------------|-----------------------|
A|-----------------------|-------------------------------------|-----------------------|
E|-----------------------|-------------------------------------|-----------------------|


E|-------------12--12----12--14-12-|-------------------------------------------|-17-16-14-16-17-16-14-16-16-14----------|
B|-12--12--10----------------------|-------14-14-12-12-10-10-12-12-10--12--12--|-------------------------------17--17---|
G|---------------------------------|-------------------------------------------|----------------------------------------|
D|---------------------------------|-11-11-------------------------------------|----------------------------------------|
A|---------------------------------|-------------------------------------------|----------------------------------------|
E|---------------------------------|-------------------------------------------|----------------------------------------|


E|-14-------------14----------14-------14-------14-|-------14-------------14-------------14-------14-|
B|----17-14----------17-17-17----17-17----17-17----|-17-17----17-17-17-17----17-17-17-17----17-17----|
G|----------16-16----------------------------------|-------------------------------------------------|
D|-------------------------------------------------|-------------------------------------------------|
A|-------------------------------------------------|-------------------------------------------------|
E|-------------------------------------------------|-------------------------------------------------|





Track 2: Extra dubbed rhythm guitar

E|--------|--------|--------|--------|--------|--------|--------|--------|------------|
B|--------|--------|--------|--------|--------|--------|--------|--------|------------|
G|--------|--------|--------|--------|--------|--------|--------|--------|------------|
D|--------|--------|--------|--------|--------|--------|--------|--------|-----4------|
A|--------|--------|--------|--------|--------|--------|--------|--------|-4---4------|
E|--------|--------|--------|--------|--------|--------|--------|--------|-2---2------|


E|------------|--------|------------|------------|------------|--------|--------|-9-----------|
B|------------|--------|------------|------------|------------|--------|--------|-------------|
G|------------|--------|------------|------------|------------|--------|--------|-------------|
D|-4----------|-4------|-4----------|-----4------|-4----------|-4------|-4------|-------------|
A|-4------4---|-4------|-4------4---|-4---4------|-4------4---|-4------|-4------|-------------|
E|-2------2---|-2------|-2------2---|-2---2------|-2------2---|-2------|-2------|-------------|


E|--------|--------|--------|--------|--------|--------|--------|--------|--------|
B|--------|--------|--------|--------|--------|--------|--------|--------|--------|
G|--------|--------|--------|--------|--------|--------|--------|--------|--------|
D|--------|--------|--------|--------|--------|--------|--------|--------|--------|
A|--------|--------|--------|--------|--------|--------|--------|--------|--------|
E|--------|--------|--------|--------|--------|--------|--------|--------|--------|


E|--------|--------|--------|--------|--------|--------|--------|--------|--------|
B|--------|--------|--------|--------|--------|--------|--------|--------|--------|
G|--------|--------|--------|--------|--------|--------|--------|--------|--------|
D|--------|--------|--------|--------|--------|--------|--------|--------|--------|
A|--------|--------|--------|--------|--------|--------|--------|--------|--------|
E|--------|--------|--------|--------|--------|--------|--------|--------|--------|


E|--------|--------|--------|--------|--------|--------|--------|--------|-------------|
B|--------|--------|--------|--------|--------|--------|--------|--------|-------------|
G|--------|--------|--------|--------|--------|--------|--------|--------|-------------|
D|--------|--------|--------|--------|--------|--------|--------|--------|-------------|
A|--------|--------|--------|--------|--------|--------|--------|--------|-------------|
E|--------|--------|--------|--------|--------|--------|--------|--------|--------7----|


E|--------|--------------|--------|------------|--------|--------------|--------|-------------|
B|--------|--------------|--------|------------|--------|--------------|--------|-------------|
G|--------|--------------|--------|------------|--------|--------------|--------|-------------|
D|-4------|-4------4--4--|-4------|-4----------|-4------|-4------4--4--|-4------|-4----2------|
A|-4------|-4------4--4--|-4------|-4----------|-4------|-4------4--4--|-4------|-4----2------|
E|-2------|-2------2--2--|-2------|-2----------|-2------|-2------2--2--|-2------|-2----0------|


E|-8-----------|--------|--------|--------|--------|--------|--------|--------|--------|
B|-------------|--------|--------|--------|--------|--------|--------|--------|--------|
G|-------------|--------|--------|--------|--------|--------|--------|--------|--------|
D|-------------|--------|--------|--------|--------|--------|--------|--------|--------|
A|-------------|--------|--------|--------|--------|--------|--------|--------|--------|
E|-------------|--------|--------|--------|--------|--------|--------|--------|--------|


E|--------|--------|--------|--------|--------|--------|--------|--------|--------|
B|--------|--------|--------|--------|--------|--------|--------|--------|--------|
G|--------|--------|--------|--------|--------|--------|--------|--------|--------|
D|--------|--------|--------|--------|--------|--------|--------|--------|--------|
A|--------|--------|--------|--------|--------|--------|--------|--------|--------|
E|--------|--------|--------|--------|--------|--------|--------|--------|--------|


E|--------|--------|---------------------------------|---------------------------------|
B|--------|--------|---------------------------------|---------------------------------|
G|--------|--------|-11------11------11------11------|-11------11------9-------9-------|
D|--------|--------|-11------11------11------11------|-11------11------9-------9-------|
A|--------|--------|-----9-------9-------9-------9---|-----9-------7-------7-------7---|
E|--------|--------|---------------------------------|---------------------------------|


E|---------------------------------|---------------------------------|---------------------------------|
B|---------------------------------|---------------------------------|---------------------------------|
G|-11------11------11------11------|-11------11------9-------9-------|-11------11------11------11------|
D|-11------11------11------11------|-11------11------9-------9-------|-11------11------11------11------|
A|-----9-------9-------9-------9---|-----9-------7-------7-------7---|-----9-------9-------9-------9---|
E|---------------------------------|---------------------------------|---------------------------------|


E|---------------------------------|---------------------------------|------------------------------|
B|---------------------------------|---------------------------------|------------------------------|
G|-11------11------9-------9-------|-11------11------11------11------|-11---------------------------|
D|-11------11------9-------9-------|-11------11------11------11------|-11----------------------7----|
A|-----9-------7-------7-------7---|-----9-------9-------9-------9---|---------11--11--9---9---7----|
E|---------------------------------|---------------------------------|---------9---9---7---7---5----|


E|---------------------------|---------------------------|---------------------------|
B|---------------------------|---------------------------|---------------------------|
G|---------------------------|-----------------------7---|-7------------7--------7---|
D|-4------------4--------4---|-4------------4--------7---|-7----7---7---7--------7---|
A|-4----4---4---4--------4---|-4----4---4---4--------5---|-5----5---5---5--------5---|
E|-2----2---2---2--------2---|-2----2---2---2------------|---------------------------|


E|---------------------------|------------------------------|------------------------------|
B|---------------------------|------------------------------|------------------------------|
G|-7------------7--------4---|-4------------------------6---|-6-----------2----------------|
D|-7----7---7---7--------4---|-4------------4---4---4---6---|-6---6---6---2----2-------4---|
A|-5----5---5---5--------2---|-2----2---2---2---2---2---4---|-4---4---4---0----0---2---4---|
E|---------------------------|------------------------------|----------------------0---2---|


E|---------------------------|------------------------|---------------------------|
B|---------------------------|------------------------|---------------------------|
G|-----------------------9---|-9------------9---------|---------------------------|
D|-4------------4--------9---|-9----9---9---9-----4---|-4------------4--------4---|
A|-4----4---4---4--------7---|-7----7---7---7-----4---|-4----4---4---4--------4---|
E|-2----2---2---2------------|--------------------2---|-2----2---2---2--------2---|


E|---------------------------|---------------------------|---------------------------|
B|---------------------------|---------------------------|---------------------------|
G|-----------------------7---|-7------------7--------7---|-7------------7--------4---|
D|-4------------4--------7---|-7----7---7---7--------7---|-7----7---7---7--------4---|
A|-4----4---4---4--------5---|-5----5---5---5--------5---|-5----5---5---5--------2---|
E|-2----2---2---2------------|---------------------------|---------------------------|


E|------------------------------|------------------------------|---------------------------|
B|------------------------------|------------------------------|---------------------------|
G|-4------------------------6---|-6-----------2----------------|---------------------------|
D|-4------------4---4---4---6---|-6---6---6---2----2-------4---|-4------------4--------4---|
A|-2----2---2---2---2---2---4---|-4---4---4---0----0---2---4---|-4----4---4---4--------4---|
E|------------------------------|----------------------0---2---|-2----2---2---2--------2---|


E|------------------------|-9---9---9---9---9-------9---9--9--|-7---7---7---7---7-------7---7--7--|
B|------------------------|-5---5---5---5---5-------5---5--5--|-4---4---4---4---4-------4---4--4--|
G|------------------------|-----------------------------------|-----------------------------------|
D|-4------------4---------|-----------------------------------|-----------------------------------|
A|-4----4---4---4---------|-----------------------------------|-----------------------------------|
E|-2----2---2---2---------|-----------------------------------|-----------------------------------|


E|-5---5---5---5---5---5---7---5--5--|-4---4---4---4---4---4-------4---|-9---9---9---9---9---9---9---9--9--|
B|-2---2---2---2---2---2---4---2--2--|-0---0---0---0---0---0-------0---|-5---5---5---5---5---5---5---5--5--|
G|-----------------------------------|---------------------------------|-----------------------------------|
D|-----------------------------------|---------------------------------|-----------------------------------|
A|-----------------------------------|---------------------------------|-----------------------------------|
E|-----------------------------------|---------------------------------|-----------------------------------|


E|-7---7---7---7---7---7---7---7--7--|-5---5---5---5---5---5---5---5--5--|-4---4---4---4---4---------|
B|-4---4---4---4---4---4---4---4--4--|-2---2---2---2---2---2---2---2--2--|-0---0---0---0---0---------|
G|-----------------------------------|-----------------------------------|---------------------------|
D|-----------------------------------|-----------------------------------|---------------------------|
A|-----------------------------------|-----------------------------------|---------------------------|
E|-----------------------------------|-----------------------------------|---------------------------|


E|--------|--------|--------|--------|--------|--------|--------|--------|--------|
B|--------|--------|--------|--------|--------|--------|--------|--------|--------|
G|--------|--------|--------|--------|--------|--------|--------|--------|--------|
D|--------|--------|--------|--------|--------|--------|--------|--------|--------|
A|--------|--------|--------|--------|--------|--------|--------|--------|--------|
E|--------|--------|--------|--------|--------|--------|--------|--------|--------|


E|--------|--------|--------|--------|--------|--------|--------|--------|--------|
B|--------|--------|--------|--------|--------|--------|--------|--------|--------|
G|--------|--------|--------|--------|--------|--------|--------|--------|--------|
D|--------|--------|--------|--------|--------|--------|--------|--------|--------|
A|--------|--------|--------|--------|--------|--------|--------|--------|--------|
E|--------|--------|--------|--------|--------|--------|--------|--------|--------|


E|--------|--------|--------|--------|--------|--------|---------------------------------|
B|--------|--------|--------|--------|--------|--------|---------------------------------|
G|--------|--------|--------|--------|--------|--------|---------------------------------|
D|--------|--------|--------|--------|--------|--------|-------------------------7---7---|
A|--------|--------|--------|--------|--------|--------|-4---4---4---2---2---2---5---5---|
E|--------|--------|--------|--------|--------|--------|-2---2---2---0---0---0-----------|


E|---------------------------------|---------------------------------|---------------------------------|
B|---------------------------------|---------------------------------|---------------------------------|
G|---------------------------------|---------------------------------|---------------------------------|
D|-7---7---7---7---5---7---7---7---|-------------------------2---2---|-2---2---2---2-------2---2---2---|
A|-5---5---5---5---3---5---5---5---|-4---4---4---2---2---2---0---0---|-0---0---0---0---6---0---0---0---|
E|---------------------------------|-2---2---2---0---0---0-----------|-----------------4---------------|


E|---------------------------------|---------------------------------|---------------------------------|
B|---------------------------------|---------------------------------|---------------------------------|
G|---------------------------------|---------------------------------|---------------------------------|
D|-------------------------7---7---|-7---7---7---7---5---7---7---7---|-------------------------2---2---|
A|-4---4---4---2---2---2---5---5---|-5---5---5---5---3---5---5---5---|-4---4---4---2---2---2---0---0---|
E|-2---2---2---0---0---0-----------|---------------------------------|-2---2---2---0---0---0-----------|


E|---------------------------------|---------------------------------|---------------------------------|
B|---------------------------------|---------------------------------|---------------------------------|
G|---------------------------------|---------------------------------|---------------------------------|
D|-2---2---2---2-------2---2---2---|-------------------------7---7---|-7---7---7---7---5---7---7---7---|
A|-0---0---0---0---6---0---0---0---|-4---4---4---2---2---2---5---5---|-5---5---5---5---3---5---5---5---|
E|-----------------4---------------|-2---2---2---0---0---0-----------|---------------------------------|


E|---------------------------------|---------------------------------|---------------------------------|
B|---------------------------------|---------------------------------|---------------------------------|
G|---------------------------------|---------------------------------|---------------------------------|
D|-------------------------2---2---|-2---2---2---2-------2---2---2---|-------------------------7---7---|
A|-4---4---4---2---2---2---0---0---|-0---0---0---0---6---0---0---0---|-4---4---4---2---2---2---5---5---|
E|-2---2---2---0---0---0-----------|-----------------4---------------|-2---2---2---0---0---0-----------|


E|---------------------------------|---------------------------------|---------------------------------|
B|---------------------------------|---------------------------------|---------------------------------|
G|---------------------------------|---------------------------------|---------------------------------|
D|-7---7---7---7---5---7---7---7---|-------------------------2---2---|-2---2---2---2-------2---2---2---|
A|-5---5---5---5---3---5---5---5---|-4---4---4---2---2---2---0---0---|-0---0---0---0---6---0---0---0---|
E|---------------------------------|-2---2---2---0---0---0-----------|-----------------4---------------|





Track 3: Rex

G|---------------------------|---------------------------|---------------------------|
D|---------------------------|---------------------------|---------------------------|
A|---------------------------|---------------------------|---------------------------|
E|-2---2----2---2---2----2---|-2---2----2---2---0----0---|-2---2----2---2---2----2---|


G|---------------------------|---------------------------|---------------------------|
D|---------------------------|---------------------------|---------------------------|
A|---------------------------|---------------------------|---------------------------|
E|-2---2----2---2---0----0---|-2---2----2---2---2----2---|-2---2----2---2---0----0---|


G|------------------------------|------------------------------|---------------------------|
D|----------------------2-------|------------------------------|---------------------------|
A|------------------2-------5---|-5---5----5---7---5-----------|---------------------------|
E|-2---2----2---5---------------|----------------------7---5---|-2---2----2---2---2----2---|


G|------------------------------|---------------------------|------------------------------|
D|------------------------------|---------------------------|------------------------------|
A|------------------------------|---------------------------|------------------------------|
E|-2---2---2---2---2---0----0---|-2---2----2---2---2----2---|-2---2---2---2---2---0----0---|


G|---------------------------|------------------------------|------------------------------|
D|---------------------------|------------------------------|------------------------------|
A|---------------------------|------------------------------|------------------2---5-------|
E|-2---2----2---2---2----2---|-2---2---2---2---2---0----0---|-2---2----2---5-----------2---|


G|---------------------------|---------------------------|---------------------------|
D|---------------------------|---------------------------|---------------------------|
A|---------------------------|---------------------------|---------------------------|
E|-2---2----2---2---0----0---|-2---2----2---2---2----2---|-2---2----2---2---0----0---|


G|---------------------------|---------------------------|---------------------------|
D|---------------------------|---------------------------|---------------------------|
A|---------------------------|---------------------------|---------------------------|
E|-2---2----2---2---2----2---|-2---2----2---2---0----0---|-2---2----2---2---2----2---|


G|---------------------------|---------------------------|---------------------------|
D|---------------------------|---------------------------|---------------------------|
A|---------------------------|---------------------------|---------------------------|
E|-2---2----2---2---0----0---|-2---2----2---2---2----5---|-5---5---5----5---5----0---|


G|---------------------------|---------------------------|---------------------------|
D|---------------------------|---------------------------|---------------------------|
A|---------------------------|---------------------------|---------------------------|
E|-2---2----2---2---2----2---|-2---2----2---2---0----0---|-2---2----2---2---2----2---|


G|---------------------------|---------------------------|---------------------------|
D|---------------------------|---------------------------|---------------------------|
A|---------------------------|---------------------------|---------------------------|
E|-2---2----2---2---0----0---|-2---2----2---2---2----2---|-2---2----2---2---0----0---|


G|---------------------------------|---------------------------------|--------|--------|
D|---------------------------------|---------------------------------|--------|--------|
A|---------------------------------|---------------------------------|--------|--------|
E|-2---2---2---2---2---2---2---2---|-2---2---2---2---2---2---2---2---|--------|--------|


G|--------|--------|---------------------------------|------------------------|---------------------------------|
D|--------|--------|---------------------------------|------------------------|---------------------------------|
A|--------|--------|-------------------------5---5---|-5---5--------5----5----|-------------------------5---5---|
E|--------|--------|-2---2-------0---0---------------|---------5--------------|-2---2-------0---0---------------|


G|----------------|---------------------------------|------------------------|---------------------------------|
D|----------------|---------------------------------|------------------------|---------------------------------|
A|-5---5----------|-------------------------5---5---|-5---5--------5----5----|-------------------------5---5---|
E|----------------|-2---2-------0---0---------------|---------5--------------|-2---2-------0---0---------------|


G|-------------|---------------------------|---------------------------|---------------------------|
D|-------------|---------------------------|---------------------------|---------------------------|
A|-------------|---------------------------|---------------------------|---------------------------|
E|-------2-----|-2---2----2---2---2----2---|-2---2----2---2---0----0---|-2---2----2---2---2----2---|


G|---------------------------|---------------------------|---------------------------|
D|---------------------------|---------------------------|---------------------------|
A|---------------------------|---------------------------|---------------------------|
E|-2---2----2---2---0----0---|-2---2----2---2---2----2---|-2---2----2---2---0----0---|


G|------------------------------|------------------------|---------------------------|
D|----------------------2-------|------------------------|---------------------------|
A|--------------2---4-------5---|-5---5----5----7---7----|---------------------------|
E|-2---2----2-------------------|------------------------|-2---2----2---2---2----2---|


G|---------------------------|---------------------------|---------------------------|
D|---------------------------|---------------------------|---------------------------|
A|---------------------------|---------------------------|---------------------------|
E|-2---2----2---2---0----0---|-2---2----2---2---2----2---|-2---2----2---2---0----0---|


G|---------------------------|---------------------------|---------------------------------|
D|---------------------------|---------------------------|---------------------------------|
A|---------------------------|---------------------------|---------------------------------|
E|-2---2----2---2---2----2---|-2---2----2---2---0----0---|-2---2---2---2---2---2---2---2---|


G|---------------------------------|--------|--------|--------|--------|---------------------------------|
D|---------------------------------|--------|--------|--------|--------|---------------------------------|
A|---------------------------------|--------|--------|--------|--------|-------------------------5---5---|
E|-2---2---2---2---2---2---2---2---|--------|--------|--------|--------|-2---2-------0---0---------------|


G|------------------------|---------------------------------|----------------|---------------------------------|
D|------------------------|---------------------------------|----------------|---------------------------------|
A|-5---5--------5----5----|-------------------------5---5---|-5---5----------|-------------------------5---5---|
E|---------5--------------|-2---2-------0---0---------------|----------------|-2---2-------0---0---------------|


G|------------------------|---------------------------------|-------------|---------------------------|
D|------------------------|---------------------------------|-------------|---------------------------|
A|-5---5--------5----5----|-------------------------5---5---|-5------5----|---------------------------|
E|---------5--------------|-2---2-------0---0---------------|-------------|-2---2----2---2---2----2---|


G|---------------------------|---------------------------|---------------------------|
D|---------------------------|---------------------------|---------------------------|
A|---------------------------|---------------------------|---------------------------|
E|-2---2----2---0----0---0---|-2---2----2---2---2----2---|-2---2----2---0----0---0---|


G|---------------------------|---------------------------|---------------------------|
D|---------------------------|---------------------------|---------------------------|
A|---------------------------|---------------------------|---------------------------|
E|-2---2----2---2---2----2---|-2---2----2---0----0---0---|-2---2----2---2---2----2---|


G|------------------------------|------------------------------|---------------------------|
D|------------------------------|------------------------------|---------------------------|
A|---------4---4---2---2--------|------------------------------|-----------------------5---|
E|-2-----------------------5----|-2---2---2---2---2--------2---|-2----2---2---2------------|


G|---------------------------|---------------------------|------------------------------|
D|---------------------------|---------------------------|------------------------------|
A|-5----5---5---5--------5---|-5----5---5---5--------2---|-2----2---2---2---2---2---4---|
E|---------------------------|---------------------------|------------------------------|


G|------------------------------|---------------------------|---------------------------|
D|------------------------------|---------------------------|---------------------------|
A|-4---4---4--------------------|---------------------------|-----------------7---------|
E|-------------5----5---0---2---|-2----2---2---2--------0---|-0---0---0---0---------2---|


G|---------------------------|---------------------------|---------------------------|
D|---------------------------|---------------------------|---------------------------|
A|---------------------------|-----------------------5---|-5----5---5---5--------5---|
E|-2----2---2---2--------2---|-2----2---2---2------------|---------------------------|


G|---------------------------|------------------------------|------------------------------|
D|---------------------------|------------------------------|------------------------------|
A|-5----5---5---5--------2---|-2----2---2---2---2---2---4---|-4---4---4--------------------|
E|---------------------------|------------------------------|-------------5----5---0---2---|


G|---------------------------|------------------------|--------|--------|--------|
D|---------------------------|------------------------|--------|--------|--------|
A|---------------------------|------------------------|--------|--------|--------|
E|-2----2---2---2--------2---|-2----2---2---2---------|--------|--------|--------|


G|--------|--------|--------|--------|--------|---------------------------------|------------------------|
D|--------|--------|--------|--------|--------|---------------------------------|------------------------|
A|--------|--------|--------|--------|--------|-------------------------5---5---|-5---5--------5----5----|
E|--------|--------|--------|--------|--------|-2---2-------0---0---------------|---------5--------------|


G|---------------------------------|----------------|---------------------------------|
D|---------------------------------|----------------|---------------------------------|
A|-------------------------5---5---|-5---5----------|-------------------------5---5---|
E|-2---2-------0---0---------------|----------------|-2---2-------0---0---------------|


G|------------------------|---------------------------------|----------------|---------------------------------|
D|------------------------|---------------------------------|----------------|---------------------------------|
A|-5---5--------5----5----|-------------------------5---5---|-5---5----------|-------------------------5---5---|
E|---------5--------------|-2---2-------0---0---------------|----------------|-2---2-------0---0---------------|


G|------------------------|---------------------------------|----------------|---------------------------------|
D|------------------------|---------------------------------|----------------|---------------------------------|
A|-5---5--------5----5----|-------------------------5---5---|-5---5----------|-------------------------5---5---|
E|---------5--------------|-2---2-------0---0---------------|----------------|-2---2-------0---0---------------|


G|------------------------|---------------------------------|----------------|---------------------------------|
D|------------------------|---------------------------------|----------------|---------------------------------|
A|-5---5--------5----5----|-------------------------5---5---|-5---5----------|-------------------------5---5---|
E|---------5--------------|-2---2-------0---0---------------|----------------|-2---2---2---0---0---0-----------|


G|---------------------------------|---------------------------------|---------------------------------|
D|---------------------------------|---------------------------------|---------------------------------|
A|-5---5---5---5---5---5---5---5---|---------------------------------|---------------------------------|
E|---------------------------------|-2---2---2---0---0---0---5---5---|-5---5---5---5---5---5---5---5---|


G|---------------------------------|---------------------------------|---------------------------------|
D|---------------------------------|---------------------------------|---------------------------------|
A|-------------------------5---5---|-5---5---5---5---5---5---5---5---|---------------------------------|
E|-2---2---2---0---0---0-----------|---------------------------------|-2---2---2---0---0---0---5---5---|


G|---------------------------------|---------------------------------|---------------------------------|
D|---------------------------------|---------------------------------|---------------------------------|
A|---------------------------------|-------------------------5---5---|-5---5---5---5---5---5---5---5---|
E|-5---5---5---5---5---5---5---5---|-2---2---2---0---0---0-----------|---------------------------------|


G|---------------------------------|---------------------------------|---------------------------------|
D|---------------------------------|---------------------------------|---------------------------------|
A|---------------------------------|---------------------------------|-------------------------5---5---|
E|-2---2---2---0---0---0---5---5---|-5---5---5---5---5---5---5---5---|-2---2---2---0---0---0-----------|


G|---------------------------------|---------------------------------|---------------------------------|
D|---------------------------------|---------------------------------|---------------------------------|
A|-5---5---5---5---5---5---5---5---|---------------------------------|---------------------------------|
E|---------------------------------|-2---2---2---0---0---0---5---5---|-5---5---5---5---5---5---5---5---|


G|---------------------------------|---------------------------------|---------------------------------|
D|---------------------------------|---------------------------------|---------------------------------|
A|-------------------------5---5---|-5---5---5---5---5---5---5---5---|---------------------------------|
E|-2---2---2---0---0---0-----------|---------------------------------|-2---2---2---0---0---0---5---5---|


G|---------------------------------|---------------------------------|---------------------------------|
D|---------------------------------|---------------------------------|---------------------------------|
A|---------------------------------|-------------------------5---5---|-5---5---5---5---5---5---5---5---|
E|-5---5---5---5---5---5---5---5---|-2---2---2---0---0---0-----------|---------------------------------|


G|---------------------------------|---------------------------------|
D|---------------------------------|---------------------------------|
A|---------------------------------|---------------------------------|
E|-2---2---2---0---0---0---5---5---|-5---5---5---5---5---5---5---5---|





Track 4: Synth Bass

G|--------|--------|--------|--------|--------|--------|--------|--------|--------|
D|--------|--------|--------|--------|--------|--------|--------|--------|--------|
A|--------|--------|--------|--------|--------|--------|--------|--------|--------|
E|--------|--------|--------|--------|--------|--------|--------|--------|--------|


G|--------|--------|--------|--------|--------|--------|--------|--------|--------|
D|--------|--------|--------|--------|--------|--------|--------|--------|--------|
A|--------|--------|--------|--------|--------|--------|--------|--------|--------|
E|--------|--------|--------|--------|--------|--------|--------|--------|--------|


G|--------|--------|--------|--------|--------|--------|--------|--------|--------|
D|--------|--------|--------|--------|--------|--------|--------|--------|--------|
A|--------|--------|--------|--------|--------|--------|--------|--------|--------|
E|--------|--------|--------|--------|--------|--------|--------|--------|--------|


G|--------|--------|--------|--------|--------|--------|--------|--------|-----------------|
D|--------|--------|--------|--------|--------|--------|--------|--------|-----------------|
A|--------|--------|--------|--------|--------|--------|--------|--------|-----------------|
E|--------|--------|--------|--------|--------|-0------|-0------|-0------|-0-----0---------|


G|--------|--------|--------|--------|--------|--------|--------|--------|--------|
D|--------|--------|--------|--------|--------|--------|--------|--------|--------|
A|--------|--------|--------|--------|--------|--------|--------|--------|--------|
E|--------|--------|--------|--------|--------|--------|--------|--------|--------|


G|--------|--------|--------|--------|--------|--------|--------|--------|--------|
D|--------|--------|--------|--------|--------|--------|--------|--------|--------|
A|--------|--------|--------|--------|--------|--------|--------|--------|--------|
E|--------|--------|--------|--------|--------|--------|--------|--------|--------|


G|--------|--------|--------|--------|--------|--------|--------|--------|--------|
D|--------|--------|--------|--------|--------|--------|--------|--------|--------|
A|--------|--------|--------|--------|--------|--------|--------|--------|--------|
E|--------|--------|--------|--------|--------|--------|-0------|-0------|-0------|


G|-----------------|--------|--------|--------|--------|--------|--------|--------|
D|-----------------|--------|--------|--------|--------|--------|--------|--------|
A|-----------------|--------|--------|--------|--------|--------|--------|--------|
E|-0-----0---------|--------|--------|--------|--------|--------|--------|--------|


G|--------|--------|--------|--------|--------|--------|--------|--------|--------|
D|--------|--------|--------|--------|--------|--------|--------|--------|--------|
A|--------|--------|--------|--------|--------|--------|--------|--------|--------|
E|--------|--------|--------|--------|--------|--------|--------|--------|--------|


G|--------|--------|--------|--------|--------|--------|--------|--------|--------|
D|--------|--------|--------|--------|--------|--------|--------|--------|--------|
A|--------|--------|--------|--------|--------|--------|--------|--------|--------|
E|--------|--------|--------|--------|--------|--------|--------|--------|--------|


G|--------|--------|--------|--------|--------|--------|--------|--------|--------|
D|--------|--------|--------|--------|--------|--------|--------|--------|--------|
A|--------|--------|--------|--------|--------|--------|--------|--------|--------|
E|--------|--------|--------|--------|--------|--------|--------|-0------|-0------|


G|--------|--------|--------|--------|--------|--------|--------|--------|--------|
D|--------|--------|--------|--------|--------|--------|--------|--------|--------|
A|--------|--------|--------|--------|--------|--------|--------|--------|--------|
E|-0------|-0------|-0------|-0------|-0------|-0------|--------|--------|--------|


G|--------|--------|--------|--------|--------|--------|--------|--------|--------|
D|--------|--------|--------|--------|--------|--------|--------|--------|--------|
A|--------|--------|--------|--------|--------|--------|--------|--------|--------|
E|--------|--------|--------|--------|--------|--------|--------|--------|--------|


G|--------|--------|--------|--------|--------|--------|--------|--------|--------|
D|--------|--------|--------|--------|--------|--------|--------|--------|--------|
A|--------|--------|--------|--------|--------|--------|--------|--------|--------|
E|--------|--------|--------|--------|--------|--------|--------|--------|--------|


G|--------|--------|--------|--------|--------|--------|--------|--------|--------|
D|--------|--------|--------|--------|--------|--------|--------|--------|--------|
A|--------|--------|--------|--------|--------|--------|--------|--------|--------|
E|--------|--------|--------|--------|--------|--------|--------|--------|--------|


G|--------|--------|--------|--------|--------|--------|--------|--------|--------|
D|--------|--------|--------|--------|--------|--------|--------|--------|--------|
A|--------|--------|--------|--------|--------|--------|--------|--------|--------|
E|--------|--------|--------|--------|--------|--------|--------|--------|--------|


G|--------|
D|--------|
A|--------|
E|--------|