Menu:

 

Search:

 

pantera - throes of rejection:

 



Title: Throes of Rejection
Artist: 
Album: Far Beyond Driven
Author: Pantera


Track 1: Lead

D|--------|--------|--------|--------|--------|--------|--------|--------|--------|
A|--------|--------|--------|--------|--------|--------|--------|--------|--------|
F|--------|--------|--------|--------|--------|--------|--------|--------|-3------|
C|--------|--------|--------|--------|--------|--------|--------|--------|--------|
G|--------|--------|--------|--------|--------|--------|--------|--------|--------|
D|--------|--------|--------|--------|--------|--------|--------|--------|--------|


D|-------------|--------|--------|--------|-------------|--------|--------|--------|
A|-3-----2-----|--------|--------|--------|-3-----------|--------|--------|--------|
F|-------------|--------|--------|-3------|-------------|--------|--------|-3------|
C|-------------|-3------|-3------|--------|-------5-----|-4------|-4------|--------|
G|-------------|--------|--------|--------|-------------|--------|--------|--------|
D|-------------|--------|--------|--------|-------------|--------|--------|--------|


D|-------------|--------|--------|--------|-------------|--------|--------|----------------------------------|
A|-3-----2-----|--------|--------|--------|-3-----------|--------|--------|----------------------------------|
F|-------------|--------|--------|-3------|-------------|--------|--------|----------------------------------|
C|-------------|-3------|-3------|--------|-------5-----|-4------|-5------|----------------------------------|
G|-------------|--------|--------|--------|-------------|--------|--------|-2---2--2--2--2---2--2---2--------|
D|-------------|--------|--------|--------|-------------|--------|--------|-0---0--0--0--0---0--0---0--------|


D|----------------------------------|----------------------------------|----------------------------------|
A|----------------------------------|----------------------------------|----------------------------------|
F|----------------------------------|----------------------------------|----------------------------------|
C|----------------------------------|----------------------------------|----------------------------------|
G|-2---2--2--2--2---2--2---2--------|-2---2--2--2--2---2--2---2--------|-2---2--2--2--2---2--2---2--------|
D|-0---0--0--0--0---0--0---0--------|-0---0--0--0--0---0--0---0--------|-0---0--0--0--0---0--0---0--------|


D|----------------------------------|----------------------------------|----------------------------------|
A|----------------------------------|----------------------------------|----------------------------------|
F|----------------------------------|----------------------------------|----------------------------------|
C|----------------------------------|----------------------------------|----------------------------------|
G|-2---2--2--2--2---2--2---2--------|-2---2--2--2--2---2--2---2--------|-2---2--2--2--2---2--2---2--------|
D|-0---0--0--0--0---0--0---0--------|-0---0--0--0--0---0--0---0--------|-0---0--0--0--0---0--0---0--------|


D|----------------------------------|---------------------------|------------------------------------|
A|----------------------------------|---------------------------|------------------------------------|
F|----------------------------------|---------------------------|------------------------------------|
C|----------------------------------|---------------------------|------------------------------------|
G|-2---2--2--2--2---2--2---2--------|---------------------------|-----------------------5------------|
D|-0---0--0--0--0---0--0---0--------|-------0---0--0--0--0---0--|-0---0--------0--0--0--3---0--0--0--|


D|---------------------------------|-----------------------------|-----------------------------------------|
A|---------------------------------|-----------------------------|-----------------------------------------|
F|---------------------------------|-----------------------------|-----------------------------------------|
C|---------------------------------|-----------------------------|-----------------------------------------|
G|----5------7-------------5-------|----------------5------------|----5------5--7--9-----------------------|
D|-0--3---0--5----0--0--0--3-------|-------0--0--0--3---0--0--0--|-0--3---0--3--5--7---0---0--0--0--0---0--|


D|------------------------------------|---------------------------------|-----------------------------|
A|------------------------------------|---------------------------------|-----------------------------|
F|------------------------------------|---------------------------------|-----------------------------|
C|------------------------------------|---------------------------------|-----------------------------|
G|-----------------------5------------|----5------7-------------5-------|----------------5------------|
D|-0---0--------0--0--0--3---0--0--0--|-0--3---0--5----0--0--0--3-------|-------0--0--0--3---0--0--0--|


D|-------------------------------------------|--------------------------------------|
A|-------------------------------------------|--------------------------------------|
F|-------------------------------------------|--------------------------------------|
C|-------------------------------------------|--------------------------------------|
G|----5------5--7--9------------5------------|----5------7-------------5------------|
D|-0--3---0--3--5--7---0--0--0--3---0--0--0--|-0--3---0--5----0--0--0--3---0--0--0--|


D|-------------------------------------------|--------------------------------------|
A|-------------------------------------------|--------------------------------------|
F|-------------------------------------------|--------------------------------------|
C|-------------------------------------------|--------------------------------------|
G|----5------5--7--9------------5------------|----5------7-------------5------------|
D|-0--3---0--3--5--7---0--0--0--3---0--0--0--|-0--3---0--5----0--0--0--3---0--0--0--|


D|---------------------------|-------------|-------------|-------------|-------------|
A|---------------------------|-------3-----|-2-----------|-------------|-------------|
F|---------------------3-----|-------------|-------------|-------------|-------3-----|
C|---------------------------|-------------|-------3-----|-------3-----|-------------|
G|----5------5--7--9---------|-------------|-------------|-------------|-------------|
D|-0--3---0--3--5--7---------|-------------|-------------|-------------|-------------|


D|-------------|-------------|-----------------------|-------------|-------------|
A|-------3-----|-------------|-----------------------|-------------|-------3-----|
F|-------------|-------------|-----------------------|-------3-----|-------------|
C|-------------|-5-----4-----|-------4-------4-------|-4-----------|-------------|
G|-------------|-------------|-----------5-------5---|-------------|-------------|
D|-------------|-------------|-----------------------|-------------|-------------|


D|-------------|-------------|-------------|-------------|-------------|-------------|
A|-2-----------|-------------|-------------|-------3-----|-------------|-------------|
F|-------------|-------------|-------3-----|-------------|-------------|-------------|
C|-------3-----|-------3-----|-------------|-------------|-5-----4-----|-------5-----|
G|-------------|-------------|-------------|-------------|-------------|-------------|
D|-------------|-------------|-------------|-------------|-------------|-------------|


D|-----------------------|--------------------------------|-----------------------|
A|-----------------------|--------------------------------|-----------------------|
F|-----------------------|--------------------------------|-5---------------------|
C|-----------------------|--------------------------------|-5---------------------|
G|-------2-----------2---|------2-----------2-------0-----|-------2-----------2---|
D|-------0-----------0---|------0-----------0-------0-----|-------0-----------0---|


D|--------------------------------|-----------------------|--------------------------------|
A|--------------------------------|-3---------------------|--------------------------------|
F|--------------------------------|-3---------------------|--------------------------------|
C|--------------------------------|-----------------------|--------------------------------|
G|------2-----------2-------0-----|-------2-----------2---|------2-----------2-------0-----|
D|------0-----------0-------0-----|-------0-----------0---|------0-----------0-------0-----|


D|-----------------------|---------------------------|----------------------------------|
A|-----------------------|---------------------------|----------------------------------|
F|-5---------------------|---------------------------|----------------------------------|
C|-5---------------------|---------------------------|----------------------------------|
G|-------2-----------2---|------2-----------2--------|-2--------------------------------|
D|-------0-----------0---|------0-----------0--------|-0------------0---0--0--0--0---0--|


D|----------------------------------|----------------------------------|---------------------------|
A|----------------------------------|----------------------------------|---------------------------|
F|----------------------------------|----------------------------------|---------------------------|
C|----------------------------------|----------------------------------|---------------------------|
G|----------------------------------|----------------------------------|--------------2---2--------|
D|-0---0--------0---0--0--0--0---0--|-0---0--------0---0--0--0--0---0--|-0---0--------0---0--------|


D|-------------------------------------------|--------------------------------------|
A|-------------------------------------------|--------------------------------------|
F|-------------------------------------------|--------------------------------------|
C|----0--0-----------------------------------|--------------------------------------|
G|----3--3---------2------------5------------|----5------7-------------5------------|
D|----1--1-----3---0---0--0--0--3---0--0--0--|-0--3---0--5----0--0--0--3---0--0--0--|


D|-------------------------------------------|--------------------------------------|
A|-------------------------------------------|--------------------------------------|
F|-------------------------------------------|--------------------------------------|
C|-------------------------------------------|--------------------------------------|
G|----5------5--7--9------------5------------|----5------7-------------5------------|
D|-0--3---0--3--5--7---0--0--0--3---0--0--0--|-0--3---0--5----0--0--0--3---0--0--0--|


D|---------------------------|-------------|-------------|-------------|-------------|
A|---------------------------|-------3-----|-2-----------|-------------|-------------|
F|---------------------3-----|-------------|-------------|-------------|-------3-----|
C|---------------------------|-------------|-------3-----|-------3-----|-------------|
G|----5------5--7--9---------|-------------|-------------|-------------|-------------|
D|-0--3---0--3--5--7---------|-------------|-------------|-------------|-------------|


D|-------------|-------------|-----------------------|-------------|-------------|
A|-------3-----|-------------|-----------------------|-------------|-------3-----|
F|-------------|-------------|-----------------------|-------3-----|-------------|
C|-------------|-5-----4-----|-------4-------4-------|-4-----------|-------------|
G|-------------|-------------|-----------5-------5---|-------------|-------------|
D|-------------|-------------|-----------------------|-------------|-------------|


D|-------------|-------------|-------------|-------------|-------------|-------------|
A|-2-----------|-------------|-------------|-------3-----|-------------|-------------|
F|-------------|-------------|-------3-----|-------------|-------------|-------------|
C|-------3-----|-------3-----|-------------|-------------|-5-----4-----|-------5-----|
G|-------------|-------------|-------------|-------------|-------------|-------------|
D|-------------|-------------|-------------|-------------|-------------|-------------|


D|-----------------------|--------------------------------|-----------------------|
A|-----------------------|--------------------------------|-----------------------|
F|-----------------------|--------------------------------|-5---------------------|
C|-----------------------|--------------------------------|-5---------------------|
G|-------2-----------2---|------2-----------2-------0-----|-------2-----------2---|
D|-------0-----------0---|------0-----------0-------0-----|-------0-----------0---|


D|--------------------------------|-----------------------|--------------------------------|
A|--------------------------------|-3---------------------|--------------------------------|
F|--------------------------------|-3---------------------|--------------------------------|
C|--------------------------------|-----------------------|--------------------------------|
G|------2-----------2-------0-----|-------2-----------2---|------2-----------2-------0-----|
D|------0-----------0-------0-----|-------0-----------0---|------0-----------0-------0-----|


D|-----------------------|---------------------------|--------------12----15--|-15----15----|
A|-----------------------|---------------------------|--------------15----18--|-18----18----|
F|-5---------------------|---------------------------|------------------------|-------------|
C|-5---------------------|---------------------------|------------------------|-------------|
G|-------2-----------2---|------2-----------2--------|-2----------------------|-------------|
D|-------0-----------0---|------0-----------0--------|-0----------------------|-------------|


D|-------15--15-15-15-18---|-18----18---18---18--|-18-----------------|----------------------------------|
A|-------18-----------21---|-21----21---21---21--|-21---------17------|-----17---------17----------17----|
F|-------------------------|---------------------|-------16------16---|-16-----15-15------14---14-----15-|
C|-------------------------|---------------------|--------------------|----------------------------------|
G|-------------------------|---------------------|--------------------|----------------------------------|
D|-------------------------|---------------------|--------------------|----------------------------------|


D|---------------------15-17-18-17-15----|-17-15-12-17-15-12----------------------------------------------------------|
A|------17----------17----------------17-|-------------------17-15-12-17-15-12----------------------------------------|
F|-15------16---16-----------------------|-------------------------------------15-12-15-12-15-12-12-15-12-------------|
C|---------------------------------------|----------------------------------------------------------------15-12-15-12-|
G|---------------------------------------|----------------------------------------------------------------------------|
D|---------------------------------------|----------------------------------------------------------------------------|


D|-------------------------------------------------------|-------------------------------------------------------17----------------|
A|-------------------------------------------------------|-11-19-11-10-8--10-------------------11-19-11-10-8--10----12-19-12-10-12-|
F|-11-12-11--11------------------------14-9--7--14-9--7--|-------------------7--9--14-9--7--9--------------------------------------|
C|----------------14-9--7--9--14-9--7--------------------|-------------------------------------------------------------------------|
G|-------------------------------------------------------|-------------------------------------------------------------------------|
D|-------------------------------------------------------|-------------------------------------------------------------------------|


D|-22-15-14-12-14-15-22-15-14-12-14-15-22-----------|-----------------------|--------------------|
A|------------------------------------------7---7---|-9-----9---9-----9-----|---------------11---|
F|--------------------------------------------------|--------------------11-|-11----7----7--13---|
C|--------------------------------------------------|-----------------------|--------------------|
G|-------------------------------------7------------|-----------------------|--------------------|
D|--------------------------------------------------|-----------------------|--------------------|


D|---------------------|-------------------------|---------------------------|-------------------13--13----|
A|-11----11---11---11--|-11------------13-13-13--|-13----13---11-10-11-10-11-|-10-9--10-9--10-9------------|
F|-13----13---13---13--|-13----------------------|---------------------------|-----------------------------|
C|---------------------|-------------------------|---------------------------|-----------------------------|
G|---------------------|-------------------------|---------------------------|-----------------------------|
D|---------------------|-------------------------|---------------------------|-----------------------------|


D|------13--15--15----|-------5--8--5-----------------|-7--10-7--10-7-----7--------------8--12-8--12-8-----------------|
A|--------------------|----------------5--8--5--8--5--|----------------6-----6--10-6--10-------------------8--12-8--12-|
F|--------------------|-------------------------------|-------------------------------------------------10-------------|
C|--------------------|-------------------------------|----------------------------------------------------------------|
G|--------------------|-------------------------------|----------------------------------------------------------------|
D|--------------------|-------------------------------|----------------------------------------------------------------|


D|-10-13-10-13-------------12-15-12----12-------------------|-------------------------------------------------------------------------|
A|-------------10-13-10-------------15----15-12-15-12-15----|-------------------------------------------------------------------------|
F|----------------------12----------------------------------|-14-10-14-10-14-------------------------------------------------------10-|
C|----------------------------------------------------------|-------------------14-10-14-10----10-14-10-14-10----10----10-12-10-------|
G|-------------------------------------------------------10-|----------------10-------------12----------------12----12----------12----|
D|----------------------------------------------------------|-------------------------------------------------------------------------|


D|----------------------------------------------------------------|-------------------------------13-15-17-15-13-------------|
A|-------------------12-13-12-------12-13-12-------12-13-12-------|-13-15-13----13----15-17-15-------------------17-17-15-13-|
F|-12-14-12-14-12-14----------14-12----------14-12----------14-12-|----------14----17----------17----------------------------|
C|----------------------------------------------------------------|----------------------------------------------------------|
G|----------------------------------------------------------------|----------------------------------------------------------|
D|----------------------------------------------------------------|----------------------------------------------------------|


D|-19-19-17-15-17-17-15-13-19-19-17-15-17-17-15-19-|-19-17-20-20-19-22-22-22-22---22---22-|
A|-------------------------------------------------|--------------------------------------|
F|-------------------------------------------------|--------------------------------------|
C|-------------------------------------------------|--------------------------------------|
G|-------------------------------------------------|--------------------------------------|
D|-------------------------------------------------|--------------------------------------|


D|-22--------------------|--------------------------------|-----------------------|
A|-----------------------|--------------------------------|-----------------------|
F|-----------------------|--------------------------------|-5---------------------|
C|-----------------------|--------------------------------|-5---------------------|
G|-------2-----------2---|------2-----------2-------0-----|-------2-----------2---|
D|-------0-----------0---|------0-----------0-------0-----|-------0-----------0---|


D|--------------------------------|-----------------------|--------------------------------|
A|--------------------------------|-3---------------------|--------------------------------|
F|--------------------------------|-3---------------------|--------------------------------|
C|--------------------------------|-----------------------|--------------------------------|
G|------2-----------2-------0-----|-------2-----------2---|------2-----------2-------0-----|
D|------0-----------0-------0-----|-------0-----------0---|------0-----------0-------0-----|


D|-----------------------|---------------------------|------------------------------|
A|-----------------------|---------------------------|------------------------------|
F|-5---------------------|---------------------------|------------------------------|
C|-5---------------------|---------------------------|------------------------------|
G|-------2-----------2---|------2-----------2--------|-2------------2---2---2---2---|
D|-------0-----------0---|------0-----------0--------|-0------------0---0---0---0---|


D|------------------|--------------------------|------------------|--------------------------|
A|------------------|--------------------------|------------------|--------------------------|
F|------------------|--------------------------|------------------|--------------------------|
C|------------------|--------------------------|------------------|--------------------------|
G|------------------|-----------2----2----2----|------------------|-----------2----2----2----|
D|-6-----5-----4----|-0---3-----0----0----0----|-6-----5-----4----|-0---3-----0----0----0----|


D|------------------|------------------------|------------------|---------------------------|
A|------------------|------------------------|------------------|---------------------------|
F|------------------|----------------4-------|------------------|---------------------------|
C|------------------|------------------------|------------------|---------------------------|
G|------------------|-----------2------------|------------------|-----------2---2---2---2---|
D|-6-----5-----4----|-0---3-----0------------|-6-----5-----4----|-0---3-----0---0---0---0---|


D|------------------|--------------------------|------------------|---------------------------|
A|------------------|--------------------------|------------------|---------------------------|
F|------------------|--------------------------|------------------|---------------------------|
C|------------------|--------------------------|------------------|---------------------------|
G|------------------|-----------2----2----2----|------------------|-----------2---2---2---2---|
D|-6-----5-----4----|-0---3-----0----0----0----|-6-----5-----4----|-0---3-----0---0---0---0---|


D|------------------|------------------------|------------------|---------------------------|
A|------------------|------------------------|------------------|---------------------------|
F|------------------|----------------4-------|------------------|---------------------------|
C|------------------|------------------------|------------------|---------------------------|
G|------------------|-----------2------------|------------------|-----------2---2---2---2---|
D|-6-----5-----4----|-0---3-----0------------|-6-----5-----4----|-0---3-----0---0---0---0---|


D|------------------|--------------------------|------------------|---------------------------|
A|------------------|--------------------------|------------------|---------------------------|
F|------------------|--------------------------|------------------|---------------------------|
C|------------------|--------------------------|------------------|---------------------------|
G|------------------|-----------2----2----2----|------------------|-----------2---2---2---2---|
D|-6-----5-----4----|-0---3-----0----0----0----|-6-----5-----4----|-0---3-----0---0---0---0---|


D|------------------|------------------------|--------|--------|
A|------------------|------------------------|--------|--------|
F|------------------|----------------4-------|--------|--------|
C|------------------|------------------------|--------|--------|
G|------------------|-----------2------------|--------|--------|
D|-6-----5-----4----|-0---3-----0------------|-0------|-0------|





Track 2: Rythm

D|--------|--------|--------|--------|--------|--------|--------|--------|--------|
A|--------|--------|--------|--------|--------|--------|--------|--------|--------|
F|--------|--------|--------|--------|--------|--------|--------|--------|--------|
C|--------|--------|--------|--------|--------|--------|--------|--------|--------|
G|--------|--------|--------|--------|--------|--------|--------|--------|--------|
D|--------|--------|--------|--------|--------|--------|--------|--------|-3------|


D|-------------|--------|--------|--------|-------------|--------|--------|--------|
A|-------------|--------|--------|--------|-------------|--------|--------|--------|
F|-------------|--------|--------|--------|-------------|--------|--------|--------|
C|-------------|--------|--------|--------|-------------|-0------|-0------|--------|
G|-2-----1-----|-4------|-4------|--------|-2-----1-----|--------|--------|--------|
D|-------------|--------|--------|-3------|-------------|--------|--------|-3------|


D|-------------|--------|--------|--------|-------------|--------|--------|--------|
A|-------------|--------|--------|--------|-------------|--------|--------|--------|
F|-------------|--------|--------|--------|-------------|--------|--------|--------|
C|-------------|--------|--------|--------|-------------|--------|-5------|--------|
G|-2-----1-----|-4------|-4------|--------|-2-----1-----|-5------|--------|--------|
D|-------------|--------|--------|-3------|-------------|--------|--------|--------|


D|--------|--------|--------|--------|--------|--------|--------|--------|--------|
A|--------|--------|--------|--------|--------|--------|--------|--------|--------|
F|--------|--------|--------|--------|--------|--------|--------|--------|--------|
C|--------|--------|--------|--------|--------|--------|--------|--------|--------|
G|--------|--------|--------|--------|--------|--------|--------|--------|--------|
D|--------|--------|--------|--------|--------|--------|--------|--------|--------|


D|--------|--------|--------|--------|--------|--------|--------|--------|--------|
A|--------|--------|--------|--------|--------|--------|--------|--------|--------|
F|--------|--------|--------|--------|--------|--------|--------|--------|--------|
C|--------|--------|--------|--------|--------|--------|--------|--------|--------|
G|--------|--------|--------|--------|--------|--------|--------|--------|--------|
D|--------|--------|--------|--------|--------|--------|--------|--------|--------|


D|--------|-------------|-------------|-------------|-------------|-------------|-------------|
A|--------|-------------|-------------|-------------|-------------|-------------|-------------|
F|--------|-------------|-------------|-------------|-------------|-------------|-------------|
C|--------|-------------|-------------|-------------|-------------|-------------|-------------|
G|--------|-------------|-------2-----|-1-----4-----|-------4-----|-------------|-------2-----|
D|--------|-------3-----|-------------|-------------|-------------|-------3-----|-------------|


D|-------------|-----------------------|-------------|-------------|-------------|
A|-------------|-----------------------|-------------|-------------|-------------|
F|-------------|-----------------------|-------------|-------------|-------------|
C|-------------|-------4-------4-------|-4-----------|-------------|-------------|
G|-1-----5-----|-----------5-------5---|-------------|-------2-----|-1-----4-----|
D|-------------|-----------------------|-------3-----|-------------|-------------|


D|-------------|-------------|-------------|-------------|-------------|--------|--------|
A|-------------|-------------|-------------|-------------|-------------|--------|--------|
F|-------------|-------------|-------------|-------------|-------------|--------|--------|
C|-------------|-------------|-------------|-------------|-------5-----|--------|--------|
G|-------4-----|-------------|-------2-----|-1-----5-----|-------------|--------|--------|
D|-------------|-------3-----|-------------|-------------|-------------|--------|--------|


D|--------|--------|--------|--------|--------|--------|--------|--------|--------|
A|--------|--------|--------|--------|--------|--------|--------|--------|--------|
F|--------|--------|--------|--------|--------|--------|--------|--------|--------|
C|--------|--------|--------|--------|--------|--------|--------|--------|--------|
G|--------|--------|--------|--------|--------|--------|--------|--------|--------|
D|--------|--------|--------|--------|--------|--------|--------|--------|--------|


D|--------|--------|--------|--------|--------|-------------|-------------|-------------|
A|--------|--------|--------|--------|--------|-------------|-------------|-------------|
F|--------|--------|--------|--------|--------|-------------|-------------|-------------|
C|--------|--------|--------|--------|--------|-------------|-------------|-------------|
G|--------|--------|--------|--------|--------|-------------|-------2-----|-1-----4-----|
D|--------|--------|--------|--------|--------|-------3-----|-------------|-------------|


D|-------------|-------------|-------------|-------------|-----------------------|
A|-------------|-------------|-------------|-------------|-----------------------|
F|-------------|-------------|-------------|-------------|-----------------------|
C|-------------|-------------|-------------|-------------|-------4-------4-------|
G|-------4-----|-------------|-------2-----|-1-----5-----|-----------5-------5---|
D|-------------|-------3-----|-------------|-------------|-----------------------|


D|-------------|-------------|-------------|-------------|-------------|-------------|
A|-------------|-------------|-------------|-------------|-------------|-------------|
F|-------------|-------------|-------------|-------------|-------------|-------------|
C|-4-----------|-------------|-------------|-------------|-------------|-------------|
G|-------------|-------2-----|-1-----4-----|-------4-----|-------------|-------2-----|
D|-------3-----|-------------|-------------|-------------|-------3-----|-------------|


D|-------------|-------------|--------|--------|--------|--------|--------|--------|
A|-------------|-------------|--------|--------|--------|--------|--------|--------|
F|-------------|-------------|--------|--------|--------|--------|--------|--------|
C|-------------|-------5-----|--------|--------|--------|--------|--------|--------|
G|-1-----5-----|-------------|--------|--------|--------|--------|--------|--------|
D|-------------|-------------|--------|--------|--------|--------|--------|--------|


D|--------|--------|--------|--------|--------|--------|--------|--------|--------|
A|--------|--------|--------|--------|--------|--------|--------|--------|--------|
F|--------|--------|--------|--------|--------|--------|--------|--------|--------|
C|--------|--------|--------|--------|--------|--------|--------|--------|--------|
G|--------|--------|--------|--------|--------|--------|--------|--------|--------|
D|--------|--------|--------|--------|--------|--------|--------|--------|--------|


D|--------|--------|--------|------------------------|-------------|------------------------|
A|--------|--------|--------|------------------------|-------------|------------------------|
F|--------|--------|--------|------------------------|-------------|------------------------|
C|--------|--------|--------|------------------------|-------------|------------------------|
G|--------|--------|--------|-------2--2--2--2-------|-------------|-------2--2--2--2-------|
D|--------|--------|--------|-------0--0--0--0-------|-------------|-------0--0--0--0-------|


D|-------------|-----------------------------|----------------------|------------------------|
A|-------------|-----------------------------|----------------------|------------------------|
F|-------------|-----------------------------|----------------------|------------------------|
C|-------------|-----------------------------|----------------------|------------------------|
G|-------------|-------2--2--2--2------2--2--|-2--2-----------------|-------2--2--2--2-------|
D|-------------|-------0--0--0--0------0--0--|-0--0-----------------|-------0--0--0--0-------|


D|-------------|-----------------|---------------------|---------------------|---------------------|
A|-------------|-----------------|---------------------|---------------------|---------------------|
F|-------------|-----------------|---------------------|---------------------|---------------------|
C|-------------|-----------------|---------------------|---------------------|---------------------|
G|-------------|-------0-----2---|---------------0-----|-2---------0-----2---|---------------0-----|
D|-------------|-----------------|------3----3---------|------3--------------|------3----3---------|


D|---------------------|---------------------|---------------------|---------------------|
A|---------------------|---------------------|---------------------|---------------------|
F|---------------------|---------------------|---------------------|---------------------|
C|---------------------|---------------------|---------------------|---------------------|
G|-2---------0-----2---|---------------0-----|-2---------0-----2---|---------------0-----|
D|------3--------------|------3----3---------|------3--------------|------3----3---------|


D|-----------------|--------|--------|--------|--------|--------|--------|--------|
A|-----------------|--------|--------|--------|--------|--------|--------|--------|
F|-----------------|--------|--------|--------|--------|--------|--------|--------|
C|-----------------|--------|--------|--------|--------|--------|--------|--------|
G|-2----2----------|--------|--------|--------|--------|--------|--------|--------|
D|-----------------|--------|--------|--------|--------|--------|--------|--------|


D|--------|--------|--------|--------|--------|--------|--------|--------|--------|
A|--------|--------|--------|--------|--------|--------|--------|--------|--------|
F|--------|--------|--------|--------|--------|--------|--------|--------|--------|
C|--------|--------|--------|--------|--------|--------|--------|--------|--------|
G|--------|--------|--------|--------|--------|--------|--------|--------|--------|
D|--------|--------|--------|--------|--------|--------|--------|--------|--------|


D|--------|--------|--------|--------|--------|--------|--------|--------|--------|
A|--------|--------|--------|--------|--------|--------|--------|--------|--------|
F|--------|--------|--------|--------|--------|--------|--------|--------|--------|
C|--------|--------|--------|--------|--------|--------|--------|--------|--------|
G|--------|--------|--------|--------|--------|--------|--------|--------|--------|
D|--------|--------|--------|--------|--------|--------|--------|--------|--------|


D|--------|--------|--------|--------|--------|--------|--------|
A|--------|--------|--------|--------|--------|--------|--------|
F|--------|--------|--------|--------|--------|--------|--------|
C|--------|--------|--------|--------|--------|--------|--------|
G|--------|--------|--------|--------|--------|--------|--------|
D|--------|--------|--------|--------|--------|--------|--------|





Track 3: Bass

F|----------------------------------|----------------------------------|----------------------------------|
C|----------------------------------|----------------------------------|----------------------------------|
G|----------------------------------|----------------------------------|----------------------------------|
D|-0---0--0--0--0---0--0---0--------|-0---0--0--0--0---0--0---0--------|-0---0--0--0--0---0--0---0--------|


F|----------------------------------|----------------------------------|----------------------------------|
C|----------------------------------|----------------------------------|----------------------------------|
G|----------------------------------|----------------------------------|----------------------------------|
D|-0---0--0--0--0---0--0---0--------|-0---0--0--0--0---0--0---0--------|-0---0--0--0--0---0--0---0--------|


F|----------------------------------|----------------------------------|----------------------------------|
C|----------------------------------|----------------------------------|----------------------------------|
G|----------------------------------|----------------------------------|----------------------------------|
D|-0---0--0--0--0---0--0---0--------|-0---0--0--0--0---0--0---0--------|-0---0--0--0--0---0--0---0--------|


F|----------------------------------|----------------------------------|----------------------------------|
C|----------------------------------|----------------------------------|----------------------------------|
G|----------------------------------|----------------------------------|----------------------------------|
D|-0---0--0--0--0---0--0---0--------|-0---0--0--0--0---0--0---0--------|-0---0--0--0--0---0--0---0--------|


F|----------------------------------|----------------------------------|----------------------------------|
C|----------------------------------|----------------------------------|----------------------------------|
G|----------------------------------|----------------------------------|----------------------------------|
D|-0---0--0--0--0---0--0---0--------|-0---0--0--0--0---0--0---0--------|-0---0--0--0--0---0--0---0--------|


F|----------------------------------|----------------------------------|----------------------------------|
C|----------------------------------|----------------------------------|----------------------------------|
G|----------------------------------|----------------------------------|----------------------------------|
D|-0---0--0--0--0---0--0---0--------|-0---0--0--0--0---0--0---0--------|-0---0--0--0--0---0--0---0--------|


F|----------------------------------|----------------------------------|----------------------------------|
C|----------------------------------|----------------------------------|----------------------------------|
G|----------------------------------|----------------------------------|----------------------------------|
D|-0---0--0--0--0---0--0---0--------|-0---0--0--0--0---0--0---0--------|-0---0--0--0--0---0--0---0--------|


F|----------------------------------|----------------------------------|----------------------------------|
C|----------------------------------|----------------------------------|----------------------------------|
G|----------------------------------|----------------------------------|----------------------------------|
D|-0---0--0--0--0---0--0---0--------|-0---0--0--0--0---0--0---0--------|-0---0--0--0--0---0--0---0--------|


F|----------------------------------|----------------------------------|----------------------------------|
C|----------------------------------|----------------------------------|----------------------------------|
G|----------------------------------|----------------------------------|----------------------------------|
D|-0---0--0--0--0---0--0---0--------|-0---0--0--0--0---0--0---0--------|-0---0--0--0--0---0--0---0--------|


F|----------------------------------|----------------------------------|----------------------------------|
C|----------------------------------|----------------------------------|----------------------------------|
G|----------------------------------|----------------------------------|----------------------------------|
D|-0---0--0--0--0---0--0---0--------|-0---0--0--0--0---0--0---0--------|-0---0--0--0--0---0--0---0--------|


F|----------------------------------|----------------------------------|---------------------------|
C|----------------------------------|----------------------------------|---------------------------|
G|----------------------------------|----------------------------------|---------------------------|
D|-0---0--0--0--0---0--0---0--------|-0---0--0--0--0---0--0---0--------|-------0---0--0--0--0---0--|


F|------------------------------------|---------------------------------|-----------------------------|
C|------------------------------------|---------------------------------|-----------------------------|
G|------------------------------------|---------------------------------|-----------------------------|
D|-0---0--------0--0--0--3---0--0--0--|-0--3---0--5----0--0--0--3-------|-------0--0--0--3---0--0--0--|


F|-----------------------------------------|------------------------------------|---------------------------------|
C|-----------------------------------------|------------------------------------|---------------------------------|
G|-----------------------------------------|------------------------------------|---------------------------------|
D|-0--3---0--3--5--7---0---0--0--0--0---0--|-0---0--------0--0--0--3---0--0--0--|-0--3---0--5----0--0--0--3-------|


F|-----------------------------|-------------------------------------------|--------------------------------------|
C|-----------------------------|-------------------------------------------|--------------------------------------|
G|-----------------------------|-------------------------------------------|--------------------------------------|
D|-------0--0--0--3---0--0--0--|-0--3---0--3--5--7---0--0--0--3---0--0--0--|-0--3---0--5----0--0--0--3---0--0--0--|


F|-------------------------------------------|--------------------------------------|
C|-------------------------------------------|--------------------------------------|
G|-------------------------------------------|--------------------------------------|
D|-0--3---0--3--5--7---0--0--0--3---0--0--0--|-0--3---0--5----0--0--0--3---0--0--0--|


F|-----------------------------------------|----------------------------------|----------------------------------|
C|-----------------------------------------|----------------------------------|----------------------------------|
G|-----------------------------------------|----------------------------------|----------------------------------|
D|-0--3---0--3--5--7---0---0--0--0--0---0--|-0---0--------0---0--0--0--0---0--|-0---0--------0---0--0--0--0---0--|


F|----------------------------------|----------------------------------|----------------------------------|
C|----------------------------------|----------------------------------|----------------------------------|
G|----------------------------------|----------------------------------|----------------------------------|
D|-0---0--------0---0--0--0--0---0--|-0---0--------0---0--0--0--0---0--|-0---0--------0---0--0--0--0---0--|


F|----------------------------------|----------------------------------|----------------------------------|
C|----------------------------------|----------------------------------|----------------------------------|
G|----------------------------------|----------------------------------|----------------------------------|
D|-0---0--------0---0--0--0--0---0--|-0---0--------0---0--0--0--0---0--|-0---0--------0---0--0--0--0---0--|


F|----------------------------------|----------------------------------|----------------------------------|
C|----------------------------------|----------------------------------|----------------------------------|
G|----------------------------------|----------------------------------|----------------------------------|
D|-0---0--------0---0--0--0--0---0--|-0---0--------0---0--0--0--0---0--|-0---0--------0---0--0--0--0---0--|


F|----------------------------------|----------------------------------|----------------------------------|
C|----------------------------------|----------------------------------|----------------------------------|
G|----------------------------------|----------------------------------|----------------------------------|
D|-0---0--------0---0--0--0--0---0--|-0---0--------0---0--0--0--0---0--|-0---0--------0---0--0--0--0---0--|


F|----------------------------------|------------------------------|---------------------------|
C|----------------------------------|------------------------------|---------------------------|
G|----------------------------------|------------------------------|---------------------------|
D|-0---0--------0---0--0--0--0---0--|-0---0--------0-----------0---|------0-----------0--------|


F|-----------------------|---------------------------|-----------------------|---------------------------|
C|-----------------------|---------------------------|-----------------------|---------------------------|
G|-3---------------------|---------------------------|-1---------------------|---------------------------|
D|-------0-----------0---|------0-----------0--------|-------0-----------0---|------0-----------0--------|


F|-----------------------|---------------------------|----------------------------------|
C|-----------------------|---------------------------|----------------------------------|
G|-3---------------------|---------------------------|----------------------------------|
D|-------0-----------0---|------0-----------0--------|-0------------0---0--0--0--0---0--|


F|----------------------------------|----------------------------------|---------------------------|
C|----------------------------------|----------------------------------|---------------------------|
G|----------------------------------|----------------------------------|---------------------------|
D|-0---0--------0---0--0--0--0---0--|-0---0--------0---0--0--0--0---0--|-0---0--------0---0--------|


F|---------------------------------------|--------------------------------------|-------------------------------------------|
C|---------------------------------------|--------------------------------------|-------------------------------------------|
G|---------------------------------------|--------------------------------------|-------------------------------------------|
D|-3---1---3---1---0--0--0--3---0--0--0--|-0--3---0--5----0--0--0--3---0--0--0--|-0--3---0--3--5--7---0--0--0--3---0--0--0--|


F|--------------------------------------|-----------------------------------------|
C|--------------------------------------|-----------------------------------------|
G|--------------------------------------|-----------------------------------------|
D|-0--3---0--5----0--0--0--3---0--0--0--|-0--3---0--3--5--7---0---0--0--0--0---0--|


F|----------------------------------|----------------------------------|----------------------------------|
C|----------------------------------|----------------------------------|----------------------------------|
G|----------------------------------|----------------------------------|----------------------------------|
D|-0---0--------0---0--0--0--0---0--|-0---0--------0---0--0--0--0---0--|-0---0--------0---0--0--0--0---0--|


F|----------------------------------|----------------------------------|----------------------------------|
C|----------------------------------|----------------------------------|----------------------------------|
G|----------------------------------|----------------------------------|----------------------------------|
D|-0---0--------0---0--0--0--0---0--|-0---0--------0---0--0--0--0---0--|-0---0--------0---0--0--0--0---0--|


F|----------------------------------|----------------------------------|----------------------------------|
C|----------------------------------|----------------------------------|----------------------------------|
G|----------------------------------|----------------------------------|----------------------------------|
D|-0---0--------0---0--0--0--0---0--|-0---0--------0---0--0--0--0---0--|-0---0--------0---0--0--0--0---0--|


F|----------------------------------|----------------------------------|----------------------------------|
C|----------------------------------|----------------------------------|----------------------------------|
G|----------------------------------|----------------------------------|----------------------------------|
D|-0---0--------0---0--0--0--0---0--|-0---0--------0---0--0--0--0---0--|-0---0--------0---0--0--0--0---0--|


F|----------------------------------|----------------------------------|----------------------------------|
C|----------------------------------|----------------------------------|----------------------------------|
G|----------------------------------|----------------------------------|----------------------------------|
D|-0---0--------0---0--0--0--0---0--|-0---0--------0---0--0--0--0---0--|-0---0--------0---0--0--0--0---0--|


F|------------------------------|---------------------------|-----------------------|
C|------------------------------|---------------------------|-----------------------|
G|------------------------------|---------------------------|-3---------------------|
D|-0---0--------0-----------0---|------0-----------0--------|-------0-----------0---|


F|---------------------------|-----------------------|---------------------------|
C|---------------------------|-----------------------|---------------------------|
G|---------------------------|-1---------------------|---------------------------|
D|------0-----------0--------|-------0-----------0---|------0-----------0--------|


F|-----------------------|---------------------------|------------------------------------|
C|-----------------------|---------------------------|------------------------------------|
G|-3---------------------|---------------------------|------------------------------------|
D|-------0-----------0---|------0-----------0--------|-0------------0--0--0--0--0--3---0--|


F|--------------------------------------|-------------------------------------------|
C|--------------------------------------|-------------------------------------------|
G|--------------------------------------|-------------------------------------------|
D|-0------------0--0--0--3--3--0--0--0--|-0--3---5--5--6--5---0--0--0--0--0--3---0--|


F|------------------------------------|-------------------------------------------|
C|------------------------------------|-------------------------------------------|
G|------------------------------------|-------------------------------------------|
D|-0------------0--0--0--3---0--0--0--|-0--3---5--3--5--7---0--0--0--0--0--3---0--|


F|--------------------------------------|-------------------------------------------|
C|--------------------------------------|-------------------------------------------|
G|--------------------------------------|-------------------------------------------|
D|-0------------0--0--0--3--3--0--0--0--|-0--3---5--5--6--5---0--0--0--0--0--3---0--|


F|------------------------------------|-------------------------------|---------------------|
C|------------------------------------|-------------------------------|---------------------|
G|------------------------------------|---------------------0-----2---|---------------0-----|
D|-0------------0--0--0--3---0--0--0--|-0--3---5--3--5--7-------------|------3----3---------|


F|---------------------------------|------------------------------------|-------------------------------------------|
C|---------------------------------|------------------------------------|-------------------------------------------|
G|-2----0--------------------------|------------------------------------|-------------------------------------------|
D|-----------0--0--0--0--0--3---0--|-0------------0--0--0--3---0--0--0--|-0--3---5--5--6--5---0--0--0--0--0--3---0--|


F|------------------------------------|-------------------------------------------|
C|------------------------------------|-------------------------------------------|
G|------------------------------------|-------------------------------------------|
D|-0------------0--0--0--3---0--0--0--|-0--3---5--3--5--7---0--0--0--0------0--0--|


F|--------------------------------------|-------------------------------------------|
C|--------------------------------------|-------------------------------------------|
G|--------------------------------------|-------------------------------------------|
D|-0--0-----------0--0--0--3---0--0--0--|-0--3---5--5--6--5---0--0--0--0--0--3---0--|


F|------------------------------------|-------------------------------|---------------------|
C|------------------------------------|-------------------------------|---------------------|
G|------------------------------------|---------------------0-----2---|---------------0-----|
D|-0------------0--0--0--3---0--0--0--|-0--3---5--3--5--7-------------|------3----3---------|


F|---------------------|---------------------|---------------------------|---------------------------------|
C|---------------------|---------------------|---------------2-----------|-3-------------------------------|
G|-2----0----0-----2---|---------------0-----|-2----0----0-------0---2---|-----2-------5-------7-----------|
D|---------------------|------3----3---------|---------------------------|---------3-------5-------5---5---|


F|---------------------------|---------------------------------|---------------------------|
C|---------------2-----------|-3-------------------------------|---------------------------|
G|-----------0-------0---2---|-----2-------5-------7-----------|---------------------------|
D|-7----3--------------------|---------3-------5-------5---5---|-7----3----0-----------0---|


F|---------------------------|-----------------------|---------------------------|
C|---------------------------|-----------------------|---------------------------|
G|---------------------------|-3---------------------|---------------------------|
D|------0-----------0--------|-------0-----------0---|------0-----------0--------|


F|-----------------------|---------------------------|-----------------------|---------------------------|
C|-----------------------|---------------------------|-----------------------|---------------------------|
G|-1---------------------|---------------------------|-3---------------------|---------------------------|
D|-------0-----------0---|------0-----------0--------|-------0-----------0---|------0-----------0--------|


F|------------------------------|------------------|--------------------------|------------------|
C|------------------------------|------------------|--------------------------|------------------|
G|------------------------------|------------------|--------------------------|------------------|
D|-0------------0---0---0---0---|-6-----5-----4----|-0---3-----0----0----0----|-6-----5-----4----|


F|--------------------------|------------------|-----------------|------------------|
C|--------------------------|------------------|-----------------|------------------|
G|--------------------------|------------------|-----0-----------|------------------|
D|-0---3-----0----0----0----|-6-----5-----4----|-0---------------|-6-----5-----4----|


F|---------------------------|------------------|--------------------------|------------------|
C|---------------------------|------------------|--------------------------|------------------|
G|-----0---------------------|------------------|-----0--------------------|------------------|
D|-0---------0---0---0---0---|-6-----5-----4----|-0---------0----0----0----|-6-----5-----4----|


F|---------------------------|------------------|-----------------|------------------|
C|---------------------------|------------------|-----------------|------------------|
G|-----0---------------------|------------------|-----0-----------|------------------|
D|-0---------0---0---0---0---|-6-----5-----4----|-0---------------|-6-----5-----4----|


F|---------------------------|------------------|--------------------------|------------------|
C|---------------------------|------------------|--------------------------|------------------|
G|-----0---------------------|------------------|-----0--------------------|------------------|
D|-0---------0---0---0---0---|-6-----5-----4----|-0---------0----0----0----|-6-----5-----4----|


F|---------------------------|------------------|-----------------|--------|--------|
C|---------------------------|------------------|-----------------|--------|--------|
G|-----0---------------------|------------------|-----0-----------|--------|--------|
D|-0---------0---0---0---0---|-6-----5-----4----|-0---------------|-0------|-0------|