Menu:

 

Search:

 

pantera - this love:

 



Title: This Love
Artist: 
Album: Vulgar Display of Power
Author: Pantera


Track 1: Clean w'chorus

E|---------------------------------|---------------------------------|---------------------------------|
B|---------------------------------|---------------------------------|---------------------------------|
G|---------------------------------|---------------------------------|---------------------------------|
D|---------2-----------2-----------|---------2-----------2-----------|---------2-----------2-----------|
A|-----4-----------4-------4-------|-----4-----------4-------4-------|-----4-----------4-------4-------|
E|-2-----------3---------------3---|-2-----------3---------------3---|-2-----------3---------------3---|


E|---------------------------------|---------------------------------|---------------------------------|
B|---------------------------------|---------------------------------|---------------------------------|
G|---------------------------------|---------2-----------2-----------|---------2-----------2-----------|
D|---------2-----------2-----------|-----4-----------4-------4-------|-----4-----------4-------4-------|
A|-----4-----------4-------4-------|-2-----------3---------------3---|-2-----------3---------------3---|
E|-2-----------3---------------3---|---------------------------------|---------------------------------|


E|---------------------------------|---------------------------------|---------------------------------|
B|---------------------------------|---------------------------------|---------------------------------|
G|---------------------------------|---------------------------------|---------0-----------0-----------|
D|---------2-----------2-----------|---------2-----------2-----------|-----2-----------2-------2-------|
A|-----4-----------4-------4-------|-----4-----------4-------4-------|-4-----------3---------------3---|
E|-2-----------3---------------3---|-2-----------3---------------3---|---------------------------------|


E|---------------------------------|---------------------------------|-----------------------|
B|---------------------------------|---------------------------------|-----------------------|
G|---------2-----------0-----------|---------2-----------0-----------|-----------------------|
D|-----2-----------2-------2-------|-----2-----------2-------2-------|---------2---2---2-----|
A|-4-----------3---------------3---|-4-----------3---------------3---|-----2-------3---3-----|
E|---------------------------------|---------------------------------|-4-----------5---5-----|


E|--------|---------------------------------|---------------------------------|---------------------------------|
B|--------|---------------------------------|---------------------------------|---------------------------------|
G|--------|---------------------------------|---------------------------------|---------------------------------|
D|-2------|---------2-----------2-----------|---------2-----------2-----------|---------2-----------2-----------|
A|-3------|-----4-----------4-------4-------|-----4-----------4-------4-------|-----4-----------4-------4-------|
E|-5------|-2-----------3---------------3---|-2-----------3---------------3---|-2-----------3---------------3---|


E|---------------------------------|---------------------------------|---------------------------------|
B|---------------------------------|---------------------------------|---------------------------------|
G|---------------------------------|---------2-----------2-----------|---------2-----------2-----------|
D|---------2-----------2-----------|-----4-----------4-------4-------|-----4-----------4-------4-------|
A|-----4-----------4-------4-------|-2-----------3---------------3---|-2-----------3---------------3---|
E|-2-----------3---------------3---|---------------------------------|---------------------------------|


E|---------------------------------|---------------------------------|---------------------------------|
B|---------------------------------|---------------------------------|---------------------------------|
G|---------------------------------|---------------------------------|---------0-----------0-----------|
D|---------2-----------2-----------|---------2-----------2-----------|-----2-----------2-------2-------|
A|-----4-----------4-------4-------|-----4-----------4-------4-------|-4-----------3---------------3---|
E|-2-----------3---------------3---|-2-----------3---------------3---|---------------------------------|


E|---------------------------------|---------------------------------|---------------------------------|
B|---------------------------------|---------------------------------|---------------------------------|
G|---------2-----------0-----------|---------2-----------0-----------|---------------------------------|
D|-----2-----------2-------2-------|-----2-----------2-------2-------|---------2-----------2-----------|
A|-4-----------3---------------3---|-4-----------3---------------3---|-----2-----------3-------3-------|
E|---------------------------------|---------------------------------|-4-----------5---------------5---|


E|---------------------------------|---------------------------------|---------------------------------|
B|---------------------------------|---------------------------------|---------------------------------|
G|---------0-----------0-----------|---------2-----------0-----------|---------2-----------0-----------|
D|-----2-----------2-------2-------|-----2-----------2-------2-------|-----2-----------2-------2-------|
A|-4-----------3---------------3---|-4-----------3---------------3---|-4-----------3---------------3---|
E|---------------------------------|---------------------------------|---------------------------------|


E|-----------------------|-----------------------|---------------------------------|
B|-----------------------|-----------------------|---------------------------------|
G|-----------------------|-----------------------|---------------------------------|
D|---------2---2---2-----|---------------2-------|-----2-------------------2-------|
A|-----2-------3---3-----|-----------4-----------|-4-------4-----------4-----------|
E|-4-----------5---5-----|-------2-----------3---|-------------3---2-----------3---|


E|---------------------------------|---------------------------------|-----------------------|
B|---------------------------------|---------------------------------|-----------------------|
G|---------------------------------|---------------------------------|-----------------------|
D|-----2-------------------2-------|-----2-------------------2-------|-----2-----------------|
A|-4-------4-----------4-----------|-4-------4-----------4-----------|-4-------4-------------|
E|-------------3---2-----------3---|-------------3---2-----------3---|-------------3---------|


E|--------|--------|--------|--------|--------|--------|--------|-----------------------|
B|--------|--------|--------|--------|--------|--------|--------|-----------------------|
G|--------|--------|--------|--------|--------|--------|--------|-----------------------|
D|--------|--------|--------|--------|--------|--------|--------|---------------2-------|
A|--------|--------|--------|--------|--------|--------|--------|-----------4-----------|
E|--------|--------|--------|--------|--------|--------|--------|-------2-----------3---|


E|---------------------------------|---------------------------------|---------------------------------|
B|---------------------------------|---------------------------------|---------------------------------|
G|---------------------------------|---------------------------------|---------------------------------|
D|-----2-------------------2-------|-----2-------------------2-------|-----2-------------------2-------|
A|-4-------4-----------4-----------|-4-------4-----------4-----------|-4-------4-----------4-----------|
E|-------------3---2-----------3---|-------------3---2-----------3---|-------------3---2-----------3---|


E|-----------------------|--------|--------|--------|--------|--------|--------|--------|
B|-----------------------|--------|--------|--------|--------|--------|--------|--------|
G|-----------------------|--------|--------|--------|--------|--------|--------|--------|
D|-----2-----------------|--------|--------|--------|--------|--------|--------|--------|
A|-4-------4-------------|--------|--------|--------|--------|--------|--------|--------|
E|-------------3---------|--------|--------|--------|--------|--------|--------|--------|


E|--------|--------|--------|--------|--------|--------|--------|--------|--------|
B|--------|--------|--------|--------|--------|--------|--------|--------|--------|
G|--------|--------|--------|--------|--------|--------|--------|--------|--------|
D|--------|--------|--------|--------|--------|--------|--------|--------|--------|
A|--------|--------|--------|--------|--------|--------|--------|--------|--------|
E|--------|--------|--------|--------|--------|--------|--------|--------|--------|


E|-----------------|-------------------------|-----------------------------------------|
B|-----------------|-----------------10--12--|-12-12-10------12-12-10------12-12-10----|
G|-------11--11----|-11----11--9--11---------|---------------------------------------11|
D|-----------------|-------------------------|-----------------------------------------|
A|-----------------|-------------------------|-----------------------------------------|
E|-----------------|-------------------------|-----------------------------------------|


E|-----12--12----12---12--|--------|--------|--------|--------|--------|--------|--------|
B|------------------------|--------|--------|--------|--------|--------|--------|--------|
G|-11---------------------|--------|--------|--------|--------|--------|--------|--------|
D|------------------------|--------|--------|--------|--------|--------|--------|--------|
A|------------------------|--------|--------|--------|--------|--------|--------|--------|
E|------------------------|--------|--------|--------|--------|--------|--------|--------|


E|--------|--------|--------|--------|--------|--------|--------|--------|--------|
B|--------|--------|--------|--------|--------|--------|--------|--------|--------|
G|--------|--------|--------|--------|--------|--------|--------|--------|--------|
D|--------|--------|--------|--------|--------|--------|--------|--------|--------|
A|--------|--------|--------|--------|--------|--------|--------|--------|--------|
E|--------|--------|--------|--------|--------|--------|--------|--------|--------|


E|--------|--------|--------|--------|--------|--------|--------|--------|--------|
B|--------|--------|--------|--------|--------|--------|--------|--------|--------|
G|--------|--------|--------|--------|--------|--------|--------|--------|--------|
D|--------|--------|--------|--------|--------|--------|--------|--------|--------|
A|--------|--------|--------|--------|--------|--------|--------|--------|--------|
E|--------|--------|--------|--------|--------|--------|--------|--------|--------|


E|--------|--------|--------|--------|--------|--------|--------|--------|--------|
B|--------|--------|--------|--------|--------|--------|--------|--------|--------|
G|--------|--------|--------|--------|--------|--------|--------|--------|--------|
D|--------|--------|--------|--------|--------|--------|--------|--------|--------|
A|--------|--------|--------|--------|--------|--------|--------|--------|--------|
E|--------|--------|--------|--------|--------|--------|--------|--------|--------|


E|--------|--------|---------------------------------|---------------------------------|
B|--------|--------|---------------------------------|---------------------------------|
G|--------|--------|---------------------------------|---------------------------------|
D|--------|--------|---------2-----------2-----------|---------2-----------2-----------|
A|--------|--------|-----4-----------4-------4-------|-----4-----------4-------4-------|
E|--------|--------|-2-----------3---------------3---|-2-----------3---------------3---|


E|---------------------------------|---------------------------------|---------------------------------|
B|---------------------------------|---------------------------------|---------------------------------|
G|---------------------------------|---------------------------------|---------------------------------|
D|---------2-----------2-----------|---------2-----------2-----------|---------2-----------2-----------|
A|-----4-----------4-------4-------|-----4-----------4-------4-------|-----4-----------4-------4-------|
E|-2-----------3---------------3---|-2-----------3---------------3---|-2-----------3---------------3---|


E|---------------------------------|---------------------------------|---------------------------------|
B|---------------------------------|---------------------------------|---------------------------------|
G|---------------------------------|---------------------------------|---------------------------------|
D|---------2-----------2-----------|---------2-----------2-----------|---------2-----------2-----------|
A|-----4-----------4-------4-------|-----4-----------4-------4-------|-----4-----------4-------4-------|
E|-2-----------3---------------3---|-2-----------3---------------3---|-2-----------3---------------3---|


E|---------------------------------|---------------------------------|---------------------------------|
B|---------------------------------|---------------------------------|---------------------------------|
G|---------2-----------2-----------|---------2-----------2-----------|---------------------------------|
D|-----4-----------4-------4-------|-----4-----------4-------4-------|---------2-----------2-----------|
A|-2-----------3---------------3---|-2-----------3---------------3---|-----4-----------4-------4-------|
E|---------------------------------|---------------------------------|-2-----------3---------------3---|


E|---------------------------------|---------------------------------|---------------------------------|
B|---------------------------------|---------------------------------|---------------------------------|
G|---------------------------------|---------2-----------2-----------|---------2-----------2-----------|
D|---------2-----------2-----------|-----3-----------3-------3-------|-----3-----------3-------3-------|
A|-----4-----------4-------4-------|-5-----------4---------------4---|-3-----------2---------------2---|
E|-2-----------3---------------3---|---------------------------------|---------------------------------|


E|---------------------------------|---------------------------------|---------------------------------|
B|---------------------------------|---------------------------------|---------------------------------|
G|---------2-----------2-----------|---------2-----------2-----------|---------------------------------|
D|-----3-----------3-------3-------|-----3-----------3-------3-------|---------2-----------2-----------|
A|-5-----------4---------------4---|-3-----------2---------------2---|-----4-----------4-------4-------|
E|---------------------------------|---------------------------------|-2-----------3---------------3---|


E|---------------------------------|---------------------------------|---------------------------------|
B|---------------------------------|---------------------------------|---------------------------------|
G|---------------------------------|---------------------------------|---------------------------------|
D|---------2-----------2-----------|---------2-----------2-----------|---------2-----------2-----------|
A|-----4-----------4-------4-------|-----4-----------4-------4-------|-----4-----------4-------4-------|
E|-2-----------3---------------3---|-2-----------3---------------3---|-2-----------3---------------3---|


E|--------|--------|--------|--------|--------|--------|--------|--------|--------|
B|--------|--------|--------|--------|--------|--------|--------|--------|--------|
G|--------|--------|--------|--------|--------|--------|--------|--------|--------|
D|--------|--------|--------|--------|--------|--------|--------|--------|--------|
A|--------|--------|--------|--------|--------|--------|--------|--------|--------|
E|--------|--------|--------|--------|--------|--------|--------|--------|--------|


E|--------|--------|--------|--------|--------|--------|--------|--------|--------|
B|--------|--------|--------|--------|--------|--------|--------|--------|--------|
G|--------|--------|--------|--------|--------|--------|--------|--------|--------|
D|--------|--------|--------|--------|--------|--------|--------|--------|--------|
A|--------|--------|--------|--------|--------|--------|--------|--------|--------|
E|--------|--------|--------|--------|--------|--------|--------|--------|--------|


E|--------|--------|--------|--------|--------|--------|--------|--------|--------|
B|--------|--------|--------|--------|--------|--------|--------|--------|--------|
G|--------|--------|--------|--------|--------|--------|--------|--------|--------|
D|--------|--------|--------|--------|--------|--------|--------|--------|--------|
A|--------|--------|--------|--------|--------|--------|--------|--------|--------|
E|--------|--------|--------|--------|--------|--------|--------|--------|--------|


E|--------|--------|--------|--------|--------|--------|--------|--------|--------|
B|--------|--------|--------|--------|--------|--------|--------|--------|--------|
G|--------|--------|--------|--------|--------|--------|--------|--------|--------|
D|--------|--------|--------|--------|--------|--------|--------|--------|--------|
A|--------|--------|--------|--------|--------|--------|--------|--------|--------|
E|--------|--------|--------|--------|--------|--------|--------|--------|--------|


E|---------------------------------|---------------------------------|---------------------------------|
B|---------------------------------|---------------------------------|---------------------------------|
G|---------------------------------|---------------------------------|---------------------------------|
D|---------2-----------2-----------|---------2-----------2-----------|---------2-----------2-----------|
A|-----4-----------4-------4-------|-----4-----------4-------4-------|-----4-----------4-------4-------|
E|-2-----------3---------------3---|-2-----------3---------------3---|-2-----------3---------------3---|


E|---------------------------------|---------------------------------|---------------------------------|
B|---------------------------------|---------------------------------|---------------------------------|
G|---------------------------------|---------------------------------|---------------------------------|
D|---------2-----------2-----------|---------2-----------2-----------|---------2-----------2-----------|
A|-----4-----------4-------4-------|-----4-----------4-------4-------|-----4-----------4-------4-------|
E|-2-----------3---------------3---|-2-----------3---------------3---|-2-----------3---------------3---|


E|---------------------------------|---------------------------------|---------------------------------|
B|---------------------------------|---------------------------------|---------------------------------|
G|---------------------------------|---------------------------------|---------------------------------|
D|---------2-----------2-----------|---------2-----------2-----------|---------2-----------2-----------|
A|-----4-----------4-------4-------|-----4-----------4-------4-------|-----4-----------4-------4-------|
E|-2-----------3---------------3---|-2-----------3---------------3---|-2-----------3---------------3---|


E|---------------------------------|---------------------------------|---------------------------------|
B|---------------------------------|---------------------------------|---------------------------------|
G|---------------------------------|---------------------------------|---------------------------------|
D|---------2-----------2-----------|---------2-----------2-----------|---------2-----------2-----------|
A|-----4-----------4-------4-------|-----4-----------4-------4-------|-----4-----------4-------4-------|
E|-2-----------3---------------3---|-2-----------3---------------3---|-2-----------3---------------3---|


E|---------------------------------|---------------------------------|---------------------------------|
B|---------------------------------|---------------------------------|---------------------------------|
G|---------------------------------|---------------------------------|---------------------------------|
D|---------2-----------2-----------|---------2-----------2-----------|---------2-----------2-----------|
A|-----4-----------4-------4-------|-----4-----------4-------4-------|-----4-----------4-------4-------|
E|-2-----------3---------------3---|-2-----------3---------------3---|-2-----------3---------------3---|


E|---------------------------------|---------------------------------|---------------------------------|
B|---------------------------------|---------------------------------|---------------------------------|
G|---------------------------------|---------------------------------|---------------------------------|
D|---------2-----------2-----------|---------2-----------2-----------|---------2-----------2-----------|
A|-----4-----------4-------4-------|-----4-----------4-------4-------|-----4-----------4-------4-------|
E|-2-----------3---------------3---|-2-----------3---------------3---|-2-----------3---------------3---|


E|---------------------------------|---------------------------------|---------------------------------|
B|---------------------------------|---------------------------------|---------------------------------|
G|---------------------------------|---------------------------------|---------------------------------|
D|---------2-----------2-----------|---------2-----------2-----------|---------2-----------2-----------|
A|-----4-----------4-------4-------|-----4-----------4-------4-------|-----4-----------4-------4-------|
E|-2-----------3---------------3---|-2-----------3---------------3---|-2-----------3---------------3---|


E|---------------------------------|---------------------------------|---------------------------------|
B|---------------------------------|---------------------------------|---------------------------------|
G|---------------------------------|---------------------------------|---------------------------------|
D|---------2-----------2-----------|---------2-----------2-----------|---------2-----------2-----------|
A|-----4-----------4-------4-------|-----4-----------4-------4-------|-----4-----------4-------4-------|
E|-2-----------3---------------3---|-2-----------3---------------3---|-2-----------3---------------3---|


E|---------------------------------|---------------------------------|---------------------------------|
B|---------------------------------|---------------------------------|---------------------------------|
G|---------------------------------|---------------------------------|---------------------------------|
D|---------2-----------2-----------|---------2-----------2-----------|---------2-----------2-----------|
A|-----4-----------4-------4-------|-----4-----------4-------4-------|-----4-----------4-------4-------|
E|-2-----------3---------------3---|-2-----------3---------------3---|-2-----------3---------------3---|


E|---------------------------------|---------------------------------|---------------------------------|
B|---------------------------------|---------------------------------|---------------------------------|
G|---------------------------------|---------------------------------|---------------------------------|
D|---------2-----------2-----------|---------2-----------2-----------|---------2-----------2-----------|
A|-----4-----------4-------4-------|-----4-----------4-------4-------|-----4-----------4-------4-------|
E|-2-----------3---------------3---|-2-----------3---------------3---|-2-----------3---------------3---|





Track 2: Solo Gtr.

E|--------|--------|--------|--------|--------|--------|--------|--------|--------|
B|--------|--------|--------|--------|--------|--------|--------|--------|--------|
G|--------|--------|--------|--------|--------|--------|--------|--------|--------|
D|--------|--------|--------|--------|--------|--------|--------|--------|--------|
A|--------|--------|--------|--------|--------|--------|--------|--------|--------|
E|--------|--------|--------|--------|--------|--------|--------|--------|--------|


E|--------|--------|--------|--------|--------|--------|--------|--------|--------|
B|--------|--------|--------|--------|--------|--------|--------|--------|--------|
G|--------|--------|--------|--------|--------|--------|--------|--------|--------|
D|--------|--------|--------|--------|--------|--------|--------|--------|--------|
A|--------|--------|--------|--------|--------|--------|--------|--------|--------|
E|--------|--------|--------|--------|--------|--------|--------|--------|--------|


E|--------|--------|--------|--------|--------|--------|--------|--------|--------|
B|--------|--------|--------|--------|--------|--------|--------|--------|--------|
G|--------|--------|--------|--------|--------|--------|--------|--------|--------|
D|--------|--------|--------|--------|--------|--------|--------|--------|--------|
A|--------|--------|--------|--------|--------|--------|--------|--------|--------|
E|--------|--------|--------|--------|--------|--------|--------|--------|--------|


E|--------|--------|-----------------|-------------|-----------------------------|
B|--------|--------|-----------------|-------------|-----------------------------|
G|--------|--------|-------------11--|-11----11----|-11---9----8----7----6---6---|
D|--------|--------|-----------------|-------------|-----------------------------|
A|--------|--------|-----------------|-------------|-----------------------------|
E|--------|--------|-----------------|-------------|-----------------------------|


E|-----------------|--------------------------|-------------------------------|--------------------------------|
B|-----------------|--------------------------|-------------------------------|--------------------------------|
G|-6-----6---6-----|-6----6-------------------|-------------------------------|--------------------------------|
D|-----------------|--------------------------|-------------------------------|-1---1--0----2------------------|
A|-----------------|-----------2--4-----------|-2--4-------4---2--4-------4---|-3---3--2----0---2--4-----------|
E|-----------------|-----------0--2-----------|-0--2-------2---0--2-------2---|-----------------0--2-----------|


E|-------------------------------|--------------------------------|----------------------------|
B|-------------------------------|--------------------------------|----------------------------|
G|-------------------------------|--------------------------------|----------------------------|
D|-------------------------------|-1---1--0----2------------------|----------------------------|
A|-2--4-------4---2--4-------4---|-3---3--2----0---2--4-----------|-2--4--------2--4-------4---|
E|-0--2-------2---0--2-------2---|-----------------0--2-----------|-0--2--------0--2-------2---|


E|--------------------------------|----------------------------|-----------------------|
B|--------------------------------|----------------------------|-----------------------|
G|--------------------------------|----------------------------|-----------------------|
D|-1---1--0----2------------------|----------------------------|-1---1--0----2---------|
A|-3---3--2----0---2--4-----------|-2--4--------2--4-------4---|-3---3--2----0---4-----|
E|-----------------0--2-----------|-0--2--------0--2-------2---|-----------------2-----|


E|-------------|-------------|-------------|-----------------------|---------------------------------|
B|-------------|-------------|-------------|-----------------------|---------------------------------|
G|-------------|-------------|-------------|-----------------------|---------------------------------|
D|-------------|-------------|-------------|---------------2-------|-----2-------------------2-------|
A|-------4-----|-------4-----|-------4-----|-----------4-----------|-4-------4-----------4-----------|
E|-------2-----|-------2-----|-------2-----|-------2-----------3---|-------------3---2-----------3---|


E|---------------------------------|---------------------------------|---------------------------------|
B|---------------------------------|---------------------------------|---------------------------------|
G|---------------------------------|---------------------------------|-------------------------2-------|
D|-----2-------------------2-------|-----2-------------------2-------|-----2---------------4-----------|
A|-4-------4-----------4-----------|-4-------4-----------4-----------|-4-------4-------2-----------3---|
E|-------------3---2-----------3---|-------------3---2-----------3---|-------------3-------------------|


E|---------------------------------|---------------------------------|---------------------------------|
B|---------------------------------|---------------------------------|---------------------------------|
G|-----2-------------------2-------|-----2---------------------------|---------------------------------|
D|-4-------4-----------4-----------|-4-------4---------------2-------|-----2-------------------2-------|
A|-------------3---2-----------3---|-------------3-------4-----------|-4-------4-----------4-----------|
E|---------------------------------|-----------------2-----------3---|-------------3---2-----------3---|


E|---------------------------------|---------------------------------|---------------------------------|
B|---------------------------------|---------------------------------|---------------------------------|
G|-------------------------0-------|-----0-------------------2-------|-----0-------------------2-------|
D|-----2---------------2-----------|-2-------2-----------2-----------|-2-------2-----------2-----------|
A|-4-------4-------4-----------3---|-------------3---4-----------3---|-------------3---4-----------3---|
E|-------------3-------------------|---------------------------------|---------------------------------|


E|---------------------------------|---------------------------------|---------------------------------|
B|---------------------------------|---------------------------------|---------------------------------|
G|-----0---------------------------|-------------------------0-------|-----0-------------------2-------|
D|-2-------2---------------2-------|-----2---------------2-----------|-2-------2-----------2-----------|
A|-------------3-------2-----------|-3-------3-------4-----------3---|-------------3---4-----------3---|
E|-----------------4-----------5---|-------------5-------------------|---------------------------------|


E|---------------------------------|---------------------------------|--------|---------------------------------|
B|---------------------------------|---------------------------------|--------|---------------------------------|
G|-----0-------------------2-------|-----0---------------------------|--------|---------------------------------|
D|-2-------2-----------2-----------|-2-------2---------------2---2---|-2------|---------2-----------2-----------|
A|-------------3---4-----------3---|-------------3-------2-------3---|-3------|-----4-----------4-------4-------|
E|---------------------------------|-----------------4-----------5---|-5------|-2-----------3---------------3---|


E|---------------------------------|---------------------------------|---------------------------------|
B|---------------------------------|---------------------------------|---------------------------------|
G|---------------------------------|---------------------------------|---------------------------------|
D|---------2-----------2-----------|---------2-----------2-----------|---------2-----------2-----------|
A|-----4-----------4-------4-------|-----4-----------4-------4-------|-----4-----------4-------4-------|
E|-2-----------3---------------3---|-2-----------3---------------3---|-2-----------3---------------3---|


E|-------------------------------|--------------------------------|-------------------------------|
B|-------------------------------|--------------------------------|-------------------------------|
G|-------------------------------|--------------------------------|-------------------------------|
D|-------------------------------|----------------1---1--0----2---|-------------------------------|
A|-2--4-----------2--4-------4---|-2--4-------4---3---3--2----0---|-2--4-----------2--4-------4---|
E|-0--2-----------0--2-------2---|-0--2-------2-------------------|-0--2-----------0--2-------2---|


E|--------------------------------|----------------------------|--------------------------------|
B|--------------------------------|----------------------------|--------------------------------|
G|--------------------------------|----------------------------|--------------------------------|
D|----------------1---1--0----2---|----------------------------|----------------1---1--0----2---|
A|-2--4-------4---3---3--2----0---|-2--4-----------2--4--------|-2--4-------4---3---3--2----0---|
E|-0--2-------2-------------------|-0--2-----------0--2--------|-0--2-------2-------------------|


E|----------------------------|--------------------------------|-------------------------------------------------|
B|----------------------------|--------------------------------|-------------------------------------------------|
G|----------------------------|--------------------------------|-------------------------------------------------|
D|----------------------------|----------------1---1--0----2---|-------------------4-----------------------------|
A|-2--4-----------2--4--------|-2--4-------4---3---3--2----0---|----------4-----------4--------------------------|
E|-0--2-----------0--2--------|-0--2-------2-------------------|-0--2--2-----2--2--------5--2--3--4--5--2--3--5--|


E|------------------------------------------|-------------------------------------------------|
B|------------------------------------------|-------------------------------------------------|
G|------------------------------------------|-------------------------------------------------|
D|-------------------4----------------------|-------------------4-----------------------------|
A|----------4-----------4--------------5----|----------4-----------4--------------------------|
E|-0--2--2-----2--2--------5--2--3--5--3----|-0--2--2-----2--2--------5--2--3--4--5--2--3--5--|


E|-------------------------------------------------|-------------------------------------------------|
B|-------------------------------------------------|-------------------------------------------------|
G|-------------------------------------------------|-------------------------------------------------|
D|-------------------4-----------------------------|-------------------4-----------------------------|
A|----------4-----------4--3---4---5---6---7---8---|----------4-----------4--------------------------|
E|-0--2--2-----2--2--------1---2---3---4---5---6---|-0--2--2-----2--2--------5--2--3--4--5--2--3--5--|


E|------------------------------------------|-------------------------------------------------|
B|------------------------------------------|-------------------------------------------------|
G|------------------------------------------|-------------------------------------------------|
D|-------------------4----------------------|-------------------4-----------------------------|
A|----------4-----------4--------------5----|----------4-----------4--------------------------|
E|-0--2--2-----2--2--------5--2--3--5--3----|-0--2--2-----2--2--------5--2--3--4--5--2--3--5--|


E|-------------------------------------------------|-------------|-------------|-----------------------|
B|-------------------------------------------------|-------------|-------------|-----------------------|
G|-------------------------------------------------|-------------|-------------|-----------------------|
D|-------------------4-----------------------------|-------------|-------------|-----------------------|
A|----------4-----------4--3---4---5---6---7---8---|-9-----9-----|-------9-----|-------3---5-------3---|
E|-0--2--2-----2--2--------1---2---3---4---5---6---|-7-----7-----|-------7-----|-------1---3-------1---|


E|---------------------------------|---------------------------------|---------------------------------|
B|---------------------------------|---------------------------------|---------------------------------|
G|---------------------------------|---------------------------------|---------------------------------|
D|---------------------------------|---------------------------------|---------------------------------|
A|-5-------3---5-------3---5-------|-3---6-------3---5-------3---5---|-----3---5-------3---6-------3---|
E|-3-------1---3-------1---3-------|-1---4-------1---3-------1---3---|-----1---3-------1---4-------1---|


E|-----------------------|---------------------------------|---------------------------------|
B|-----------------------|---------------------------------|---------------------------------|
G|-----------------------|---------------------------------|---------------------------------|
D|-----------------------|---------------------------------|---------------------------------|
A|-3-----3---5-------3---|-5-------3---5-------3---5-------|-3---6-------3---5-------3---5---|
E|-1-----1---3-------1---|-3-------1---3-------1---3-------|-1---4-------1---3-------1---3---|


E|---------------------------------|-----------------------|---------------------------------|
B|---------------------------------|-----------------------|---------------------------------|
G|---------------------------------|-----------------------|---------------------------------|
D|---------------------------------|-----------------------|---------------------------------|
A|-----3---5-------3---6-------3---|-3-----3---5-------3---|-5-------3---5-------3---5-------|
E|-----1---3-------1---4-------1---|-1-----1---3-------1---|-3-------1---3-------1---3-------|


E|---------------------------------|---------------------------------|-----------------------|
B|---------------------------------|---------------------------------|-----------------------|
G|---------------------------------|---------------------------------|-----------------------|
D|---------------------------------|---------------------------------|-----------------------|
A|-3---6-------3---5-------3---5---|-----3---5-------3---6-------3---|-3-----3---5-------3---|
E|-1---4-------1---3-------1---3---|-----1---3-------1---4-------1---|-1-----1---3-------1---|


E|---------------------------------|---------------------------------|---------------------------------|
B|---------------------------------|---------------------------------|---------------------------------|
G|---------------------------------|---------------------------------|---------------------------------|
D|---------------------------------|---------------------------------|---------------------------------|
A|-5-------3---5-------3---5-------|-3---6-------3---5-------3---5---|-----3---5-------3---6-------3---|
E|-3-------1---3-------1---3-------|-1---4-------1---3-------1---3---|-----1---3-------1---4-------1---|


E|--------|--------|--------|--------|--------|--------|--------|-----------------------------------------|
B|--------|--------|--------|--------|--------|--------|-12-----|-12--12--12--12--12--12--12--12-12-12-12-|
G|--------|--------|--------|--------|--------|--------|--------|-----------------------------------------|
D|--------|--------|--------|--------|--------|--------|--------|-----------------------------------------|
A|-3------|-3------|--------|--------|--------|--------|--------|-----------------------------------------|
E|-1------|-1------|--------|--------|--------|--------|--------|-----------------------------------------|


E|------------------------|--------------------|-19--19--19--19--19--19--19--19--|
B|-10---10---10-------10--|-10------10---------|---------------------------------|
G|------------------------|--------------------|---------------------------------|
D|------------------------|--------------------|---------------------------------|
A|------------------------|--------------------|---------------------------------|
E|------------------------|--------------------|---------------------------------|


E|-19--19--19--19-17----19-------------|---------------------------|--------------------------|
B|-------------------19----19--19-19---|-19---19-17--19------19----|-19-----------------------|
G|-------------------------------------|-----------------18--------|------14-16-14-14---14----|
D|-------------------------------------|---------------------------|--------------------------|
A|-------------------------------------|---------------------------|--------------------------|
E|-------------------------------------|---------------------------|--------------------------|


E|-----------------------------|-----------------17-17--17--------|------------------------|
B|-18----17--15--------15------|-15--15---15--18------------18-17-|------18-------15--15---|
G|---------------17-17-----17--|----------------------------------|-15-------14------------|
D|-----------------------------|----------------------------------|------------------------|
A|-----------------------------|----------------------------------|------------------------|
E|-----------------------------|----------------------------------|------------------------|


E|-----------------------|-------------------------------|-------------------------------------------|
B|-15--15--15--15--15----|-------------------------------|-------------------------------------------|
G|-----------------------|-2-----------------------------|-------------------------------------------|
D|-----------------------|-------4--2--4---4----2--------|-2-------------------------------2--4--2---|
A|-----------------------|-------------------------2--4--|-----4---3---2-----------------------------|
E|-----------------------|-------------------------------|-----------------4---3---2---0-------------|


E|-------------------------------------------|------------------|-------------------------------|
B|-------------------------------------------|------------------|-------------------------------|
G|-------------------------------------------|------------------|-------------------------------|
D|-----2--4--2---------2--4--2---------------|------------------|-------------------------------|
A|-------------------------------------------|-----0------0--0--|-2--4-----------2--4-------4---|
E|-2-------------2--2------------2--2--2--2--|-2----------------|-0--2-----------0--2-------2---|


E|--------------------------------|-------------------------------|--------------------------------|
B|--------------------------------|-------------------------------|--------------------------------|
G|--------------------------------|-------------------------------|--------------------------------|
D|----------------1---1--0----2---|-------------------------------|----------------1---1--0----2---|
A|-2--4-------4---3---3--2----0---|-2--4-----------2--4-------4---|-2--4-------4---3---3--2----0---|
E|-0--2-------2-------------------|-0--2-----------0--2-------2---|-0--2-------2-------------------|


E|----------------------------|--------------------------------|----------------------------|
B|----------------------------|--------------------------------|----------------------------|
G|----------------------------|--------------------------------|----------------------------|
D|----------------------------|----------------1---1--0----2---|----------------------------|
A|-2--4-----------2--4--------|-2--4-------4---3---3--2----0---|-2--4-----------2--4--------|
E|-0--2-----------0--2--------|-0--2-------2-------------------|-0--2-----------0--2--------|


E|--------------------------------|-------------------------------------------------|
B|--------------------------------|-------------------------------------------------|
G|--------------------------------|-------------------------------------------------|
D|----------------1---1--0----2---|-------------------------------------------------|
A|-2--4-------4---3---3--2----0---|-3--5-----3--5-----3--5-----3--5-----3--6-----3--|
E|-0--2-------2-------------------|-1--3-----1--3-----1--3-----1--3-----1--4-----1--|


E|------------------------------------------|-------------------------------------------------|
B|------------------------------------------|-------------------------------------------------|
G|------------------------------------------|-------------------------------------------------|
D|------------------------------------------|-------------------------------------------------|
A|-5-----3--5-----3--5-----3--6-----3--3----|-3--5-----3--5-----3--5-----3--5-----3--6-----3--|
E|-3-----1--3-----1--3-----1--4-----1--1----|-1--3-----1--3-----1--3-----1--3-----1--4-----1--|


E|------------------------------------------|-------------------------------------------------|
B|------------------------------------------|-------------------------------------------------|
G|------------------------------------------|-------------------------------------------------|
D|------------------------------------------|-------------------------------------------------|
A|-5-----3--5-----3--5-----3--6-----3--3----|-3--5-----3--5-----3--5-----3--5-----3--6-----3--|
E|-3-----1--3-----1--3-----1--4-----1--1----|-1--3-----1--3-----1--3-----1--3-----1--4-----1--|


E|------------------------------------------|-------------------------------------------------|
B|------------------------------------------|-------------------------------------------------|
G|------------------------------------------|-------------------------------------------------|
D|------------------------------------------|-------------------------------------------------|
A|-5-----3--5-----3--5-----3--6-----3--3----|-3--5-----3--5-----3--5-----3--5-----3--6-----3--|
E|-3-----1--3-----1--3-----1--4-----1--1----|-1--3-----1--3-----1--3-----1--3-----1--4-----1--|


E|------------------------------------------|-------------|-------------|---------------------------------|
B|------------------------------------------|-------------|-------------|---------------------------------|
G|------------------------------------------|-------------|-------------|---------------------------------|
D|------------------------------------------|-4-----------|-------5-----|---------------------------------|
A|-5-----3--5-----3--5-----3--6-----3--3----|-2-----2-----|-3-----3-----|-3---5-------3---5-------3---5---|
E|-3-----1--3-----1--3-----1--4-----1--1----|-------0-----|-1-----------|-1---3-------1---3-------1---3---|


E|---------------------------------|---------------------------------|-----------------------|
B|---------------------------------|---------------------------------|-----------------------|
G|---------------------------------|---------------------------------|-----------------------|
D|---------------------------------|---------------------------------|-----------------------|
A|-----3---5-------3---6-------3---|-5-------3---5-------3---5-------|-3---6-------3---3-----|
E|-----1---3-------1---4-------1---|-3-------1---3-------1---3-------|-1---4-------1---1-----|


E|---------------------------------|---------------------------------|---------------------------------|
B|---------------------------------|---------------------------------|---------------------------------|
G|---------------------------------|---------------------------------|---------------------------------|
D|---------------------------------|---------------------------------|---------------------------------|
A|-3---5-------3---5-------3---5---|-----3---5-------3---6-------3---|-5-------3---5-------3---5-------|
E|-1---3-------1---3-------1---3---|-----1---3-------1---4-------1---|-3-------1---3-------1---3-------|


E|-----------------------|---------------------------------|---------------------------------|
B|-----------------------|---------------------------------|---------------------------------|
G|-----------------------|---------------------------------|---------------------------------|
D|-----------------------|---------------------------------|---------------------------------|
A|-3---6-------3---3-----|-3---5-------3---5-------3---5---|-----3---5-------3---6-------3---|
E|-1---4-------1---1-----|-1---3-------1---3-------1---3---|-----1---3-------1---4-------1---|


E|---------------------------------|-----------------------|---------------------------------|
B|---------------------------------|-----------------------|---------------------------------|
G|---------------------------------|-----------------------|---------------------------------|
D|---------------------------------|-----------------------|---------------------------------|
A|-5-------3---5-------3---5-------|-3---6-------3---3-----|-3---5-------3---5-------3---5---|
E|-3-------1---3-------1---3-------|-1---4-------1---1-----|-1---3-------1---3-------1---3---|


E|---------------------------------|---------------------------------|-----------------------|
B|---------------------------------|---------------------------------|-----------------------|
G|---------------------------------|---------------------------------|-----------------------|
D|---------------------------------|---------------------------------|-----------------------|
A|-----3---5-------3---6-------3---|-5-------3---5-------3---5-------|-3---6-------3---3-----|
E|-----1---3-------1---4-------1---|-3-------1---3-------1---3-------|-1---4-------1---1-----|


E|---------------------------------|---------------------------------|---------------------------------|
B|---------------------------------|---------------------------------|---------------------------------|
G|---------------------------------|---------------------------------|---------------------------------|
D|---------------------------------|---------------------------------|---------------------------------|
A|-3---5-------3---5-------3---5---|-----3---5-------3---6-------3---|-5-------3---5-------3---5-------|
E|-1---3-------1---3-------1---3---|-----1---3-------1---4-------1---|-3-------1---3-------1---3-------|


E|-----------------------|--------|--------|--------|---------------------------|--------------------|
B|-----------------------|--------|--------|--------|---------------------------|--------------------|
G|-----------------------|-11-----|-11-----|-11-----|-11----11--11--11--11--9---|------11--11--11----|
D|-----------------------|--------|--------|--------|---------------------------|-11-----------------|
A|-3---6-------3---------|--------|--------|--------|---------------------------|--------------------|
E|-1---4-------1---------|--------|--------|--------|---------------------------|--------------------|


E|--------|------------|--------|--------|---------------------------------|-------------------------|
B|--------|-14-----14--|-14-----|--------|-------------------------14--15--|-17--17--17--17-17-17----|
G|-11-----|------------|--------|-14-----|-14---14--14--14---16-16---------|-------------------------|
D|--------|------------|--------|--------|---------------------------------|-------------------------|
A|--------|------------|--------|--------|---------------------------------|-------------------------|
E|--------|------------|--------|--------|---------------------------------|-------------------------|


E|---------------------------------|-----------------------|-------------------------12--12--|
B|-17-17-17--17--17--17--17---17---|-17--17--17--17--17----|-14--14--14--16--16--16--15--15--|
G|---------------------------------|-----------------------|-16--16--16--18--18--18----------|
D|---------------------------------|-----------------------|---------------------------------|
A|---------------------------------|-----------------------|---------------------------------|
E|---------------------------------|-----------------------|---------------------------------|


E|-14--14-----|-14--17--17--17--17-17-17-17-17--17-14-|------------|-----17--17--17--21-20-19-17-19-19-19-17-|
B|-17--17-----|-17------------------------------------|-17--17-----|-17--------------------------------------|
G|------------|---------------------------------------|------------|-----------------------------------------|
D|------------|---------------------------------------|------------|-----------------------------------------|
A|------------|---------------------------------------|------------|-----------------------------------------|
E|------------|---------------------------------------|------------|-----------------------------------------|


E|------------|------------|-21--21--21--21--21--21--21--21--|-21--21--21--21--21--21--21--21--|
B|-19--19-----|-19-----19--|---------------------------------|---------------------------------|
G|------------|------------|---------------------------------|---------------------------------|
D|------------|------------|---------------------------------|---------------------------------|
A|------------|------------|---------------------------------|---------------------------------|
E|------------|------------|---------------------------------|---------------------------------|


E|-21--21--21--21--21---21--21--|-20-----20--|-20-----|-20-----|-20-----|-20-----20--|
B|------------------------------|------------|--------|--------|--------|------------|
G|------------------------------|------------|--------|--------|--------|------------|
D|------------------------------|------------|--------|--------|--------|------------|
A|------------------------------|------------|--------|--------|--------|------------|
E|------------------------------|------------|--------|--------|--------|------------|





Track 3: Rex

G|-----------------|-----------------|-----------------|-----------------|-----------------|
D|-----------------|-----------------|-----------------|-----------------|-----------------|
A|-----------------|-----------------|-----------------|-----------------|-2-----3---------|
E|-2-----3-----3---|-2-----3-----3---|-2-----3-----3---|-2-----3-----3---|-------------2---|


G|-----------------|-----------------|-----------------|-----------------|---------2-----------------|
D|-----------------|-----------------|-----------------|-----------------|-----2------------5--------|
A|-2-----3---3-----|-----------------|-----------------|-4-----3-----3---|-4-----------3---------3---|
E|-----------------|-2-----3-----0---|-2-----3-----3---|-----------------|---------------------------|


G|---------------------------|-----------------|--------|-----------------|---------------------|
D|------------------5--------|-----------------|--------|-----------------|---------------------|
A|-4---0---4---3---------3---|-----------------|--------|-----------------|------------2--------|
E|---------------------------|-4-----5-----5---|-5------|-2-----3-----0---|-2-----3---------3---|


G|-----------------|---------------------|-----------------|-----------------------|
D|-----------------|---------------------|-----------------|-----------------------|
A|-----------------|------------2--------|-2-----3---------|-2-------2---3---3-----|
E|-2-----3-----0---|-2-----3---------3---|-------------2---|-----2-----------------|


G|-----------------|---------------------------|-----------------|---------2-----------------|
D|-----------------|---------------------------|-----------------|-----2------------5--------|
A|-----------------|-----2---4-----------------|-4-----3-----3---|-4-----------3---------3---|
E|-2-----3-----0---|-2-----------3---3-----3---|-----------------|---------------------------|


G|---------------------------|-----------------|-----------------|---------2-----------------|
D|------------------5--------|-----------------|-----------------|-----2------------5--------|
A|-4---0---4---3---------3---|-----------------|-4-----3-----3---|-4-----------3---------3---|
E|---------------------------|-4-----5-----5---|-----------------|---------------------------|


G|---------------------------|-----------------------|-----------------|---------------------------|
D|------------------5--------|-----------------------|-----------------|---------------------------|
A|-4---0---4---3---------3---|-----------------------|-----------------|-------------------4-------|
E|---------------------------|-4---4---4---5---5-----|-5-----2-----3---|-------0---2---5-------3---|


G|------------------------|---------------------------|--------------------------|
D|------------------------|---------------------------|--------------------------|
A|-----2------------------|-------------------4-------|-----2--------------------|
E|----------3---2-----3---|-------0---2---5-------3---|----------3---0--2--------|


G|----------------------------|---------------------------|----------------------------|
D|----------------------------|---------------------------|----------------------------|
A|----------------------------|-3----2----0---------------|----------------------------|
E|-0--2-------2---0--2--------|---------------0--2--------|-0--2-------2---0--2--------|


G|---------------------------|-------------------------|---------------------------|
D|---------------------------|-------------------------|---------------------------|
A|-3----2----0---------------|-------------------------|-3----2----0---------------|
E|---------------0--2--------|-0--2--------0--2--------|---------------0--2--------|


G|-------------------------|-------------------------|---------------------|---------------------|
D|-------------------------|-------------------------|---------------------|---------------------|
A|-------------------------|-3----2----0-------------|---------------------|---------------------|
E|-0--2--------0--2--------|---------------2-----3---|-------3---2-----3---|-------3---2-----3---|


G|---------------------------|---------------------|---------------------------|------------------------|
D|---------------------------|---------------------|---------------------------|------------------------|
A|-------------------4-------|---------------------|-------------------4-------|-----2------------------|
E|-------3---2---5-------3---|-------0---2-----3---|-------0---2---5-------3---|----------3---2-----3---|


G|---------------------------|------------------------|---------------------------|
D|---------------------------|------------------------|---------------4-----------|
A|-------------------4-------|-----2--------2-----3---|-----------2-------2---3---|
E|-------0---2---5-------3---|----------3-------------|-------2-------------------|


G|-----------------|---------------------------|------------------------|-------------------2-------|
D|-----------------|---------------------------|------------------------|---------------2-----------|
A|-3---------------|-------------------4-------|-----2--------4-----3---|-------3---4-----------3---|
E|-------2-----3---|-------0---2---5-------3---|----------3-------------|---------------------------|


G|------------------------------|------------------------|---------------------|-------------------2-------|
D|-----5------------------------|-----5------------------|---------------------|---------------2-----------|
A|----------3---4---0---4---3---|----------3-------------|-----------4-----3---|-------3---4-----------3---|
E|------------------------------|--------------4-----5---|-------5-------------|---------------------------|


G|------------------------------|------------------------|-----------------|-----------------|
D|-----5------------------------|-----5------------------|-----------------|-----------------|
A|----------3---4---0---4---3---|----------3-------------|-----------------|-----------------|
E|------------------------------|--------------4-----5---|-------5-----5---|-2-----3-----0---|


G|---------------------------|-----------------|---------------------------|----------------------------|
D|---------------------------|-----------------|---------------------------|----------------------------|
A|---------4--------2--------|-----------------|---------4--------2--------|----------------------------|
E|-2---5-------3---------3---|-2-----3-----0---|-2---5-------3---------3---|-0--2--------0--2-------2---|


G|---------------------------|----------------------------|---------------------------|
D|---------------------------|----------------------------|---------------------------|
A|-------------3----2----0---|----------------------------|-------------3----2----0---|
E|-0--2----------------------|-0--2--------0--2-------2---|-0--2----------------------|


G|-------------------------|---------------------------|-------------------------|
D|-------------------------|---------------------------|-------------------------|
A|-------------------------|-------------3----2----0---|-------------------------|
E|-0--2--------0--2--------|-0--2----------------------|-0--2--------0--2--------|


G|---------------------------|-------------------------------------------------|------------------------------------------|
D|---------------------------|-------------------4-----------------------------|-------------------4----------------------|
A|-------------3----2----0---|----------4-----------4--------------------------|----------4-----------4-------------------|
E|-0--2----------------------|-0--2--2-----2--2--------5--2--3--4--5--2--3--5--|-0--2--2-----2--2--------5--2--3--5--3----|


G|-------------------------------------------------|-------------------------------------------------|
D|-------------------4-----------------------------|-------------------4-----------------------------|
A|----------4-----------4--------------------------|----------4-----------4--------------------------|
E|-0--2--2-----2--2--------5--2--3--4--5--2--3--5--|-0--2--2-----2--2--------1---2---3---4---5---6---|


G|-------------------------------------------------|------------------------------------------|
D|-------------------4-----------------------------|-------------------4----------------------|
A|----------4-----------4--------------------------|----------4-----------4-------------------|
E|-0--2--2-----2--2--------5--2--3--4--5--2--3--5--|-0--2--2-----2--2--------5--2--3--5--3----|


G|-------------------------------------------------|-------------------------------------------------|
D|-------------------4-----------------------------|-------------------4-----------------------------|
A|----------4-----------4--------------------------|----------4-----------4--------------------------|
E|-0--2--2-----2--2--------5--2--3--4--5--2--3--5--|-0--2--2-----2--2--------1---2---3---4---5---6---|


G|--------|-------------|-----------------------|---------------------------------|
D|--------|-------------|-----------------------|---------------------------------|
A|--------|-------------|-----------------------|---------------------------------|
E|-7------|-7-----7-----|-------1---3-------1---|-3-------1---3-------1---3-------|


G|---------------------------------|---------------------------------|-----------------------|
D|---------------------------------|---------------------------------|-----------------------|
A|---------------------------------|---------------------------------|-----------------------|
E|-1---4-------1---3-------1---3---|-----1---3-------1---4-------1---|-1-----1---3-------1---|


G|---------------------------------|---------------------------------|---------------------------------|
D|---------------------------------|---------------------------------|---------------------------------|
A|---------------------------------|---------------------------------|---------------------------------|
E|-3-------1---3-------1---3-------|-1---4-------1---3-------1---3---|-----1---3-------1---4-------1---|


G|-----------------------|---------------------------------|---------------------------------|
D|-----------------------|---------------------------------|---------------------------------|
A|-----------------------|---------------------------------|---------------------------------|
E|-1-----1---3-------1---|-3-------1---3-------1---3-------|-1---4-------1---3-------1---3---|


G|---------------------------------|-----------------------|---------------------------------|
D|---------------------------------|-----------------------|---------------------------------|
A|---------------------------------|-----------------------|---------------------------------|
E|-----1---3-------1---4-------1---|-1-----1---3-------1---|-3-------1---3-------1---3-------|


G|---------------------------------|---------------------------------|--------|--------|
D|---------------------------------|---------------------------------|--------|--------|
A|---------------------------------|---------------------------------|--------|--------|
E|-1---4-------1---3-------1---3---|-----1---3-------1---4-------1---|-1------|-1------|


G|--------|--------|--------|--------|------------------------|---------------------|
D|--------|--------|--------|--------|------------------------|---------------------|
A|--------|--------|--------|--------|------------------------|---------------------|
E|--------|--------|--------|--------|-2----2---3----0----3---|-2-----3----0----3---|


G|---------------------|---------------------|--------------------|---------------------5---5-------|
D|---------------------|---------------------|--------------------|-----4-----------4-----------4---|
A|---------------------|---------------------|-2---2----3---------|-2-------2---3-------------------|
E|-2-----3----0----3---|-2-----3----0----3---|----------------2---|---------------------------------|


G|------------------------|------------------------|-----------------|-----------------|
D|------------------------|------------------------|-----------------|-------------9---|
A|---------------2--------|---------------2--------|-5-----4-----4---|-3-----2---------|
E|-2----2---3---------3---|-2----2---3---------3---|-----------------|-----------------|


G|------------14-------|------------12----|-----------------|---------------------------|
D|-12----11--------11--|-10----9----------|-----------------|---------------------------|
A|---------------------|------------------|-----------------|---------4--------2--------|
E|---------------------|------------------|-2-----3-----0---|-2---5-------3---------3---|


G|-----------------|---------------------------|----------------------------|---------------------------|
D|-----------------|---------------------------|----------------------------|---------------------------|
A|-----------------|---------4--------2--------|----------------------------|-------------3----2----0---|
E|-2-----3-----0---|-2---5-------3---------3---|-0--2--------0--2-------2---|-0--2----------------------|


G|----------------------------|---------------------------|-------------------------|
D|----------------------------|---------------------------|-------------------------|
A|----------------------------|-------------3----2----0---|-------------------------|
E|-0--2--------0--2-------2---|-0--2----------------------|-0--2--------0--2--------|


G|---------------------------|-------------------------|---------------------------|
D|---------------------------|-------------------------|---------------------------|
A|-------------3----2----0---|-------------------------|-------------3----2----0---|
E|-0--2----------------------|-0--2--------0--2--------|-0--2----------------------|


G|-------------------------------------------------|------------------------------------------|
D|-------------------------------------------------|------------------------------------------|
A|-------------------------------------------------|------------------------------------------|
E|-1--3-----1--3-----1--3-----1--3-----1--4-----1--|-3-----1--3-----1--3-----1--3-----1--1----|


G|-------------------------------------------------|------------------------------------------|
D|-------------------------------------------------|------------------------------------------|
A|-------------------------------------------------|------------------------------------------|
E|-1--3-----1--3-----1--3-----1--3-----1--4-----1--|-3-----1--3-----1--3-----1--3-----1--1----|


G|-------------------------------------------------|------------------------------------------|
D|-------------------------------------------------|------------------------------------------|
A|-------------------------------------------------|------------------------------------------|
E|-1--3-----1--3-----1--3-----1--3-----1--4-----1--|-3-----1--3-----1--3-----1--3-----1--1----|


G|-------------------------------------------------|------------------------------------------|
D|-------------------------------------------------|------------------------------------------|
A|-------------------------------------------------|------------------------------------------|
E|-1--3-----1--3-----1--3-----1--3-----1--4-----1--|-3-----1--3-----1--3-----1--3-----1--1----|


G|-------------|-------------|---------------------------------|---------------------------------|
D|-------------|-------------|---------------------------------|---------------------------------|
A|-2-----------|-------3-----|---------------------------------|---------------------------------|
E|-------0-----|-1-----------|-1---3-------1---3-------1---3---|-----1---3-------1---4-------1---|


G|---------------------------------|-----------------------|---------------------------------|
D|---------------------------------|-----------------------|---------------------------------|
A|---------------------------------|-----------------------|---------------------------------|
E|-3-------1---3-------1---3-------|-1---4-------1---1-----|-1---3-------1---3-------1---3---|


G|---------------------------------|---------------------------------|-----------------------|
D|---------------------------------|---------------------------------|-----------------------|
A|---------------------------------|---------------------------------|-----------------------|
E|-----1---3-------1---4-------1---|-3-------1---3-------1---3-------|-1---4-------1---1-----|


G|---------------------------------|---------------------------------|---------------------------------|
D|---------------------------------|---------------------------------|---------------------------------|
A|---------------------------------|---------------------------------|---------------------------------|
E|-1---3-------1---3-------1---3---|-----1---3-------1---4-------1---|-3-------1---3-------1---3-------|


G|-----------------------|---------------------------------|---------------------------------|
D|-----------------------|---------------------------------|---------------------------------|
A|-----------------------|---------------------------------|---------------------------------|
E|-1---4-------1---1-----|-1---3-------1---3-------1---3---|-----1---3-------1---4-------1---|


G|---------------------------------|-----------------------|---------------------------------|
D|---------------------------------|-----------------------|---------------------------------|
A|---------------------------------|-----------------------|---------------------------------|
E|-3-------1---3-------1---3-------|-1---4-------1---1-----|-1---3-------1---3-------1---3---|


G|---------------------------------|---------------------------------|-----------------------|
D|---------------------------------|---------------------------------|-----------------------|
A|---------------------------------|---------------------------------|-----------------------|
E|-----1---3-------1---4-------1---|-3-------1---3-------1---3-------|-1---4-------1---------|


G|--------|--------|--------|--------|--------|--------|--------|--------|--------|
D|--------|--------|--------|--------|--------|--------|--------|--------|--------|
A|--------|--------|--------|--------|--------|--------|--------|--------|--------|
E|--------|--------|--------|--------|--------|--------|--------|--------|--------|


G|--------|--------|--------|--------|--------|--------|--------|--------|--------|
D|--------|--------|--------|--------|--------|--------|--------|--------|--------|
A|--------|--------|--------|--------|--------|--------|--------|--------|--------|
E|--------|--------|--------|--------|--------|--------|--------|--------|--------|


G|--------|--------|--------|--------|--------|--------|--------|--------|--------|
D|--------|--------|--------|--------|--------|--------|--------|--------|--------|
A|--------|--------|--------|--------|--------|--------|--------|--------|--------|
E|--------|--------|--------|--------|--------|--------|--------|--------|--------|


G|--------|
D|--------|
A|--------|
E|--------|





Track 4: Drums

G|--------------------|-----------------------|--------------------|-----------------------|
D|--------------------|-----------------------|--------------------|-----------------------|
A|--------------------|-----------------------|--------------------|-----------------------|
E|-19-------19--------|-----19------19--------|-19-------19--------|-----19------19--------|


G|--------------------|-----------------------|--------------------|-----------------------|
D|--------------------|-----------------------|--------------------|-----------------------|
A|--------------------|-----------------------|--------------------|-----------------------|
E|-19-------19--------|-----19------19--------|-19-------19--------|-----19------19--------|


G|--------------------|-----------------------|--------------------|-10---------------------|
D|--------------------|-----------------------|--------------------|-----10-----------------|
A|--------------------|-----------------------|--------------------|---------14-------------|
E|-19-------19--------|-----19------19--------|-19-------19--------|-------------19---------|


G|--------|----------------|----------------|----------------|----------------|--------------8---------|
D|--------|----------------|----------------|----------------|----------------|------------------------|
A|--------|----------------|----------------|----------------|----------------|------------------------|
E|--------|-19-------------|-19-------------|-19-------------|-19-------------|-19--19-----------------|


G|-----------------8---------|-----------8---------|--------------8---------|----------------|
D|---------------------------|---------------------|------------------------|----------------|
A|---------------------------|---------------------|------------------------|----------------|
E|-19--19------19------------|-19------------------|-19--19-----------------|-19-------------|


G|--------|--------|--------|--------|--------|--------|-10---------------------|------------------------|
D|--------|--------|--------|--------|--------|--------|-----10-----------------|------------------------|
A|--------|--------|--------|--------|--------|--------|---------14-------------|------------------------|
E|--------|--------|--------|--------|--------|--------|-------------19---------|-----------19-------19--|


G|-----------------------|--------------------|-----------------------|-----------------8-------|
D|-----------------------|--------------------|-----------------------|-------------------------|
A|-----------------------|--------------------|-----------------------|-------------------------|
E|-----------19------19--|-------19-------19--|-----------19------19--|-------19-19---------19--|


G|-----------8-----------------8-------|----------8----------------8-------|-----------8-------------------8---------|
D|-------------------------------------|-----------------------------------|-----------------------------------------|
A|-------------------------------------|-----------------------------------|-----------------------------------------|
E|-19-19---------19--19-19---------19--|-19---19--19-19--19-19---------19--|-19-19---------19--19-19----19----19-19--|


G|-8--------8--8------8--8-------------------|-8-------------------8-------------------|
D|-------------------------------------------|-----------------------------------------|
A|-------------------------------------------|-----------------------------------------|
E|----19-19-------19--------19--19----19--19-|----19--19----19--19----19--19----19--19-|


G|-8--------8--------8---8-------------------|-8-------------------8-------------------|
D|-------------------------------------------|-----------------------------------------|
A|-------------------------------------------|-----------------------------------------|
E|----19-19----19-19--------19--19----19--19-|----19--19----19--19----19--19----19--19-|


G|-8--------8--------8-----------8-------|------8---------------8-------|---------8---------------8-------|
D|---------------------------------------|------------------------------|---------------------------------|
A|---------------------------------------|------------------------------|---------------------------------|
E|----19-19----19-19-----19----------19--|----------19--19----------19--|-----19----------19----------19--|


G|------8--------------8---8---8--|-8---8---8---8--8----------8-------|------8---------------8-------|
D|--------------------------------|-----------------------------------|------------------------------|
A|--------------------------------|-----------------------------------|------------------------------|
E|----------19--19----------------|-------------------19----------19--|----------19--19----------19--|


G|------8---------------8-------|------8---------------8-------|------8--------------------|
D|------------------------------|------------------------------|---------------------------|
A|------------------------------|------------------------------|---------------------------|
E|--------------19----------19--|----------19--19----------19--|--------------19--19-------|


G|-8-------------------------|-8-------------------|-8----------------------|-8-------------------|
D|---------------------------|---------------------|------------------------|---------------------|
A|---------------------------|---------------------|------------------------|---------------------|
E|-----------19--19------19--|-----------19--------|-----------19--19-------|-----------19--------|


G|-------------|-------------|-------------|-------------|-------------|-------------|
D|-------------|-------------|-------------|-------------|-------------|-------------|
A|-------------|-------------|-------------|-------------|-------------|-------------|
E|-------------|-------------|-------------|-------------|-------------|-------------|


G|-------10--------------|-----------------|--------------------|-----------------------|
D|-----------10----------|-----------------|--------------------|-----------------------|
A|---------------14------|-----------------|--------------------|-----------------------|
E|-------------------19--|-----------------|-19-------19--------|-----19------19--------|


G|--------------------|-----------------------|-----------8-----------------8-------|
D|--------------------|-----------------------|-------------------------------------|
A|--------------------|-----------------------|-------------------------------------|
E|-19-------19--------|-----19------19--------|-19-19---------19--19-19---------19--|


G|-----------8----------------8------|-----------8-----------------8-------|-------------8---------8--------8--8------8--|
D|-----------------------------------|-------------------------------------|---------------------------------------------|
A|-----------------------------------|-------------------------------------|---------------------------------------------|
E|-19-19---------19--19---19--19-19--|-19-19---------19--19-19---------19--|-19-19----19----19-19-----19-19-------19-----|


G|-8-------------------8-------------------|-8-------------------8--------8--------8---|
D|-----------------------------------------|-------------------------------------------|
A|-----------------------------------------|-------------------------------------------|
E|----19--19----19--19----19--19----19--19-|----19--19----19--19----19-19----19-19-----|


G|-8-------------------8-------------------|-8-------------------8--------8--------8---|
D|-----------------------------------------|-------------------------------------------|
A|-----------------------------------------|-------------------------------------------|
E|----19--19----19--19----19--19----19--19-|----19--19----19--19----19-19----19-19-----|


G|---------8---------------8---------|---------8----------8------8---8--8--|---------8---------------8---------|
D|-----------------------------------|-------------------------------------|-----------------------------------|
A|-----------------------------------|-------------------------------------|-----------------------------------|
E|-19--------------19--19-----19-----|-19---19---------19-----19-----------|-19--------------19--19-----19-----|


G|---------8-------8---------------------------|---------8---------------8---------|
D|-------------------------------10------------|-----------------------------------|
A|---------------------------------------------|-----------------------------------|
E|-19---19-------------19-19-19------19-19-19--|-19--------------19--19-----19-----|


G|---------8----------8------8---8--8--|---------8---------------8---------|---------8-------8---------------------------|
D|-------------------------------------|-----------------------------------|-------------------------------10------------|
A|-------------------------------------|-----------------------------------|---------------------------------------------|
E|-19---19---------19-----19-----------|-19--------------19--19-----19-----|-19---19-------------19-19-19------19-19-19--|


G|------------|-----------------|-----------------------|-8-------------------------------|
D|------------|-----------------|-----------------------|---------------------------------|
A|------------|-----------------|-----------------------|---------------------------------|
E|-19---------|-----------------|-------19------19------|---------19------19------19------|


G|-8-------------------------------|-8-------------------------------|-8-------------------------------|
D|---------------------------------|---------------------------------|---------------------------------|
A|---------------------------------|---------------------------------|---------------------------------|
E|---------19------19------19------|---------19------19------19------|---------19------19------19------|


G|-8-------------------------------|-8-------------------------------|-8-------------------------------|
D|---------------------------------|---------------------------------|---------------------------------|
A|---------------------------------|---------------------------------|---------------------------------|
E|---------19------19------19------|---------19------19------19------|---------19------19------19------|


G|-8-------------------------------|-8-------------------------------|-8-------------------------------|
D|---------------------------------|---------------------------------|---------------------------------|
A|---------------------------------|---------------------------------|---------------------------------|
E|---------19------19------19------|---------19------19------19------|---------19------19------19------|


G|-8-------------------------------|-8-------------------------------|-8-------------------------------|
D|---------------------------------|---------------------------------|---------------------------------|
A|---------------------------------|---------------------------------|---------------------------------|
E|---------19------19------19------|---------19------19------19------|---------19------19------19------|


G|-8-------------------------------|-8-------------------------------|-8----------|
D|---------------------------------|---------------------------------|------------|
A|---------------------------------|---------------------------------|------------|
E|---------19------19------19------|---------19------19------19------|------------|


G|--------|--------------------|-----------------------|--------------------|-----8------8------8--8-----8--8---8--8--|
D|--------|--------------------|-----------------------|--------------------|-----------------------------------------|
A|--------|--------------------|-----------------------|--------------------|-----------------------------------------|
E|--------|-19-------19--------|-----19------19--------|-19-------19--------|-----------------------------------------|


G|---------8------------8-------|---------8----------8------8-------|---------8------------8-------|
D|------------------------------|-----------------------------------|------------------------------|
A|------------------------------|-----------------------------------|------------------------------|
E|-19----------19-----------19--|-19----------19----------------19--|-19----------19-----------19--|


G|---------8----------8--------8---8--8--|---------8------------8-------|-------------8-----------8--8------|
D|---------------------------------------|------------------------------|-----------------------------------|
A|---------------------------------------|------------------------------|-----------------------------------|
E|-19----------19--------19-19-----------|-19----------19---------------|-19--19--19------19--19--------19--|


G|---------8------------8-------|---------8------------8--8---8--|---------8------------8-------|
D|------------------------------|--------------------------------|------------------------------|
A|------------------------------|--------------------------------|------------------------------|
E|-19----------19-----------19--|-19----------19-----------------|-19----------19-----------19--|


G|---------8------------8-------|---------8------------8-------|---------8------------8---------|
D|------------------------------|------------------------------|--------------------------12-12-|
A|------------------------------|------------------------------|--------------------------------|
E|-19----------19---------------|-19----------19-----------19--|-19----------19-----------------|


G|---------8------------8-------|---------8------------8-------|---------8------------8-------|
D|------------------------------|------------------------------|------------------------------|
A|------------------------------|------------------------------|------------------------------|
E|-19----------19-----------19--|-19----------19---------------|-19----------19-----------19--|


G|---------8--8--8--8--8--8--8---8--8--8---|-----------8-----------------8-------|
D|-----------------------------------------|-------------------------------------|
A|-----------------------------------------|-------------------------------------|
E|-19--------------------------------------|-19-19---------19--19-19---------19--|


G|-----------8----------------8------|-----------8-----------------8-------|-------------8---------8--------8--8------8--|
D|-----------------------------------|-------------------------------------|---------------------------------------------|
A|-----------------------------------|-------------------------------------|---------------------------------------------|
E|-19-19---------19--19---19--19-19--|-19-19---------19--19-19---------19--|-19-19----19----19-19-----19-19-------19-----|


G|-8-------------------8-------------------|-8-------------------8--------8--------8---|
D|-----------------------------------------|-------------------------------------------|
A|-----------------------------------------|-------------------------------------------|
E|----19--19----19--19----19--19----19--19-|----19--19----19--19----19-19----19-19-----|


G|-8-------------------8-------------------|-8-------------------8--------8--------8---|
D|-----------------------------------------|-------------------------------------------|
A|-----------------------------------------|-------------------------------------------|
E|----19--19----19--19----19--19----19--19-|----19--19----19--19----19-19----19-19-----|


G|-------------8-----------------------8-----------|-------------8-----------------------8-----8-----|
D|-------------------------------------------------|-------------------------------------------------|
A|-------------------------------------------------|-------------------------------------------------|
E|-19-19-19-19-19-19-19-19-19-19-19-19-19-19-19-19-|-19-19-19-19-19-19-19-19-19-19-19-19-19-19-19-19-|


G|-------------8-----------------------8-----------|-------------8-----------------------8-----8-----|
D|-------------------------------------------------|-------------------------------------------------|
A|-------------------------------------------------|-------------------------------------------------|
E|-19-19-19-19-19-19-19-19-19-19-19-19-19-19-19-19-|-19-19-19-19-19-19-19-19-19-19-19-19-19-19-19-19-|


G|-------------8-----------------------8-----------|-------------8-----------------------8-----8-----|
D|-------------------------------------------------|-------------------------------------------------|
A|-------------------------------------------------|-------------------------------------------------|
E|-19-19-19-19-19-19-19-19-19-19-19-19-19-19-19-19-|-19-19-19-19-19-19-19-19-19-19-19-19-19-19-19-19-|


G|-------------8-----------------------8-----------|-------------8-----------------------8-----8-----|
D|-------------------------------------------------|-------------------------------------------------|
A|-------------------------------------------------|-------------------------------------------------|
E|-19-19-19-19-19-19-19-19-19-19-19-19-19-19-19-19-|-19-19-19-19-19-19-19-19-19-19-19-19-19-19-19-19-|


G|---------------------|---------------------|-----------------8---------------|-----------------8---------------|
D|---------------------|---------------------|---------------------------------|---------------------------------|
A|---------------------|---------------------|---------------------------------|---------------------------------|
E|-19--------19--------|-19--------19--------|-19------19--------------19------|-19------19--------------19------|


G|-----------------8---------------|-----------------8---------------|-----------------8---------------|
D|---------------------------------|---------------------------------|---------------------------------|
A|---------------------------------|---------------------------------|---------------------------------|
E|-19------19--------------19------|-19------19--------------19------|-19------19--------------19------|


G|-----------------8---------------|-----------------8---------------|-----------------8---------------|
D|---------------------------------|---------------------------------|---------------------------------|
A|---------------------------------|---------------------------------|---------------------------------|
E|-19------19--------------19------|-19------19--------------19------|-19------19--------------19------|


G|-----------------8---------------|-----------------8---------------|-----------------8---------------|
D|---------------------------------|---------------------------------|---------------------------------|
A|---------------------------------|---------------------------------|---------------------------------|
E|-19------19--------------19------|-19------19--------------19------|-19------19--------------19------|


G|-----------------8---------------|-----------------8---------------|-----------------8---------------|
D|---------------------------------|---------------------------------|---------------------------------|
A|---------------------------------|---------------------------------|---------------------------------|
E|-19------19--------------19------|-19------19--------------19------|-19------19--------------19------|


G|-----------------8---------------|-----------------8---------------|-----------------8---------------|
D|---------------------------------|---------------------------------|---------------------------------|
A|---------------------------------|---------------------------------|---------------------------------|
E|-19------19--------------19------|-19------19--------------19------|-19------19--------------19------|


G|-----------------8---------------|-----------------8---------------|-----------------------|
D|---------------------------------|---------------------------------|-----------------------|
A|---------------------------------|---------------------------------|-----------------------|
E|-19------19--------------19------|-19------19--------------19------|-19------19------------|


G|--------|--------|--------|--------|--------|--------|--------|--------|--------|
D|--------|--------|--------|--------|--------|--------|--------|--------|--------|
A|--------|--------|--------|--------|--------|--------|--------|--------|--------|
E|--------|--------|--------|--------|--------|--------|--------|--------|--------|


G|--------|--------|--------|--------|--------|--------|--------|--------|--------|
D|--------|--------|--------|--------|--------|--------|--------|--------|--------|
A|--------|--------|--------|--------|--------|--------|--------|--------|--------|
E|--------|--------|--------|--------|--------|--------|--------|--------|--------|


G|--------|--------|--------|--------|--------|--------|--------|--------|--------|
D|--------|--------|--------|--------|--------|--------|--------|--------|--------|
A|--------|--------|--------|--------|--------|--------|--------|--------|--------|
E|--------|--------|--------|--------|--------|--------|--------|--------|--------|


G|--------|
D|--------|
A|--------|
E|--------|