Menu:

 

Search:

 

pantera - the sleep:

 



Title: The Sleep
Artist: 
Album: Cowboys From Hell
Author: Pantera


Track 1: Clean w/chorus

E|--------|-----------------0---------------|-----------------0---------------|-----------------0---------------|
B|--------|-------------3-------3-----------|-------------3-------3-----------|-------------3-------3-----------|
G|--------|---------5---------------5-------|---------5---------------5-------|---------2---------------2-------|
D|--------|-----7-----------------------7---|-----7-----------------------7---|-----3-----------------------3---|
A|--------|-0-------------------------------|-0-------------------------------|-0-------------------------------|
E|--------|---------------------------------|---------------------------------|---------------------------------|


E|---------------------------------|-----------------0---------------|-----------------0---------------|
B|-------------4-----------4-------|-------------3-------3-----------|-------------3-------3-----------|
G|---------2-------2-----------2---|---------5---------------5-------|---------5---------------5-------|
D|-----3---------------3-----------|-----7-----------------------7---|-----7-----------------------7---|
A|-0-------------------------------|-0-------------------------------|-0-------------------------------|
E|---------------------------------|---------------------------------|---------------------------------|


E|-----------------0---------------|---------------------------------|-----------------0---------------|
B|-------------3-------3-----------|-------------4-----------4-------|-------------4-------4-----------|
G|---------2---------------2-------|---------2-------2-----------2---|---------5---------------5-------|
D|-----3-----------------------3---|-----3---------------3-----------|-----7-----------------------7---|
A|-0-------------------------------|-0-------------------------------|-0-------------------------------|
E|---------------------------------|---------------------------------|---------------------------------|


E|-----------------0---------------|-----------------0---------------|-------------4---------------7---|
B|-------------4-------4-----------|-------------4-------4-----------|---------3---------------6-------|
G|---------7---------------7-------|---------5---------------5-------|-----4---------------7-----------|
D|-----5-----------------------5---|-----7-----------------------7---|-3---------------6---------------|
A|-0-------------------------------|-0-------------------------------|---------------------------------|
E|---------------------------------|---------------------------------|---------------------------------|


E|-----------------0---------------|-----------------0---------------|-----------------0---------------|
B|-------------4-------4-----------|-------------4-------4-----------|-------------4-------4-----------|
G|---------5---------------5-------|---------7---------------7-------|---------5---------------5-------|
D|-----7-----------------------7---|-----5-----------------------5---|-----7-----------------------7---|
A|-0-------------------------------|-0-------------------------------|-0-------------------------------|
E|---------------------------------|---------------------------------|---------------------------------|


E|-------------4---------------7---|-------------10--------------13--|--------|--------|
B|---------3---------------6-------|---------9---------------12------|--------|--------|
G|-----4---------------7-----------|-----10--------------13----------|--------|--------|
D|-3---------------6---------------|-9---------------12--------------|--------|--------|
A|---------------------------------|---------------------------------|--------|--------|
E|---------------------------------|---------------------------------|--------|--------|


E|--------|--------|--------|--------|--------|--------|--------|--------|--------|
B|--------|--------|--------|--------|--------|--------|--------|--------|--------|
G|--------|--------|--------|--------|--------|--------|--------|--------|--------|
D|--------|--------|--------|--------|--------|--------|--------|--------|--------|
A|--------|--------|--------|--------|--------|--------|--------|--------|--------|
E|--------|--------|--------|--------|--------|--------|--------|--------|--------|


E|--------|--------|--------|--------|--------|--------|--------|--------|--------|
B|--------|--------|--------|--------|--------|--------|--------|--------|--------|
G|--------|--------|--------|--------|--------|--------|--------|--------|--------|
D|--------|--------|--------|--------|--------|--------|--------|--------|--------|
A|--------|--------|--------|--------|--------|--------|--------|--------|--------|
E|--------|--------|--------|--------|--------|--------|--------|--------|--------|


E|--------|--------|--------|--------|--------|--------|--------|--------|--------|
B|--------|--------|--------|--------|--------|--------|--------|--------|--------|
G|--------|--------|--------|--------|--------|--------|--------|--------|--------|
D|--------|--------|--------|--------|--------|--------|--------|--------|--------|
A|--------|--------|--------|--------|--------|--------|--------|--------|--------|
E|--------|--------|--------|--------|--------|--------|--------|--------|--------|


E|--------|--------|--------|--------|--------|--------|--------|--------|--------|
B|--------|--------|--------|--------|--------|--------|--------|--------|--------|
G|--------|--------|--------|--------|--------|--------|--------|--------|--------|
D|--------|--------|--------|--------|--------|--------|--------|--------|--------|
A|--------|--------|--------|--------|--------|--------|--------|--------|--------|
E|--------|--------|--------|--------|--------|--------|--------|--------|--------|


E|--------|--------|--------|--------|--------|--------|--------|-----------------0---------------|
B|--------|--------|--------|--------|--------|--------|--------|-------------3-------3-----------|
G|--------|--------|--------|--------|--------|--------|--------|---------5---------------5-------|
D|--------|--------|--------|--------|--------|--------|--------|-----7-----------------------7---|
A|--------|--------|--------|--------|--------|--------|--------|-0-------------------------------|
E|--------|--------|--------|--------|--------|--------|--------|---------------------------------|


E|-----------------0---------------|-----------------0---------------|---------------------------------|
B|-------------3-------3-----------|-------------3-------3-----------|-------------4-----------4-------|
G|---------5---------------5-------|---------2---------------2-------|---------2-------2-----------2---|
D|-----7-----------------------7---|-----3-----------------------3---|-----3---------------3-----------|
A|-0-------------------------------|-0-------------------------------|-0-------------------------------|
E|---------------------------------|---------------------------------|---------------------------------|


E|-----------------0---------------|-----------------0---------------|-----------------0---------------|
B|-------------3-------3-----------|-------------3-------3-----------|-------------3-------3-----------|
G|---------5---------------5-------|---------5---------------5-------|---------2---------------2-------|
D|-----7-----------------------7---|-----7-----------------------7---|-----3-----------------------3---|
A|-0-------------------------------|-0-------------------------------|-0-------------------------------|
E|---------------------------------|---------------------------------|---------------------------------|


E|---------------------------------|-----------------0---------------|-----------------0---------------|
B|-------------4-----------4-------|-------------4-------4-----------|-------------4-------4-----------|
G|---------2-------2-----------2---|---------5---------------5-------|---------7---------------7-------|
D|-----3---------------3-----------|-----7-----------------------7---|-----5-----------------------5---|
A|-0-------------------------------|-0-------------------------------|-0-------------------------------|
E|---------------------------------|---------------------------------|---------------------------------|


E|-----------------0---------------|-------------4---------------7---|-----------------0---------------|
B|-------------4-------4-----------|---------3---------------6-------|-------------4-------4-----------|
G|---------5---------------5-------|-----4---------------7-----------|---------5---------------5-------|
D|-----7-----------------------7---|-3---------------6---------------|-----7-----------------------7---|
A|-0-------------------------------|---------------------------------|-0-------------------------------|
E|---------------------------------|---------------------------------|---------------------------------|


E|-----------------0---------------|-----------------0---------------|-------------4---------------7---|
B|-------------4-------4-----------|-------------4-------4-----------|---------3---------------6-------|
G|---------7---------------7-------|---------5---------------5-------|-----4---------------7-----------|
D|-----5-----------------------5---|-----7-----------------------7---|-3---------------6---------------|
A|-0-------------------------------|-0-------------------------------|---------------------------------|
E|---------------------------------|---------------------------------|---------------------------------|


E|-------------10--------------13--|--------|--------|--------|--------|--------|--------|
B|---------9---------------12------|--------|--------|--------|--------|--------|--------|
G|-----10--------------13----------|--------|--------|--------|--------|--------|--------|
D|-9---------------12--------------|--------|--------|--------|--------|--------|--------|
A|---------------------------------|--------|--------|--------|--------|--------|--------|
E|---------------------------------|--------|--------|--------|--------|--------|--------|


E|-----------------0---------------|-----------------0---------------|-----------------0---------------|
B|-------------3-------3-----------|-------------3-------3-----------|-------------3-------3-----------|
G|---------5---------------5-------|---------5---------------5-------|---------5---------------5-------|
D|-----7-----------------------7---|-----6-----------------------6---|-----5-----------------------5---|
A|-0-------------------------------|-0-------------------------------|-0-------------------------------|
E|---------------------------------|---------------------------------|---------------------------------|


E|-------------------------0-------|-------------4---------------7---|-------------10--------------13--|
B|-------------0---3-----------3---|---------3---------------6-------|---------9---------------12------|
G|---------5-----------5-----------|-----4---------------7-----------|-----10--------------13----------|
D|-----4---------------------------|-3---------------6---------------|-9---------------12--------------|
A|-0-------------------------------|---------------------------------|---------------------------------|
E|---------------------------------|---------------------------------|---------------------------------|


E|-------------10--------------7---|-------------4---------------1---|--------|--------|
B|---------9---------------6-------|---------3---------------0-------|--------|--------|
G|-----10--------------7-----------|-----4---------------1-----------|--------|--------|
D|-9---------------6---------------|-3---------------0---------------|--------|--------|
A|---------------------------------|---------------------------------|--------|--------|
E|---------------------------------|---------------------------------|--------|--------|


E|--------|--------|--------|--------|--------|--------|--------|--------|--------|
B|--------|--------|--------|--------|--------|--------|--------|--------|--------|
G|--------|--------|--------|--------|--------|--------|--------|--------|--------|
D|--------|--------|--------|--------|--------|--------|--------|--------|--------|
A|--------|--------|--------|--------|--------|--------|--------|--------|--------|
E|--------|--------|--------|--------|--------|--------|--------|--------|--------|


E|--------|--------|--------|--------|--------|--------|--------|-------------------------------|
B|--------|--------|--------|--------|--------|--------|--------|----------------0--------------|
G|--------|--------|--------|--------|--------|--------|--------|-----------3---------3---------|
D|--------|--------|--------|--------|--------|--------|--------|------2-------------------2----|
A|--------|--------|--------|--------|--------|--------|--------|-------------------------------|
E|--------|--------|--------|--------|--------|--------|--------|-0-----------------------------|


E|-0-----------------------------|-------------------------------|-0-----------------------------|
B|------0---------0--------------|----------------0--------------|------0-------------------0----|
G|-----------3---------3---------|-----------3---------3---------|-----------3---------3---------|
D|--------------------------5----|------2-------------------2----|----------------5--------------|
A|-------------------------------|-------------------------------|-------------------------------|
E|-------------------------------|-0-----------------------------|-------------------------------|


E|-------------------------------|-0-----------------------------|-------------------------------|
B|----------------0--------------|------0---------0--------------|----------------0--------------|
G|-----------3---------3---------|-----------3---------3---------|-----------3---------3---------|
D|------2-------------------2----|--------------------------5----|------2-------------------2----|
A|-------------------------------|-------------------------------|-------------------------------|
E|-0-----------------------------|-------------------------------|-0-----------------------------|


E|-0-----------------------------|--------|--------|--------|--------|--------|--------|
B|------0-------------------0----|--------|--------|--------|--------|--------|--------|
G|-----------3---------3---------|--------|--------|--------|--------|--------|--------|
D|----------------5--------------|--------|--------|--------|--------|--------|--------|
A|-------------------------------|--------|--------|--------|--------|--------|--------|
E|-------------------------------|--------|--------|--------|--------|--------|--------|


E|--------|--------|--------|--------|--------|--------|--------|--------|--------|
B|--------|--------|--------|--------|--------|--------|--------|--------|--------|
G|--------|--------|--------|--------|--------|--------|--------|--------|--------|
D|--------|--------|--------|--------|--------|--------|--------|--------|--------|
A|--------|--------|--------|--------|--------|--------|--------|--------|--------|
E|--------|--------|--------|--------|--------|--------|--------|--------|--------|


E|--------|--------|--------|--------|--------|--------|--------|--------|--------|
B|--------|--------|--------|--------|--------|--------|--------|--------|--------|
G|--------|--------|--------|--------|--------|--------|--------|--------|--------|
D|--------|--------|--------|--------|--------|--------|--------|--------|--------|
A|--------|--------|--------|--------|--------|--------|--------|--------|--------|
E|--------|--------|--------|--------|--------|--------|--------|--------|--------|


E|-------------------------------|-0-----------------------------|-------------------------------|
B|----------------0--------------|------0---------0--------------|----------------0--------------|
G|-----------3---------3---------|-----------3---------3---------|-----------3---------3---------|
D|------2-------------------2----|--------------------------5----|------2-------------------2----|
A|-------------------------------|-------------------------------|-------------------------------|
E|-0-----------------------------|-------------------------------|-0-----------------------------|


E|-0-----------------------------|-------------------------------|-0-----------------------------|
B|------0-------------------0----|----------------0--------------|------0---------0--------------|
G|-----------3---------3---------|-----------3---------3---------|-----------3---------3---------|
D|----------------5--------------|------2-------------------2----|--------------------------5----|
A|-------------------------------|-------------------------------|-------------------------------|
E|-------------------------------|-0-----------------------------|-------------------------------|


E|-------------------------------|-0-----------------------------|--------|--------|
B|----------------0--------------|------0-------------------0----|--------|--------|
G|-----------3---------3---------|-----------3---------3---------|--------|--------|
D|------2-------------------2----|----------------5--------------|--------|--------|
A|-------------------------------|-------------------------------|--------|--------|
E|-0-----------------------------|-------------------------------|--------|--------|


E|--------|--------|--------|--------|--------|--------|--------|--------|--------|
B|--------|--------|--------|--------|--------|--------|--------|--------|--------|
G|--------|--------|--------|--------|--------|--------|--------|--------|--------|
D|--------|--------|--------|--------|--------|--------|--------|--------|--------|
A|--------|--------|--------|--------|--------|--------|--------|--------|--------|
E|--------|--------|--------|--------|--------|--------|--------|--------|--------|


E|--------|--------|--------|--------|--------|--------|--------|--------|--------|
B|--------|--------|--------|--------|--------|--------|--------|--------|--------|
G|--------|--------|--------|--------|--------|--------|--------|--------|--------|
D|--------|--------|--------|--------|--------|--------|--------|--------|--------|
A|--------|--------|--------|--------|--------|--------|--------|--------|--------|
E|--------|--------|--------|--------|--------|--------|--------|--------|--------|


E|--------|--------|--------|--------|--------|
B|--------|--------|--------|--------|--------|
G|--------|--------|--------|--------|--------|
D|--------|--------|--------|--------|--------|
A|--------|--------|--------|--------|--------|
E|--------|--------|--------|--------|--------|





Track 2: Clean II w/chorus

E|--------|--------|--------|--------|---------------------|--------------|--------|
B|--------|--------|--------|--------|---------------------|--------------|--------|
G|--------|--------|--------|--------|----------8-----8----|-8--8--9------|--------|
D|--------|--------|--------|--------|---------------------|--------------|--------|
A|--------|--------|--------|--------|----------6-----6----|-6--6--7------|--------|
E|--------|--------|--------|--------|------5--------------|--------------|--------|


E|--------|---------------------|-----------------|-----------------|-----------------|
B|--------|---------------------|-----------------|-----------------|-----------------|
G|--------|----------8-----8----|-----------------|-----------------|-----------------|
D|--------|---------------------|-----------------|-----------------|-----------------|
A|--------|----------6-----6----|-----------3-----|-----------5-----|-----------3-----|
E|--------|------5--------------|------5----------|------3----------|------5----------|


E|---------------------------------|-----------------|-----------------|-----------------|
B|---------------------------------|-----------------|-----------------|-----------------|
G|---------------------------------|-----------------|-----------------|-----------------|
D|---------3---6-----------6---9---|-----------------|-----------------|-----------------|
A|-----2---------------5-----------|-----------3-----|-----------5-----|-----------3-----|
E|-1---------------4---------------|------5----------|------3----------|------5----------|


E|---------------------------------|---------------------------------|--------|--------|
B|---------------------------------|---------------------------------|--------|--------|
G|---------------------------------|---------------------------------|--------|--------|
D|---------3---6-----------6---9---|---------9---12----------12--15--|--------|--------|
A|-----2---------------5-----------|-----8---------------11----------|--------|--------|
E|-1---------------4---------------|-7---------------10--------------|--------|--------|


E|--------|--------|--------|--------|--------|--------|--------|--------|--------|
B|--------|--------|--------|--------|--------|--------|--------|--------|--------|
G|--------|--------|--------|--------|--------|--------|--------|--------|--------|
D|--------|--------|--------|--------|--------|--------|--------|--------|--------|
A|--------|--------|--------|--------|--------|--------|--------|--------|--------|
E|--------|--------|--------|--------|--------|--------|--------|--------|--------|


E|--------|--------|--------|--------|--------|--------|--------|--------|--------|
B|--------|--------|--------|--------|--------|--------|--------|--------|--------|
G|--------|--------|--------|--------|--------|--------|--------|--------|--------|
D|--------|--------|--------|--------|--------|--------|--------|--------|--------|
A|--------|--------|--------|--------|--------|--------|--------|--------|--------|
E|--------|--------|--------|--------|--------|--------|--------|--------|--------|


E|--------|--------|--------|--------|--------|--------|--------|--------|--------|
B|--------|--------|--------|--------|--------|--------|--------|--------|--------|
G|--------|--------|--------|--------|--------|--------|--------|--------|--------|
D|--------|--------|--------|--------|--------|--------|--------|--------|--------|
A|--------|--------|--------|--------|--------|--------|--------|--------|--------|
E|--------|--------|--------|--------|--------|--------|--------|--------|--------|


E|--------|--------|--------|--------|--------|--------|--------|--------|--------|
B|--------|--------|--------|--------|--------|--------|--------|--------|--------|
G|--------|--------|--------|--------|--------|--------|--------|--------|--------|
D|--------|--------|--------|--------|--------|--------|--------|--------|--------|
A|--------|--------|--------|--------|--------|--------|--------|--------|--------|
E|--------|--------|--------|--------|--------|--------|--------|--------|--------|


E|--------|--------|--------|--------|--------|--------|--------|--------|--------|
B|--------|--------|--------|--------|--------|--------|--------|--------|--------|
G|--------|--------|--------|--------|--------|--------|--------|--------|--------|
D|--------|--------|--------|--------|--------|--------|--------|--------|--------|
A|--------|--------|--------|--------|--------|--------|--------|--------|--------|
E|--------|--------|--------|--------|--------|--------|--------|--------|--------|


E|--------|---------------------|--------------|--------|--------|---------------------|
B|--------|---------------------|--------------|--------|--------|---------------------|
G|--------|----------8-----8----|-8--8--9------|--------|--------|----------8-----8----|
D|--------|---------------------|--------------|--------|--------|---------------------|
A|--------|----------6-----6----|-6--6--7------|--------|--------|----------6-----6----|
E|--------|------5--------------|--------------|--------|--------|------5--------------|


E|-----------------|-----------------|-----------------|---------------------------------|
B|-----------------|-----------------|-----------------|---------------------------------|
G|-----------------|-----------------|-----------------|---------------------------------|
D|-----------------|-----------------|-----------------|---------3---6-----------6---9---|
A|-----------3-----|-----------5-----|-----------3-----|-----2---------------5-----------|
E|------5----------|------3----------|------5----------|-1---------------4---------------|


E|-----------------|-----------------|-----------------|---------------------------------|
B|-----------------|-----------------|-----------------|---------------------------------|
G|-----------------|-----------------|-----------------|---------------------------------|
D|-----------------|-----------------|-----------------|---------3---6-----------6---9---|
A|-----------3-----|-----------5-----|-----------3-----|-----2---------------5-----------|
E|------5----------|------3----------|------5----------|-1---------------4---------------|


E|---------------------------------|--------|--------|--------|--------|--------|--------|
B|---------------------------------|--------|--------|--------|--------|--------|--------|
G|---------------------------------|--------|--------|--------|--------|--------|--------|
D|---------9---12----------12--15--|--------|--------|--------|--------|--------|--------|
A|-----8---------------11----------|--------|--------|--------|--------|--------|--------|
E|-7---------------10--------------|--------|--------|--------|--------|--------|--------|


E|--------|--------|--------|--------|--------|--------|--------|--------|--------|
B|--------|--------|--------|--------|--------|--------|--------|--------|--------|
G|--------|--------|--------|--------|--------|--------|--------|--------|--------|
D|--------|--------|--------|--------|--------|--------|--------|--------|--------|
A|--------|--------|--------|--------|--------|--------|--------|--------|--------|
E|--------|--------|--------|--------|--------|--------|--------|--------|--------|


E|--------|--------|--------|--------|--------|--------|--------|--------|--------|
B|--------|--------|--------|--------|--------|--------|--------|--------|--------|
G|--------|--------|--------|--------|--------|--------|--------|--------|--------|
D|--------|--------|--------|--------|--------|--------|--------|--------|--------|
A|--------|--------|--------|--------|--------|--------|--------|--------|--------|
E|--------|--------|--------|--------|--------|--------|--------|--------|--------|


E|--------|--------|--------|--------|--------|--------|--------|--------|--------|
B|--------|--------|--------|--------|--------|--------|--------|--------|--------|
G|--------|--------|--------|--------|--------|--------|--------|--------|--------|
D|--------|--------|--------|--------|--------|--------|--------|--------|--------|
A|--------|--------|--------|--------|--------|--------|--------|--------|--------|
E|--------|--------|--------|--------|--------|--------|--------|--------|--------|


E|--------|--------|--------|--------|--------|--------|--------|--------|--------|
B|--------|--------|--------|--------|--------|--------|--------|--------|--------|
G|--------|--------|--------|--------|--------|--------|--------|--------|--------|
D|--------|--------|--------|--------|--------|--------|--------|--------|--------|
A|--------|--------|--------|--------|--------|--------|--------|--------|--------|
E|--------|--------|--------|--------|--------|--------|--------|--------|--------|


E|--------|--------|--------|--------|--------|--------|--------|--------|--------|
B|--------|--------|--------|--------|--------|--------|--------|--------|--------|
G|--------|--------|--------|--------|--------|--------|--------|--------|--------|
D|--------|--------|--------|--------|--------|--------|--------|--------|--------|
A|--------|--------|--------|--------|--------|--------|--------|--------|--------|
E|--------|--------|--------|--------|--------|--------|--------|--------|--------|


E|--------|--------|--------|--------|--------|--------|--------|--------|--------|
B|--------|--------|--------|--------|--------|--------|--------|--------|--------|
G|--------|--------|--------|--------|--------|--------|--------|--------|--------|
D|--------|--------|--------|--------|--------|--------|--------|--------|--------|
A|--------|--------|--------|--------|--------|--------|--------|--------|--------|
E|--------|--------|--------|--------|--------|--------|--------|--------|--------|


E|--------|--------|--------|--------|--------|--------|--------|--------|--------|
B|--------|--------|--------|--------|--------|--------|--------|--------|--------|
G|--------|--------|--------|--------|--------|--------|--------|--------|--------|
D|--------|--------|--------|--------|--------|--------|--------|--------|--------|
A|--------|--------|--------|--------|--------|--------|--------|--------|--------|
E|--------|--------|--------|--------|--------|--------|--------|--------|--------|


E|--------|--------|--------|--------|--------|--------|--------|--------|--------|
B|--------|--------|--------|--------|--------|--------|--------|--------|--------|
G|--------|--------|--------|--------|--------|--------|--------|--------|--------|
D|--------|--------|--------|--------|--------|--------|--------|--------|--------|
A|--------|--------|--------|--------|--------|--------|--------|--------|--------|
E|--------|--------|--------|--------|--------|--------|--------|--------|--------|


E|--------|--------|--------|--------|--------|--------|--------|--------|--------|
B|--------|--------|--------|--------|--------|--------|--------|--------|--------|
G|--------|--------|--------|--------|--------|--------|--------|--------|--------|
D|--------|--------|--------|--------|--------|--------|--------|--------|--------|
A|--------|--------|--------|--------|--------|--------|--------|--------|--------|
E|--------|--------|--------|--------|--------|--------|--------|--------|--------|


E|--------|--------|--------|--------|--------|--------|--------|--------|--------|
B|--------|--------|--------|--------|--------|--------|--------|--------|--------|
G|--------|--------|--------|--------|--------|--------|--------|--------|--------|
D|--------|--------|--------|--------|--------|--------|--------|--------|--------|
A|--------|--------|--------|--------|--------|--------|--------|--------|--------|
E|--------|--------|--------|--------|--------|--------|--------|--------|--------|


E|--------|
B|--------|
G|--------|
D|--------|
A|--------|
E|--------|





Track 3: Heavy Crunch Gtr.

E|--------|--------|--------|--------|--------|--------|--------|--------|--------|
B|--------|--------|--------|--------|--------|--------|--------|--------|--------|
G|--------|--------|--------|--------|--------|--------|--------|--------|--------|
D|--------|--------|--------|--------|--------|--------|--------|--------|--------|
A|--------|--------|--------|--------|--------|--------|--------|--------|--------|
E|--------|--------|--------|--------|--------|--------|--------|--------|--------|


E|--------|--------|--------|--------|--------|--------|--------|--------|--------|
B|--------|--------|--------|--------|--------|--------|--------|--------|--------|
G|--------|--------|--------|--------|--------|--------|--------|--------|--------|
D|--------|--------|--------|--------|--------|--------|--------|--------|--------|
A|--------|--------|--------|--------|--------|--------|--------|--------|--------|
E|--------|--------|--------|--------|--------|--------|--------|--------|--------|


E|---------------------------|-------------------------------------------|---------------------------------------------|
B|---------------------------|-------------------------------------------|---------------------------------------------|
G|-2----2--------------------|-------------------------------------------|---------------------------------------------|
D|-2----2--------4---5---6---|-1--1--2---1--1--2-------2--2--2--1--2-----|-1--1--2-----1-------------------------------|
A|-0----0--------2---3---4---|-2--2--3---2--2--3-------3--3--3--2--3-----|-2--2--3-----2-----0-------0--0--0--0--0-----|
E|---------------2---3---4---|-------------------------------------------|-------------------2-------2--2--2--3--2-----|


E|-------------------------------------------|------------------------------------|
B|-------------------------------------------|------------------------------------|
G|-------------------------------------------|------------------------------------|
D|-1--1--2---1--1--2-------2--2--2--1--2-----|-1--1--2-----1----------------------|
A|-2--2--3---2--2--3-------3--3--3--2--3-----|-2--2--3-----2-----0----------------|
E|-------------------------------------------|-------------------2----------------|


E|-------------------------------------------|---------------------------------------------|
B|-------------------------------------------|---------------------------------------------|
G|-------------------------------------------|---------------------------------------------|
D|-1--1--2---1--1--2-------2--2--2--1--2-----|-1--1--2-----1-------------------------------|
A|-2--2--3---2--2--3-------3--3--3--2--3-----|-2--2--3-----2-----0-------0--0--0--0--0-----|
E|-------------------------------------------|-------------------2-------2--2--2--3--2-----|


E|-------------------------------------------|------------------------------------|
B|-------------------------------------------|------------------------------------|
G|-------------------------------------------|------------------------------------|
D|-1--1--2---1--1--2-------2--2--2--1--2-----|-1--1--2-----1----------------------|
A|-2--2--3---2--2--3-------3--3--3--2--3-----|-2--2--3-----2-----0----------------|
E|-------------------------------------------|-------------------2----------------|


E|-------------------------------------------|---------------------------------------------|
B|-------------------------------------------|---------------------------------------------|
G|-------------------------------------------|---------------------------------------------|
D|-1--1--2---1--1--2-------2--2--2--1--2-----|-1--1--2-----1-------------------------------|
A|-2--2--3---2--2--3-------3--3--3--2--3-----|-2--2--3-----2-----0-------0--0--0--0--0-----|
E|-------------------------------------------|-------------------2-------2--2--2--3--2-----|


E|-------------------------------------------|---------------------------------------------|
B|-------------------------------------------|---------------------------------------------|
G|-------------------------------------------|---------------------------------------------|
D|-1--1--2---1--1--2-------2--2--2--1--2-----|-1--1--2-----1-------------------------------|
A|-2--2--3---2--2--3-------3--3--3--2--3-----|-2--2--3-----2-----0-------0--0--0--0--0-----|
E|-------------------------------------------|-------------------2-------2--2--2--3--2-----|


E|-------------------------------------------|---------------------------------------------|
B|-------------------------------------------|---------------------------------------------|
G|-------------------------------------------|---------------------------------------------|
D|-1--1--2---1--1--2-------2--2--2--1--2-----|-1--1--2-----1-------------------------------|
A|-2--2--3---2--2--3-------3--3--3--2--3-----|-2--2--3-----2-----0-------0--0--0--0--0-----|
E|-------------------------------------------|-------------------2-------2--2--2--3--2-----|


E|-------------------------------------------|-------------------------------------------|
B|-------------------------------------------|-------------------------------------------|
G|-------------------------------------------|-------------------------------------------|
D|-1--1--2---1--1--2-------2--2--2--1--2-----|-1--1--2-----1-----------------------------|
A|-2--2--3---2--2--3-------3--3--3--2--3-----|-2--2--3-----2-----0-------0--0--0---------|
E|-------------------------------------------|-------------------2-------2--2--2---2--1--|


E|-----------------------------------------------|--------------|-----------------------------------------------|
B|-----------------------------------------------|--------------|-----------------------------------------------|
G|-----------------------------------------------|--------------|-----------------------------------------------|
D|-2-----------4-----------5--------5--9-----7---|-7------------|-2-----------4-----------5--------5--9-----7---|
A|-2-----------4-----------5--------5--9-----7---|-7------------|-2-----------4-----------5--------5--9-----7---|
E|-0--0--0--0--2--2--2--2--3--3--3--3--7--0--5---|-5------3--2--|-0--0--0--0--2--2--2--2--3--3--3--3--7--0--5---|


E|--------------|-----------------------------------------------|-----------------------------------------|
B|--------------|-----------------------------------------------|-----------------------------------------|
G|--------------|-----------------------------------------------|-----------------------------------------|
D|-7------------|-2-----------4-----------5--------5--9-----7---|-7---------7---------7---------7---------|
A|-7------------|-2-----------4-----------5--------5--9-----7---|-7---------7---------7---------7---------|
E|-5------3--2--|-0--0--0--0--2--2--2--2--3--3--3--3--7--0--5---|-5---7--0--5---7--0--5---7--0--5---3--2--|


E|-----------------------------------------------|---------------------------|-------------------------------------------|
B|-----------------------------------------------|---------------------------|-------------------------------------------|
G|-------------------------------------------2---|-2---2---------------------|-------------------------------------------|
D|-2-----------4-----------5--------5--9-----2---|-2---2---------4---5---6---|-1--1--2---1--1--2-------2--2--2--1--2-----|
A|-2-----------4-----------5--------5--9-----0---|-0---0---------2---3---4---|-2--2--3---2--2--3-------3--3--3--2--3-----|
E|-0--0--0--0--2--2--2--2--3--3--3--3--7--0------|---------------2---3---4---|-------------------------------------------|


E|---------------------------------------------|-------------------------------------------|
B|---------------------------------------------|-------------------------------------------|
G|---------------------------------------------|-------------------------------------------|
D|-1--1--2-----1-------------------------------|-1--1--2---1--1--2-------2--2--2--1--2-----|
A|-2--2--3-----2-----0-------0--0--0--0--0-----|-2--2--3---2--2--3-------3--3--3--2--3-----|
E|-------------------2-------2--2--2--3--2-----|-------------------------------------------|


E|------------------------------------|-------------------------------------------|
B|------------------------------------|-------------------------------------------|
G|------------------------------------|-------------------------------------------|
D|-1--1--2-----1----------------------|-1--1--2---1--1--2-------2--2--2--1--2-----|
A|-2--2--3-----2-----0----------------|-2--2--3---2--2--3-------3--3--3--2--3-----|
E|-------------------2----------------|-------------------------------------------|


E|---------------------------------------------|-------------------------------------------|
B|---------------------------------------------|-------------------------------------------|
G|---------------------------------------------|-------------------------------------------|
D|-1--1--2-----1-------------------------------|-1--1--2---1--1--2-------2--2--2--1--2-----|
A|-2--2--3-----2-----0-------0--0--0--0--0-----|-2--2--3---2--2--3-------3--3--3--2--3-----|
E|-------------------2-------2--2--2--3--2-----|-------------------------------------------|


E|------------------------------------|-------------------------------------------|
B|------------------------------------|-------------------------------------------|
G|------------------------------------|-------------------------------------------|
D|-1--1--2-----1----------------------|-1--1--2---1--1--2-------2--2--2--1--2-----|
A|-2--2--3-----2-----0----------------|-2--2--3---2--2--3-------3--3--3--2--3-----|
E|-------------------2----------------|-------------------------------------------|


E|---------------------------------------------|-------------------------------------------|
B|---------------------------------------------|-------------------------------------------|
G|---------------------------------------------|-------------------------------------------|
D|-1--1--2-----1-------------------------------|-1--1--2---1--1--2-------2--2--2--1--2-----|
A|-2--2--3-----2-----0-------0--0--0--0--0-----|-2--2--3---2--2--3-------3--3--3--2--3-----|
E|-------------------2-------2--2--2--3--2-----|-------------------------------------------|


E|-------------------------------------------|-----------------------------------------------|
B|-------------------------------------------|-----------------------------------------------|
G|-------------------------------------------|-----------------------------------------------|
D|-1--1--2-----1-----------------------------|-2-----------4-----------5--------5--9-----7---|
A|-2--2--3-----2-----0-------0--0--0---------|-2-----------4-----------5--------5--9-----7---|
E|-------------------2-------2--2--2---2--1--|-0--0--0--0--2--2--2--2--3--3--3--3--7--0--5---|


E|--------------|-----------------------------------------------|--------------|-----------------------------------------------|
B|--------------|-----------------------------------------------|--------------|-----------------------------------------------|
G|--------------|-----------------------------------------------|--------------|-----------------------------------------------|
D|-7------------|-2-----------4-----------5--------5--9-----7---|-7------------|-2-----------4-----------5--------5--9-----7---|
A|-7------------|-2-----------4-----------5--------5--9-----7---|-7------------|-2-----------4-----------5--------5--9-----7---|
E|-5------3--2--|-0--0--0--0--2--2--2--2--3--3--3--3--7--0--5---|-5------3--2--|-0--0--0--0--2--2--2--2--3--3--3--3--7--0--5---|


E|-----------------------------------------|-----------------------------------------------|
B|-----------------------------------------|-----------------------------------------------|
G|-----------------------------------------|-------------------------------------------2---|
D|-7---------7---------7---------7---------|-2-----------4-----------5--------5--9-----2---|
A|-7---------7---------7---------7---------|-2-----------4-----------5--------5--9-----0---|
E|-5---7--0--5---7--0--5---7--0--5---3--2--|-0--0--0--0--2--2--2--2--3--3--3--3--7--0------|


E|-----------------|--------|--------|--------|--------|--------|--------|--------|
B|-----------------|--------|--------|--------|--------|--------|--------|--------|
G|-2---2-----------|--------|--------|--------|--------|--------|--------|--------|
D|-2---2-----------|--------|--------|--------|--------|--------|--------|--------|
A|-0---0-----------|--------|--------|--------|--------|--------|--------|--------|
E|-----------------|--------|--------|--------|--------|--------|--------|--------|


E|--------|--------|--------|--------|--------|--------|--------|--------|--------|
B|--------|--------|--------|--------|--------|--------|--------|--------|--------|
G|--------|--------|--------|--------|--------|--------|--------|--------|--------|
D|--------|--------|--------|--------|--------|--------|--------|--------|--------|
A|--------|--------|--------|--------|--------|--------|--------|--------|--------|
E|--------|--------|--------|--------|--------|--------|--------|--------|--------|


E|--------|--------|--------|--------|-17-----|-17-----|-17-----|--------|--------|
B|--------|-10-----|-10-----|-10-----|--------|--------|--------|--------|--------|
G|--------|--------|--------|--------|--------|--------|--------|--------|--------|
D|--------|--------|--------|--------|--------|--------|--------|--------|--------|
A|--------|--------|--------|--------|--------|--------|--------|--------|--------|
E|--------|--------|--------|--------|--------|--------|--------|--------|--------|


E|--------|--------|--------|--------|--------|--------|--------|--------|---------------------------|
B|--------|--------|--------|--------|--------|--------|--------|--------|---------------------------|
G|--------|--------|--------|--------|--------|--------|-2------|-2------|---------------------------|
D|--------|--------|--------|--------|--------|--------|-2------|-2------|-2------------3----5---3---|
A|--------|--------|--------|--------|--------|--------|-0------|-0------|-0----0---0---0----0-------|
E|--------|--------|--------|--------|--------|--------|--------|--------|---------------------------|


E|--------------------------------|---------------------------|-----------------------|
B|-------------------6------------|---------------------------|-----------------------|
G|-------------------5------------|--------------7------------|-----------------------|
D|-----3-------3-----3------------|--------------7------------|-----------------------|
A|------------------------3---4---|-5----5---5---5------------|-----------------5-----|
E|--------------------------------|-------------------5---3---|-----3-------3---4-----|


E|---------------------------|--------------------------------|---------------------------|
B|---------------------------|-------------------6------------|---------------------------|
G|---------------------------|-------------------5------------|--------------7------------|
D|--------------3----5---3---|-----3-------3-----3------------|--------------7------------|
A|-0----0---0---0----0-------|------------------------3---4---|-5----5---5---5------------|
E|---------------------------|--------------------------------|-------------------5---3---|


E|-----------------------|---------------------------|--------------------------------|
B|-----------------------|---------------------------|-------------------6------------|
G|-----------------------|---------------------------|-------------------5------------|
D|-----------------------|--------------3----5---3---|-----3-------3-----3------------|
A|-----------------5-----|-0----0---0---0----0-------|------------------------3---4---|
E|-----3-------3---4-----|---------------------------|--------------------------------|


E|---------------------------|-----------------------|---------------------------|
B|---------------------------|-----------------------|---------------------------|
G|--------------7------------|-----------------------|---------------------------|
D|--------------7------------|-----------------------|--------------3----5---3---|
A|-5----5---5---5------------|-----------------5-----|-0----0---0---0----0-------|
E|-------------------5---3---|-----3-------3---4-----|---------------------------|


E|--------------------------------|---------------------------|-----------------------|
B|-------------------6------------|---------------------------|-----------------------|
G|-------------------5------------|--------------7------------|-----------------------|
D|-----3-------3-----3------------|--------------7------------|-----------------------|
A|------------------------3---4---|-5----5---5---5------------|-----------------5-----|
E|--------------------------------|-------------------5---3---|-----3-------3---4-----|


E|---------------------------|--------|------------------------|------------------------|
B|---------------------------|--------|------------------------|------------------------|
G|---------------------------|--------|-------------------3----|-3---------3--4----4----|
D|-2--------2--------2-------|--------|-2--------2--------3----|-3---------3--4----4----|
A|-2--------2--------2-------|--------|-2--------2--------1----|-1---------1--2----2----|
E|-0--------0--------0-------|--------|-0--------0-------------|------0-----------------|


E|---------------------------|--------|------------------------|------------------------|
B|---------------------------|--------|------------------------|------------------------|
G|---------------------------|--------|-------------------3----|-3---------3--4----4----|
D|-2--------2--------2-------|--------|-2--------2--------3----|-3---------3--4----4----|
A|-2--------2--------2-------|--------|-2--------2--------1----|-1---------1--2----2----|
E|-0--------0--------0-------|--------|-0--------0-------------|------0-----------------|


E|---------------------------|--------------------------------|---------------------------|
B|---------------------------|-------------------6------------|---------------------------|
G|---------------------------|-------------------5------------|--------------7------------|
D|-2------------3----5---3---|-----3-------3-----3------------|--------------7------------|
A|-0----0---0---0----0-------|------------------------3---4---|-5----5---5---5------------|
E|---------------------------|--------------------------------|-------------------5---3---|


E|-----------------------|---------------------------|--------------------------------|
B|-----------------------|---------------------------|-------------------6------------|
G|-----------------------|---------------------------|-------------------5------------|
D|-----------------------|--------------3----5---3---|-----3-------3-----3------------|
A|-----------------5-----|-0----0---0---0----0-------|------------------------3---4---|
E|-----3-------3---4-----|---------------------------|--------------------------------|


E|---------------------------|-----------------------|---------------------------|
B|---------------------------|-----------------------|---------------------------|
G|--------------7------------|-----------------------|---------------------------|
D|--------------7------------|-----------------------|--------------3----5---3---|
A|-5----5---5---5------------|-----------------5-----|-0----0---0---0----0-------|
E|-------------------5---3---|-----3-------3---4-----|---------------------------|


E|--------------------------------|---------------------------|-----------------------|
B|-------------------6------------|---------------------------|-----------------------|
G|-------------------5------------|--------------7------------|-----------------------|
D|-----3-------3-----3------------|--------------7------------|-----------------------|
A|------------------------3---4---|-5----5---5---5------------|-----------------5-----|
E|--------------------------------|-------------------5---3---|-----3-------3---4-----|


E|---------------------------|--------------------------------|------------------------------|
B|---------------------------|-------------------6------------|------------------------------|
G|---------------------------|-------------------5------------|-----------------7------------|
D|--------------3----5---3---|-----3-------3-----3------------|-----------------7------------|
A|-0----0---0---0----0-------|------------------------3---4---|-5---5---5---5---5------------|
E|---------------------------|--------------------------------|----------------------5---3---|


E|-----------------------|---------------------------------|------------------------------|
B|-----------------------|-------------------------6-------|-----------------6------------|
G|-----------------------|-------------------------5-------|-----------------5------------|
D|-----------------------|-2-----------2-----------3-------|-----3-------3---3------------|
A|-----------------5-----|-0---0---0---0---0---0-----------|----------------------3---4---|
E|-----3-------3---4-----|---------------------------------|------------------------------|


E|---------------------------------|-----------------------|---------------------------------|
B|---------------------------------|-----------------------|-------------------------6-------|
G|---------------------------------|-----------------------|-------------------------5-------|
D|-7-----------7-------------------|-----------------------|-2-----------2-----------3-------|
A|-5---5---5---5---5---5---5-------|-----5-------5---5-----|-0---0---0---0---0---0-----------|
E|-------------------------3-------|-----3-------3---4-----|---------------------------------|


E|------------------------------|---------------------------------|-----------------------|
B|-----------------6------------|---------------------------------|-----------------------|
G|-----------------5------------|---------------------------------|-----------------------|
D|-----3-------3---3------------|-7-----------7-------------------|-----------------------|
A|----------------------3---4---|-5---5---5---5---5---5---5-------|-----5-------5---5-----|
E|------------------------------|-------------------------3-------|-----3-------3---4-----|


E|---------------------------|--------|------------------------|------------------------|
B|---------------------------|--------|------------------------|------------------------|
G|---------------------------|--------|-------------------3----|-3---------3--4----4----|
D|-2--------2--------2-------|--------|-2--------2--------3----|-3---------3--4----4----|
A|-2--------2--------2-------|--------|-2--------2--------1----|-1---------1--2----2----|
E|-0--------0--------0-------|--------|-0--------0-------------|------0-----------------|


E|---------------------------|--------|------------------------|------------------------|
B|---------------------------|--------|------------------------|------------------------|
G|---------------------------|--------|-------------------3----|-3---------3--4----4----|
D|-2--------2--------2-------|--------|-2--------2--------3----|-3---------3--4----4----|
A|-2--------2--------2-------|--------|-2--------2--------1----|-1---------1--2----2----|
E|-0--------0--------0-------|--------|-0--------0-------------|------0-----------------|


E|---------------------------|-------------------------------------------|---------------------------------------|
B|---------------------------|-------------------------------------------|---------------------------------------|
G|---------------------------|-------------------------------------------|------------------------7--------------|
D|-2---2---------4---5---6---|-1--1--2---1--1--2-------1--1--1--1--2-----|-1--1--2---1--1--2---7--7----7--7---7--|
A|-2---2---------2---3---4---|-2--2--3---2--2--3-------2--2--2--2--3-----|-2--2--3---2--2--3---7--5----7--6---6--|
E|-0---0---------2---3---4---|-------------------------------------------|---------------------7-------7---------|


E|-----------------------------------------------|--------------|-----------------------------------------------|
B|-----------------------------------------------|--------------|-----------------------------------------------|
G|-----------------------------------------------|--------------|-----------------------------------------------|
D|-2-----------4-----------5--------5--9-----7---|-7------------|-2-----------4-----------5--------5--9-----7---|
A|-2-----------4-----------5--------5--9-----7---|-7------------|-2-----------4-----------5--------5--9-----7---|
E|-0--0--0--0--2--2--2--2--3--3--3--3--7--0--5---|-5------3--2--|-0--0--0--0--2--2--2--2--3--3--3--3--7--0--5---|


E|--------------|-----------------------------------------------|-----------------------------------------|
B|--------------|-----------------------------------------------|-----------------------------------------|
G|--------------|-----------------------------------------------|-----------------------------------------|
D|-7------------|-2-----------4-----------5--------5--9-----7---|-7---------7---------7---------7---------|
A|-7------------|-2-----------4-----------5--------5--9-----7---|-7---------7---------7---------7---------|
E|-5------3--2--|-0--0--0--0--2--2--2--2--3--3--3--3--7--0--5---|-5---7--0--5---7--0--5---7--0--5---3--2--|


E|-----------------------------------------------|-------------------------|-----------------------------------------------|
B|-----------------------------------------------|-------------------------|-----------------------------------------------|
G|-----------------------------------------------|----------7--------------|-----------------------------------------------|
D|-2-----------4-----------5--------5--9-----7---|-7-----7--7----7--7---7--|-2-----------4-----------5--------5--9-----7---|
A|-2-----------4-----------5--------5--9-----7---|-7-----7--5----7--6---6--|-2-----------4-----------5--------5--9-----7---|
E|-0--0--0--0--2--2--2--2--3--3--3--3--7--0--5---|-5-----7-------7---------|-0--0--0--0--2--2--2--2--3--3--3--3--7--0--5---|


E|--------------|-----------------------------------------------|-------------------------|
B|--------------|-----------------------------------------------|-------------------------|
G|--------------|-----------------------------------------------|----------7--------------|
D|-7------------|-2-----------4-----------5--------5--9-----7---|-7-----7--7----7--7---7--|
A|-7------------|-2-----------4-----------5--------5--9-----7---|-7-----7--5----7--6---6--|
E|-5------3--2--|-0--0--0--0--2--2--2--2--3--3--3--3--7--0--5---|-5-----7-------7---------|


E|-----------------------------------------------|--------------|-----------------------------------------------|
B|-----------------------------------------------|--------------|-----------------------------------------------|
G|-----------------------------------------------|--------------|-----------------------------------------------|
D|-2-----------4-----------5--------5--9-----7---|-7------------|-2-----------4-----------5--------5--9-----7---|
A|-2-----------4-----------5--------5--9-----7---|-7------------|-2-----------4-----------5--------5--9-----7---|
E|-0--0--0--0--2--2--2--2--3--3--3--3--7--0--5---|-5------3--2--|-0--0--0--0--2--2--2--2--3--3--3--3--7--0--5---|


E|-------------------------|--------------------|-------------------------------------|
B|-------------------------|--------------------|-------------------------------------|
G|----------7--------------|--------------------|-------------------------------------|
D|-7-----7--7----7--7---7--|-2----2---2---------|-----4---5---6---1--1--2---1--1--2---|
A|-7-----7--5----7--6---6--|-2----2---2---------|-----2---3---4---2--2--3---2--2--3---|
E|-5-----7-------7---------|-0----0---0---------|-----2---3---4-----------------------|


E|---------------------------------------------|-------------------------------------------|
B|---------------------------------------------|-------------------------------------------|
G|---------------------------------------------|-------------------------------------------|
D|-----1--1--1--1--2-----1--1--2-----1---------|-----------------------1--1--2---1--1--2---|
A|-----2--2--2--2--3-----2--2--3-----2-----0---|-------0--0--0--0------2--2--3---2--2--3---|
E|-----------------------------------------2---|-------2--2--2--3--------------------------|


E|---------------------------------------------|----------------------|
B|---------------------------------------------|----------------------|
G|---------------------------------------------|----------------------|
D|-----1--1--1--1--2-----1--1--2-----1---------|----------------------|
A|-----2--2--2--2--3-----2--2--3-----2-----0---|----------------------|
E|-----------------------------------------2---|----------------------|





Track 4: Clean w/chorus

E|--------|--------|--------|--------|--------|--------|--------|--------|--------|
B|--------|--------|--------|--------|--------|--------|--------|--------|--------|
G|--------|--------|--------|--------|--------|--------|--------|--------|--------|
D|--------|--------|--------|--------|--------|--------|--------|--------|--------|
A|--------|--------|--------|--------|--------|--------|--------|--------|--------|
E|--------|--------|--------|--------|--------|--------|--------|--------|--------|


E|--------|--------|--------|--------|--------|--------|--------|--------|--------|
B|--------|--------|--------|--------|--------|--------|--------|--------|--------|
G|--------|--------|--------|--------|--------|--------|--------|--------|--------|
D|--------|--------|--------|--------|--------|--------|--------|--------|--------|
A|--------|--------|--------|--------|--------|--------|--------|--------|--------|
E|--------|--------|--------|--------|--------|--------|--------|--------|--------|


E|--------|--------|--------|--------|--------|--------|--------|--------|--------|
B|--------|--------|--------|--------|--------|--------|--------|--------|--------|
G|--------|--------|--------|--------|--------|--------|--------|--------|--------|
D|--------|--------|--------|--------|--------|--------|--------|--------|--------|
A|--------|--------|--------|--------|--------|--------|--------|--------|--------|
E|--------|--------|--------|--------|--------|--------|--------|--------|--------|


E|--------|--------|--------|--------|--------|--------|--------|--------|--------|
B|--------|--------|--------|--------|--------|--------|--------|--------|--------|
G|--------|--------|--------|--------|--------|--------|--------|--------|--------|
D|--------|--------|--------|--------|--------|--------|--------|--------|--------|
A|--------|--------|--------|--------|--------|--------|--------|--------|--------|
E|--------|--------|--------|--------|--------|--------|--------|--------|--------|


E|--------|--------|--------|--------|--------|--------|--------|--------|--------|
B|--------|--------|--------|--------|--------|--------|--------|--------|--------|
G|--------|--------|--------|--------|--------|--------|--------|--------|--------|
D|--------|--------|--------|--------|--------|--------|--------|--------|--------|
A|--------|--------|--------|--------|--------|--------|--------|--------|--------|
E|--------|--------|--------|--------|--------|--------|--------|--------|--------|


E|--------|--------|--------|--------|--------|--------|--------|--------|--------|
B|--------|--------|--------|--------|--------|--------|--------|--------|--------|
G|--------|--------|--------|--------|--------|--------|--------|--------|--------|
D|--------|--------|--------|--------|--------|--------|--------|--------|--------|
A|--------|--------|--------|--------|--------|--------|--------|--------|--------|
E|--------|--------|--------|--------|--------|--------|--------|--------|--------|


E|--------|--------|--------|--------|--------|--------|--------|--------|--------|
B|--------|--------|--------|--------|--------|--------|--------|--------|--------|
G|--------|--------|--------|--------|--------|--------|--------|--------|--------|
D|--------|--------|--------|--------|--------|--------|--------|--------|--------|
A|--------|--------|--------|--------|--------|--------|--------|--------|--------|
E|--------|--------|--------|--------|--------|--------|--------|--------|--------|


E|--------|--------|--------|--------|--------|--------|--------|--------|--------|
B|--------|--------|--------|--------|--------|--------|--------|--------|--------|
G|--------|--------|--------|--------|--------|--------|--------|--------|--------|
D|--------|--------|--------|--------|--------|--------|--------|--------|--------|
A|--------|--------|--------|--------|--------|--------|--------|--------|--------|
E|--------|--------|--------|--------|--------|--------|--------|--------|--------|


E|--------|--------|--------|--------|--------|--------|--------|--------|--------|
B|--------|--------|--------|--------|--------|--------|--------|--------|--------|
G|--------|--------|--------|--------|--------|--------|--------|--------|--------|
D|--------|--------|--------|--------|--------|--------|--------|--------|--------|
A|--------|--------|--------|--------|--------|--------|--------|--------|--------|
E|--------|--------|--------|--------|--------|--------|--------|--------|--------|


E|--------|--------|--------|--------|--------|--------|--------|--------|--------|
B|--------|--------|--------|--------|--------|--------|--------|--------|--------|
G|--------|--------|--------|--------|--------|--------|--------|--------|--------|
D|--------|--------|--------|--------|--------|--------|--------|--------|--------|
A|--------|--------|--------|--------|--------|--------|--------|--------|--------|
E|--------|--------|--------|--------|--------|--------|--------|--------|--------|


E|--------|--------|--------|--------|--------|--------|--------|--------|--------|
B|--------|--------|--------|--------|--------|--------|--------|--------|--------|
G|--------|--------|--------|--------|--------|--------|--------|--------|--------|
D|--------|--------|--------|--------|--------|--------|--------|--------|--------|
A|--------|--------|--------|--------|--------|--------|--------|--------|--------|
E|--------|--------|--------|--------|--------|--------|--------|--------|--------|


E|--------|--------|--------|--------|--------|--------|--------|--------|--------|
B|--------|--------|--------|--------|--------|--------|--------|--------|--------|
G|--------|--------|--------|--------|--------|--------|--------|--------|--------|
D|--------|--------|--------|--------|--------|--------|--------|--------|--------|
A|--------|--------|--------|--------|--------|--------|--------|--------|--------|
E|--------|--------|--------|--------|--------|--------|--------|--------|--------|


E|--------|--------|--------|--------|--------|--------|--------|--------|--------|
B|--------|--------|--------|--------|--------|--------|--------|--------|--------|
G|--------|--------|--------|--------|--------|--------|--------|--------|--------|
D|--------|--------|--------|--------|--------|--------|--------|--------|--------|
A|--------|--------|--------|--------|--------|--------|--------|--------|--------|
E|--------|--------|--------|--------|--------|--------|--------|--------|--------|


E|--------|--------|--------|--------|--------|--------|--------|--------|--------|
B|--------|--------|--------|--------|--------|--------|--------|--------|--------|
G|--------|--------|--------|--------|--------|--------|--------|--------|--------|
D|--------|--------|--------|--------|--------|--------|--------|--------|--------|
A|--------|--------|--------|--------|--------|--------|--------|--------|--------|
E|--------|--------|--------|--------|--------|--------|--------|--------|--------|


E|--------|--------|--------|--------|--------|--------|--------|--------|--------|
B|--------|--------|--------|--------|--------|--------|--------|--------|--------|
G|--------|--------|--------|--------|--------|--------|--------|--------|--------|
D|--------|--------|--------|--------|--------|--------|--------|--------|--------|
A|--------|--------|--------|--------|--------|--------|--------|--------|--------|
E|--------|--------|--------|--------|--------|--------|--------|--------|--------|


E|--------|--------|--------|--------|--------|--------|--------|--------|--------|
B|--------|--------|--------|--------|--------|--------|--------|--------|--------|
G|--------|--------|--------|--------|--------|--------|--------|--------|--------|
D|--------|--------|--------|--------|--------|--------|--------|--------|--------|
A|--------|--------|--------|--------|--------|--------|--------|--------|--------|
E|--------|--------|--------|--------|--------|--------|--------|--------|--------|


E|--------|--------|--------|--------|--------|--------|--------|--------|--------|
B|--------|--------|--------|--------|--------|--------|--------|--------|--------|
G|--------|--------|--------|--------|--------|--------|--------|--------|--------|
D|--------|--------|--------|--------|--------|--------|--------|--------|--------|
A|--------|--------|--------|--------|--------|--------|--------|--------|--------|
E|--------|--------|--------|--------|--------|--------|--------|--------|--------|


E|--------|--------|--------|--------|--------|--------|--------|--------|--------|
B|--------|--------|--------|--------|--------|--------|--------|--------|--------|
G|--------|--------|--------|--------|--------|--------|--------|--------|--------|
D|--------|--------|--------|--------|--------|--------|--------|--------|--------|
A|--------|--------|--------|--------|--------|--------|--------|--------|--------|
E|--------|--------|--------|--------|--------|--------|--------|--------|--------|


E|--------|--------|--------|--------|--------|--------|--------|--------|--------|
B|--------|--------|--------|--------|--------|--------|--------|--------|--------|
G|--------|--------|--------|--------|--------|--------|--------|--------|--------|
D|--------|--------|--------|--------|--------|--------|--------|--------|--------|
A|--------|--------|--------|--------|--------|--------|--------|--------|--------|
E|--------|--------|--------|--------|--------|--------|--------|--------|--------|


E|--------|--------|--------|--------|--------|--------|
B|--------|--------|--------|--------|--------|--------|
G|--------|--------|--------|--------|--------|--------|
D|--------|--------|--------|--------|--------|--------|
A|--------|--------|--------|--------|--------|--------|
E|--------|--------|--------|--------|--------|--------|





Track 5: Solo Gtr.

E|--------|--------|--------|--------|--------|--------|--------|--------|--------|
B|--------|--------|--------|--------|--------|--------|--------|--------|--------|
G|--------|--------|--------|--------|--------|--------|--------|--------|--------|
D|--------|--------|--------|--------|--------|--------|--------|--------|--------|
A|--------|--------|--------|--------|--------|--------|--------|--------|--------|
E|--------|--------|--------|--------|--------|--------|--------|--------|--------|


E|--------|--------|--------|--------|--------|--------|--------|--------|--------|
B|--------|--------|--------|--------|--------|--------|--------|--------|--------|
G|--------|--------|--------|--------|--------|--------|--------|--------|--------|
D|--------|--------|--------|--------|--------|--------|--------|--------|--------|
A|--------|--------|--------|--------|--------|--------|--------|--------|--------|
E|--------|--------|--------|--------|--------|--------|--------|--------|--------|


E|--------|--------|--------|--------|--------|--------|--------|--------|--------|
B|--------|--------|--------|--------|--------|--------|--------|--------|--------|
G|--------|--------|--------|--------|--------|--------|--------|--------|--------|
D|--------|--------|--------|--------|--------|--------|--------|--------|--------|
A|--------|--------|--------|--------|--------|--------|--------|--------|--------|
E|--------|--------|--------|--------|--------|--------|--------|--------|--------|


E|--------|--------|--------|--------|--------|--------|--------|--------|--------|
B|--------|--------|--------|--------|--------|--------|--------|--------|--------|
G|--------|--------|--------|--------|--------|--------|--------|--------|--------|
D|--------|--------|--------|--------|--------|--------|--------|--------|--------|
A|--------|--------|--------|--------|--------|--------|--------|--------|--------|
E|--------|--------|--------|--------|--------|--------|--------|--------|--------|


E|--------|--------|--------|--------|--------|--------|--------|--------|--------|
B|--------|--------|--------|--------|--------|--------|--------|--------|--------|
G|--------|--------|--------|--------|--------|--------|--------|--------|--------|
D|--------|--------|--------|--------|--------|--------|--------|--------|--------|
A|--------|--------|--------|--------|--------|--------|--------|--------|--------|
E|--------|--------|--------|--------|--------|--------|--------|--------|--------|


E|--------|--------|--------|--------|--------|--------|--------|--------|--------|
B|--------|--------|--------|--------|--------|--------|--------|--------|--------|
G|--------|--------|--------|--------|--------|--------|--------|--------|--------|
D|--------|--------|--------|--------|--------|--------|--------|--------|--------|
A|--------|--------|--------|--------|--------|--------|--------|--------|--------|
E|--------|--------|--------|--------|--------|--------|--------|--------|--------|


E|--------|--------|--------|--------|--------|--------|--------|--------|--------|
B|--------|--------|--------|--------|--------|--------|--------|--------|--------|
G|--------|--------|--------|--------|--------|--------|--------|--------|--------|
D|--------|--------|--------|--------|--------|--------|--------|--------|--------|
A|--------|--------|--------|--------|--------|--------|--------|--------|--------|
E|--------|--------|--------|--------|--------|--------|--------|--------|--------|


E|--------|--------|--------|--------|--------|--------|--------|--------|-------------|
B|--------|--------|--------|--------|--------|--------|--------|--------|-------------|
G|--------|--------|--------|--------|--------|--------|--------|--------|-9-----8-----|
D|--------|--------|--------|--------|--------|--------|--------|--------|-------------|
A|--------|--------|--------|--------|--------|--------|--------|--------|-------------|
E|--------|--------|--------|--------|--------|--------|--------|--------|-------------|


E|-------------|-------------|-------------|-------------|-------------|-------------|
B|-------------|-------------|-------------|-------------|-------------|-------------|
G|-9-----10----|-9-----8-----|-9-----10----|-9-----8-----|-9-----10----|-9-----8-----|
D|-------------|-------------|-------------|-------------|-------------|-------------|
A|-------------|-------------|-------------|-------------|-------------|-------------|
E|-------------|-------------|-------------|-------------|-------------|-------------|


E|-------------|-------------|--------|--------|------------12--------|--------|------------------12--------|
B|-------------|-13----12----|--------|--------|-13---13--------12-12-|-12-----|-12-12-12---12--------12-12-|
G|-9-----10----|-------------|-2------|-2------|----------------------|--------|----------------------------|
D|-------------|-------------|-2------|-2------|----------------------|--------|----------------------------|
A|-------------|-------------|-0------|-0------|----------------------|--------|----------------------------|
E|-------------|-------------|--------|--------|----------------------|--------|----------------------------|


E|---------------------------|------------------12--------|--------|-17---19---19-19-19-19-19-17-----17--|
B|-12--10--12--12--10--10----|-12-12-12---12--------12-12-|-12-----|-----------------------------20------|
G|---------------------------|----------------------------|--------|-------------------------------------|
D|---------------------------|----------------------------|--------|-------------------------------------|
A|---------------------------|----------------------------|--------|-------------------------------------|
E|---------------------------|----------------------------|--------|-------------------------------------|


E|------------2----|-20--19--17--19--17-19-17-----17------|----------------------------------------|
B|-20---20---------|--------------------------20------20--|-18--17--18--17-18-17-15--17------------|
G|-----------------|--------------------------------------|------------------------------17-17-16--|
D|-----------------|--------------------------------------|----------------------------------------|
A|-----------------|--------------------------------------|----------------------------------------|
E|-----------------|--------------------------------------|----------------------------------------|


E|-----------------------------------------------------|-----------------------------------------------------|
B|-----------------------------------------------------|-----------------------------------------------------|
G|-17--16-17-16-14--14-16-14-12--12-14-12-10--10-12-10-|-9---9--10-9--7---7--9--7--5---5--7--5--4---4--5--4--|
D|-----------------------------------------------------|-----------------------------------------------------|
A|-----------------------------------------------------|-----------------------------------------------------|
E|-----------------------------------------------------|-----------------------------------------------------|


E|------------|-----------------|--------------------|------------17--19--|-20----20---20--20-19-17-|
B|--------18--|-18---18----18---|-20--20----20---20--|-20----20-----------|-------------------------|
G|-2----------|-----------------|--------------------|--------------------|-------------------------|
D|------------|-----------------|--------------------|--------------------|-------------------------|
A|------------|-----------------|--------------------|--------------------|-------------------------|
E|------------|-----------------|--------------------|--------------------|-------------------------|


E|-19--19---19--19----|-22---22----22-------|---------------------|-------------|--------------17---17--|
B|--------------------|---------------------|---------------------|-------------|-----------------------|
G|--------------------|----------------21---|-21---21---17--17----|-17----------|-----------------------|
D|--------------------|---------------------|---------------------|------16-----|-16----16--16----------|
A|--------------------|---------------------|---------------------|-------------|-----------------------|
E|--------------------|---------------------|---------------------|-------------|-----------------------|


E|-17----------|-------------|-------------------------------|-------------|---------------------------------|
B|--------18---|-18-----18---|-------------------------------|-------------|-12--12--10--12--12---12-12------|
G|-------------|-------------|-4--5--4--5--4--5--4-----5-----|-7-----9-----|---------------------------------|
D|-------------|-------------|-------------------------------|-------------|---------------------------------|
A|-------------|-------------|-------------------------------|-------------|---------------------------------|
E|-------------|-------------|-------------------------------|-------------|---------------------------------|


E|------------------------------------|-------------------------------|------------------------------------------------|
B|-12--12--10--12--12-12---12------17-|-17----17--17--1517-15-13-1313-|-15-13-12-13-15-13-12-13-12-10-12-10-------10---|
G|------------------------------------|-------------------------------|-------------------------------------12-11------|
D|----------------------------9-------|-------------------------------|------------------------------------------------|
A|------------------------------------|-------------------------------|------------------------------------------------|
E|------------------------------------|-------------------------------|------------------------------------------------|


E|--------|--------|--------|--------|--------|--------|--------|--------|--------------------|
B|-10-----|-10-----|--------|--------|--------|--------|--------|--------|-20--20----20---20--|
G|--------|--------|--------|--------|--------|--------|--------|--------|--------------------|
D|--------|--------|--------|--------|--------|--------|--------|--------|--------------------|
A|--------|--------|--------|--------|--------|--------|--------|--------|--------------------|
E|--------|--------|--------|--------|--------|--------|--------|--------|--------------------|


E|------------17--19--|-20----20---20--20-19-17-|-19--19---19----19--|-22---22----22-------|
B|-20----20-----------|-------------------------|--------------------|---------------------|
G|--------------------|-------------------------|--------------------|----------------21---|
D|--------------------|-------------------------|--------------------|---------------------|
A|--------------------|-------------------------|--------------------|---------------------|
E|--------------------|-------------------------|--------------------|---------------------|


E|---------------------|-------------|--------------17---17--|-15-15---15-15-15---15-15--15--|
B|---------------------|-------------|-----------------------|-------------------------------|
G|-21---21---17--17----|-17----------|-----------------------|-------------------------------|
D|---------------------|------16-----|-16----16-16-----------|-------------------------------|
A|---------------------|-------------|-----------------------|-------------------------------|
E|---------------------|-------------|-----------------------|-------------------------------|


E|-15----15--------|-------------------------------------|-------------|------------------------------------|
B|-----------10----|-------------------------------------|-------------|--------------------------------5---|
G|-----------------|-7---7---7---7---7--7--7---7--7--7---|-5------5----|-7--5-----5--4-----4----------------|
D|-----------------|-------------------------------------|-------------|-------7--------5-----7----7--------|
A|-----------------|-------------------------------------|-------------|------------------------------------|
E|-----------------|-------------------------------------|-------------|------------------------------------|


E|----------------------------3--|-3------3---3---|-3--3-----------|--------------------------------------------------|
B|-15-13-12-13-12----12----------|----------------|----------------|--------------------------------------------17-16-|
G|----------------12----14-------|----------------|----------------|---------------------------141617----16-1719------|
D|-------------------------------|----------------|-----------10---|-----------------17-14--17--------19--------------|
A|-------------------------------|----------------|----------------|-15-17--15-17-19----------------------------------|
E|-------------------------------|----------------|----------------|--------------------------------------------------|


E|---------------------------------------------|-------17------------------------20---20-|
B|-17-18-17-18-17--16--15--17--16--15----------|----------20-17-20--17-------------------|
G|-------------------------------------17--19--|-19-21------------------20-19-17---------|
D|---------------------------------------------|-----------------------------------------|
A|---------------------------------------------|-----------------------------------------|
E|---------------------------------------------|-----------------------------------------|


E|-19--19--19--17------17--------------|-17-20-22-17-201717-17-20-22-20-222017-20-17----1717|
B|-----------------20------20--2020----|---------------------------------------------20-----|
G|-------------------------------------|----------------------------------------------------|
D|-------------------------------------|----------------------------------------------------|
A|-------------------------------------|----------------------------------------------------|
E|-------------------------------------|----------------------------------------------------|


E|----17-22-20-17-20-17----17-17------------------|-17-22-20-17-----17-17-----17-17-20-15-13----|
B|-20-------------------20-------20-201720-20-20--|-------------20--------20-----------------13-|
G|------------------------------------------------|---------------------------------------------|
D|------------------------------------------------|---------------------------------------------|
A|------------------------------------------------|---------------------------------------------|
E|------------------------------------------------|---------------------------------------------|


E|-20-15-13----20-15-13----20-15-13----20-15-13----|-22---22--22---22---22---|-22----22--22--22----|
B|----------13----------13----------13----------13-|-------------------------|---------------------|
G|-------------------------------------------------|-------------------------|---------------------|
D|-------------------------------------------------|-------------------------|---------------------|
A|-------------------------------------------------|-------------------------|---------------------|
E|-------------------------------------------------|-------------------------|---------------------|


E|-22--------------|--------|-22---22--22---22---22---|-22----22--22--22----|-22--------------|
B|-----------------|--------|-------------------------|---------------------|-----------------|
G|-----------------|--------|-------------------------|---------------------|-----------------|
D|-----------------|--------|-------------------------|---------------------|-----------------|
A|-----------------|--------|-------------------------|---------------------|-----------------|
E|-----------------|--------|-------------------------|---------------------|-----------------|


E|--------|--------|--------|--------|--------|--------|--------|--------|--------|
B|--------|--------|--------|--------|--------|--------|--------|--------|--------|
G|--------|--------|--------|--------|--------|--------|--------|--------|--------|
D|--------|--------|--------|--------|--------|--------|--------|--------|--------|
A|--------|--------|--------|--------|--------|--------|--------|--------|--------|
E|--------|--------|--------|--------|--------|--------|--------|--------|--------|


E|--------|--------|--------|-15---14----------------|-------17-----|-15---14----------------|
B|--------|--------|--------|-----------17---15------|--------------|-----------17---15--12--|
G|--------|--------|--------|--------------------16--|-16-16--------|------------------------|
D|--------|--------|--------|------------------------|--------------|------------------------|
A|--------|--------|--------|------------------------|--------------|------------------------|
E|--------|--------|--------|------------------------|--------------|------------------------|


E|-------------------|-15---14----------------|-------17--20--20----20------|-15---14----------------|
B|-12-12-------------|-----------17---15------|-----------------------------|-----------17---15--12--|
G|-------14----14----|--------------------16--|-16-16-----------------------|------------------------|
D|-------------------|------------------------|-----------------------------|------------------------|
A|-------------------|------------------------|-----------------------------|------------------------|
E|-------------------|------------------------|-----------------------------|------------------------|


E|-------------------|--------|--------|--------|--------|--------|--------|
B|-12-12-------------|--------|--------|--------|--------|--------|--------|
G|-------14----14----|--------|--------|--------|--------|--------|--------|
D|-------------------|--------|--------|--------|--------|--------|--------|
A|-------------------|--------|--------|--------|--------|--------|--------|
E|-------------------|--------|--------|--------|--------|--------|--------|





Track 6: Clean w/chorus

E|--------|--------|--------|--------|--------|--------|--------|--------|--------|
B|--------|--------|--------|--------|--------|--------|--------|--------|--------|
G|--------|--------|--------|--------|--------|--------|--------|--------|--------|
D|--------|--------|--------|--------|--------|--------|--------|--------|--------|
A|--------|--------|--------|--------|--------|--------|--------|--------|--------|
E|--------|--------|--------|--------|--------|--------|--------|--------|--------|


E|--------|--------|--------|--------|--------|--------|--------|--------|--------|
B|--------|--------|--------|--------|--------|--------|--------|--------|--------|
G|--------|--------|--------|--------|--------|--------|--------|--------|--------|
D|--------|--------|--------|--------|--------|--------|--------|--------|--------|
A|--------|--------|--------|--------|--------|--------|--------|--------|--------|
E|--------|--------|--------|--------|--------|--------|--------|--------|--------|


E|--------|--------|--------|--------|--------|--------|--------|--------|--------|
B|--------|--------|--------|--------|--------|--------|--------|--------|--------|
G|--------|--------|--------|--------|--------|--------|--------|--------|--------|
D|--------|--------|--------|--------|--------|--------|--------|--------|--------|
A|--------|--------|--------|--------|--------|--------|--------|--------|--------|
E|--------|--------|--------|--------|--------|--------|--------|--------|--------|


E|--------|--------|--------|--------|--------|--------|--------|--------|--------|
B|--------|--------|--------|--------|--------|--------|--------|--------|--------|
G|--------|--------|--------|--------|--------|--------|--------|--------|--------|
D|--------|--------|--------|--------|--------|--------|--------|--------|--------|
A|--------|--------|--------|--------|--------|--------|--------|--------|--------|
E|--------|--------|--------|--------|--------|--------|--------|--------|--------|


E|--------|--------|--------|--------|--------|--------|--------|--------|--------|
B|--------|--------|--------|--------|--------|--------|--------|--------|--------|
G|--------|--------|--------|--------|--------|--------|--------|--------|--------|
D|--------|--------|--------|--------|--------|--------|--------|--------|--------|
A|--------|--------|--------|--------|--------|--------|--------|--------|--------|
E|--------|--------|--------|--------|--------|--------|--------|--------|--------|


E|--------|--------|--------|--------|--------|--------|--------|--------|--------|
B|--------|--------|--------|--------|--------|--------|--------|--------|--------|
G|--------|--------|--------|--------|--------|--------|--------|--------|--------|
D|--------|--------|--------|--------|--------|--------|--------|--------|--------|
A|--------|--------|--------|--------|--------|--------|--------|--------|--------|
E|--------|--------|--------|--------|--------|--------|--------|--------|--------|


E|--------|--------|--------|--------|--------|--------|--------|--------|--------|
B|--------|--------|--------|--------|--------|--------|--------|--------|--------|
G|--------|--------|--------|--------|--------|--------|--------|--------|--------|
D|--------|--------|--------|--------|--------|--------|--------|--------|--------|
A|--------|--------|--------|--------|--------|--------|--------|--------|--------|
E|--------|--------|--------|--------|--------|--------|--------|--------|--------|


E|--------|--------|--------|--------|--------|--------|--------|--------|--------|
B|--------|--------|--------|--------|--------|--------|--------|--------|--------|
G|--------|--------|--------|--------|--------|--------|--------|--------|--------|
D|--------|--------|--------|--------|--------|--------|--------|--------|--------|
A|--------|--------|--------|--------|--------|--------|--------|--------|--------|
E|--------|--------|--------|--------|--------|--------|--------|--------|--------|


E|--------|--------|--------|--------|--------|--------|--------|--------|--------|
B|--------|--------|--------|--------|--------|--------|--------|--------|--------|
G|--------|--------|--------|--------|--------|--------|--------|--------|--------|
D|--------|--------|--------|--------|--------|--------|--------|--------|--------|
A|--------|--------|--------|--------|--------|--------|--------|--------|--------|
E|--------|--------|--------|--------|--------|--------|--------|--------|--------|


E|--------|-----------------0---------------|-----------------0---------------|-----------------0---------------|
B|--------|-------------3-------3-----------|-------------3-------3-----------|-------------3-------3-----------|
G|--------|---------5---------------5-------|---------5---------------5-------|---------5---------------5-------|
D|--------|-----7-----------------------7---|-----6-----------------------6---|-----5-----------------------5---|
A|--------|-0-------------------------------|-0-------------------------------|-0-------------------------------|
E|--------|---------------------------------|---------------------------------|---------------------------------|


E|-------------------------0-------|--------|--------|--------|--------|--------|--------|
B|-------------0---3-----------3---|--------|--------|--------|--------|--------|--------|
G|---------5-----------5-----------|--------|--------|--------|--------|--------|--------|
D|-----4---------------------------|--------|--------|--------|--------|--------|--------|
A|-0-------------------------------|--------|--------|--------|--------|--------|--------|
E|---------------------------------|--------|--------|--------|--------|--------|--------|


E|--------|--------|--------|--------|--------|--------|--------|--------|--------|
B|--------|--------|--------|--------|--------|--------|--------|--------|--------|
G|--------|--------|--------|--------|--------|--------|--------|--------|--------|
D|--------|--------|--------|--------|--------|--------|--------|--------|--------|
A|--------|--------|--------|--------|--------|--------|--------|--------|--------|
E|--------|--------|--------|--------|--------|--------|--------|--------|--------|


E|--------|--------|--------|--------|--------|--------|--------|--------|--------|
B|--------|--------|--------|--------|--------|--------|--------|--------|--------|
G|--------|--------|--------|--------|--------|--------|--------|--------|--------|
D|--------|--------|--------|--------|--------|--------|--------|--------|--------|
A|--------|--------|--------|--------|--------|--------|--------|--------|--------|
E|--------|--------|--------|--------|--------|--------|--------|--------|--------|


E|--------|--------|--------|--------|--------|--------|--------|--------|--------|
B|--------|--------|--------|--------|--------|--------|--------|--------|--------|
G|--------|--------|--------|--------|--------|--------|--------|--------|--------|
D|--------|--------|--------|--------|--------|--------|--------|--------|--------|
A|--------|--------|--------|--------|--------|--------|--------|--------|--------|
E|--------|--------|--------|--------|--------|--------|--------|--------|--------|


E|--------|--------|--------|--------|--------|--------|--------|--------|--------|
B|--------|--------|--------|--------|--------|--------|--------|--------|--------|
G|--------|--------|--------|--------|--------|--------|--------|--------|--------|
D|--------|--------|--------|--------|--------|--------|--------|--------|--------|
A|--------|--------|--------|--------|--------|--------|--------|--------|--------|
E|--------|--------|--------|--------|--------|--------|--------|--------|--------|


E|--------|--------|--------|--------|--------|--------|--------|--------|--------|
B|--------|--------|--------|--------|--------|--------|--------|--------|--------|
G|--------|--------|--------|--------|--------|--------|--------|--------|--------|
D|--------|--------|--------|--------|--------|--------|--------|--------|--------|
A|--------|--------|--------|--------|--------|--------|--------|--------|--------|
E|--------|--------|--------|--------|--------|--------|--------|--------|--------|


E|--------|--------|--------|--------|--------|--------|--------|--------|--------|
B|--------|--------|--------|--------|--------|--------|--------|--------|--------|
G|--------|--------|--------|--------|--------|--------|--------|--------|--------|
D|--------|--------|--------|--------|--------|--------|--------|--------|--------|
A|--------|--------|--------|--------|--------|--------|--------|--------|--------|
E|--------|--------|--------|--------|--------|--------|--------|--------|--------|


E|--------|--------|--------|--------|--------|--------|--------|--------|--------|
B|--------|--------|--------|--------|--------|--------|--------|--------|--------|
G|--------|--------|--------|--------|--------|--------|--------|--------|--------|
D|--------|--------|--------|--------|--------|--------|--------|--------|--------|
A|--------|--------|--------|--------|--------|--------|--------|--------|--------|
E|--------|--------|--------|--------|--------|--------|--------|--------|--------|


E|--------|--------|--------|--------|--------|--------|--------|--------|--------|
B|--------|--------|--------|--------|--------|--------|--------|--------|--------|
G|--------|--------|--------|--------|--------|--------|--------|--------|--------|
D|--------|--------|--------|--------|--------|--------|--------|--------|--------|
A|--------|--------|--------|--------|--------|--------|--------|--------|--------|
E|--------|--------|--------|--------|--------|--------|--------|--------|--------|


E|--------|--------|--------|--------|--------|--------|--------|--------|--------|
B|--------|--------|--------|--------|--------|--------|--------|--------|--------|
G|--------|--------|--------|--------|--------|--------|--------|--------|--------|
D|--------|--------|--------|--------|--------|--------|--------|--------|--------|
A|--------|--------|--------|--------|--------|--------|--------|--------|--------|
E|--------|--------|--------|--------|--------|--------|--------|--------|--------|


E|--------|--------|--------|--------|
B|--------|--------|--------|--------|
G|--------|--------|--------|--------|
D|--------|--------|--------|--------|
A|--------|--------|--------|--------|
E|--------|--------|--------|--------|





Track 7: Untitled

G|--------|--------|--------|--------|--------|--------|--------|--------|--------|
D|--------|--------|--------|--------|--------|--------|--------|--------|--------|
A|--------|--------|--------|--------|--------|--------|--------|--------|--------|
E|--------|--------|--------|--------|--------|--------|--------|--------|--------|


G|--------|--------|--------|--------|--------|--------|--------|--------|--------|
D|--------|--------|--------|--------|--------|--------|--------|--------|--------|
A|--------|--------|--------|--------|--------|--------|--------|--------|--------|
E|--------|--------|--------|--------|--------|--------|--------|--------|--------|


G|--------|--------|--------|--------|--------|--------|--------|--------|--------|
D|--------|--------|--------|--------|--------|--------|--------|--------|--------|
A|--------|--------|--------|--------|--------|--------|--------|--------|--------|
E|--------|--------|--------|--------|--------|--------|--------|--------|--------|


G|--------|--------|--------|--------|--------|--------|--------|--------|--------|
D|--------|--------|--------|--------|--------|--------|--------|--------|--------|
A|--------|--------|--------|--------|--------|--------|--------|--------|--------|
E|--------|--------|--------|--------|--------|--------|--------|--------|--------|


G|--------|--------|--------|--------|--------|--------|--------|--------|--------|
D|--------|--------|--------|--------|--------|--------|--------|--------|--------|
A|--------|--------|--------|--------|--------|--------|--------|--------|--------|
E|--------|--------|--------|--------|--------|--------|--------|--------|--------|


G|--------|--------|--------|--------|--------|--------|--------|--------|--------|
D|--------|--------|--------|--------|--------|--------|--------|--------|--------|
A|--------|--------|--------|--------|--------|--------|--------|--------|--------|
E|--------|--------|--------|--------|--------|--------|--------|--------|--------|


G|--------|--------|--------|--------|--------|--------|--------|--------|--------|
D|--------|--------|--------|--------|--------|--------|--------|--------|--------|
A|--------|--------|--------|--------|--------|--------|--------|--------|--------|
E|--------|--------|--------|--------|--------|--------|--------|--------|--------|


G|--------|--------|--------|--------|--------|--------|--------|--------|--------|
D|--------|--------|--------|--------|--------|--------|--------|--------|--------|
A|--------|--------|--------|--------|--------|--------|--------|--------|--------|
E|--------|--------|--------|--------|--------|--------|--------|--------|--------|


G|--------|--------|--------|--------|--------|--------|--------|--------|--------|
D|--------|--------|--------|--------|--------|--------|--------|--------|--------|
A|--------|--------|--------|--------|--------|--------|--------|--------|--------|
E|--------|--------|--------|--------|--------|--------|--------|--------|--------|


G|--------|--------|--------|--------|--------|--------|--------|--------|--------|
D|--------|--------|--------|--------|--------|--------|--------|--------|--------|
A|--------|--------|--------|--------|--------|--------|--------|--------|--------|
E|--------|--------|--------|--------|--------|--------|--------|--------|--------|


G|--------|--------|--------|--------|--------|--------|--------|--------|--------|
D|--------|--------|--------|--------|--------|--------|--------|--------|--------|
A|--------|--------|--------|--------|--------|--------|--------|--------|--------|
E|--------|--------|--------|--------|--------|--------|--------|--------|--------|


G|--------|--------|--------|--------|--------|--------|--------|--------|--------|
D|--------|--------|--------|--------|--------|--------|--------|--------|--------|
A|--------|--------|--------|--------|--------|--------|--------|--------|--------|
E|--------|--------|--------|--------|--------|--------|--------|--------|--------|


G|--------|--------|--------|--------|--------|--------|--------|--------|--------|
D|--------|--------|--------|--------|--------|--------|--------|--------|--------|
A|--------|--------|--------|--------|--------|--------|--------|--------|--------|
E|--------|--------|--------|--------|--------|--------|--------|--------|--------|


G|--------|--------|--------|--------|--------|--------|--------|--------|--------|
D|--------|--------|--------|--------|--------|--------|--------|--------|--------|
A|--------|--------|--------|--------|--------|--------|--------|--------|--------|
E|--------|--------|--------|--------|--------|--------|--------|--------|--------|


G|--------|--------|--------|--------|--------|--------|--------|--------|--------|
D|--------|--------|--------|--------|--------|--------|--------|--------|--------|
A|--------|--------|--------|--------|--------|--------|--------|--------|--------|
E|--------|--------|--------|--------|--------|--------|--------|--------|--------|


G|--------|--------|--------|--------|--------|--------|--------|--------|--------|
D|--------|--------|--------|--------|--------|--------|--------|--------|--------|
A|--------|--------|--------|--------|--------|--------|--------|--------|--------|
E|--------|--------|--------|--------|--------|--------|--------|--------|--------|


G|--------|--------|--------|--------|--------|--------|--------|--------|--------|
D|--------|--------|--------|--------|--------|--------|--------|--------|--------|
A|--------|--------|--------|--------|--------|--------|--------|--------|--------|
E|--------|--------|--------|--------|--------|--------|--------|--------|--------|


G|--------|--------|--------|--------|--------|--------|--------|--------|--------|
D|--------|--------|--------|--------|--------|--------|--------|--------|--------|
A|--------|--------|--------|--------|--------|--------|--------|--------|--------|
E|--------|--------|--------|--------|--------|--------|--------|--------|--------|


G|--------|--------|--------|--------|--------|--------|--------|--------|--------|
D|--------|--------|--------|--------|--------|--------|--------|--------|--------|
A|--------|--------|--------|--------|--------|--------|--------|--------|--------|
E|--------|--------|--------|--------|--------|--------|--------|--------|--------|


G|--------|--------|--------|--------|--------|--------|
D|--------|--------|--------|--------|--------|--------|
A|--------|--------|--------|--------|--------|--------|
E|--------|--------|--------|--------|--------|--------|